ISO-10303-21;
HEADER;
FILE_DESCRIPTION (( 'STEP AP203' ),
    '1' );
FILE_NAME ('321585.step',
    '2021-12-02T09:35:49',
    ( '' ),
    ( '' ),
    'SwSTEP 2.0',
    'SolidWorks 2019',
    '' );
FILE_SCHEMA (( 'CONFIG_CONTROL_DESIGN' ));
ENDSEC;

DATA;
#1 = AXIS2_PLACEMENT_3D ( 'NONE', #260, #48, #204 ) ;
#2 = CARTESIAN_POINT ( 'NONE',  ( 2.433562493173664138E-13, -8.535788190057053710E-15, 69.70000000000001705 ) ) ;
#3 = PERSON_AND_ORGANIZATION_ROLE ( 'design_supplier' ) ;
#4 = CARTESIAN_POINT ( 'NONE',  ( -3.303079791955387908E-31, 1.158564432106280596E-32, -9.460396523413267170E-17 ) ) ;
#5 = EDGE_LOOP ( 'NONE', ( #80 ) ) ;
#6 = CALENDAR_DATE ( 2021, 2, 12 ) ;
#7 = FACE_OUTER_BOUND ( 'NONE', #169, .T. ) ;
#8 = CC_DESIGN_PERSON_AND_ORGANIZATION_ASSIGNMENT ( #166, #70, ( #178 ) ) ;
#9 = EDGE_LOOP ( 'NONE', ( #275 ) ) ;
#10 = CARTESIAN_POINT ( 'NONE',  ( 2.444036937190193601E-13, -8.572527594031472993E-15, 70.00000000000000000 ) ) ;
#11 = EDGE_CURVE ( 'NONE', #256, #256, #46, .T. ) ;
#12 = EDGE_LOOP ( 'NONE', ( #297 ) ) ;
#13 = FACE_OUTER_BOUND ( 'NONE', #195, .T. ) ;
#14 = VERTEX_POINT ( 'NONE', #201 ) ;
#15 = ADVANCED_FACE ( 'NONE', ( #51 ), #194, .F. ) ;
#16 = APPROVAL_PERSON_ORGANIZATION ( #116, #269, #211 ) ;
#17 =( LENGTH_UNIT ( ) NAMED_UNIT ( * ) SI_UNIT ( .MILLI., .METRE. ) );
#18 = AXIS2_PLACEMENT_3D ( 'NONE', #83, #244, #214 ) ;
#19 = CARTESIAN_POINT ( 'NONE',  ( 3.491481338843133355E-14, -1.224646799147353256E-15, 10.00000000000000000 ) ) ;
#20 = AXIS2_PLACEMENT_3D ( 'NONE', #85, #135, #89 ) ;
#21 = VERTEX_POINT ( 'NONE', #231 ) ;
#22 = APPROVAL_STATUS ( 'not_yet_approved' ) ;
#23 = FACE_OUTER_BOUND ( 'NONE', #101, .T. ) ;
#24 = APPROVAL_DATE_TIME ( #290, #269 ) ;
#25 = FACE_OUTER_BOUND ( 'NONE', #96, .T. ) ;
#26 = CALENDAR_DATE ( 2021, 2, 12 ) ;
#27 = DIRECTION ( 'NONE',  ( 4.275831445896958607E-31, 1.000000000000000000, 1.224646799147353207E-16 ) ) ;
#28 = DIRECTION ( 'NONE',  ( 0.0000000000000000000, 1.000000000000000000, 0.0000000000000000000 ) ) ;
#29 = LOCAL_TIME ( 10, 35, 49.00000000000000000, #75 ) ;
#30 = MANIFOLD_SOLID_BREP ( 'Corps-Déplacer/Copier1[1]', #111 ) ;
#31 = CC_DESIGN_DATE_AND_TIME_ASSIGNMENT ( #88, #159, ( #299 ) ) ;
#32 = EDGE_LOOP ( 'NONE', ( #246 ) ) ;
#33 = DIRECTION ( 'NONE',  ( 0.0000000000000000000, 1.000000000000000000, 0.0000000000000000000 ) ) ;
#34 = VERTEX_POINT ( 'NONE', #302 ) ;
#35 = CC_DESIGN_DATE_AND_TIME_ASSIGNMENT ( #241, #123, ( #200 ) ) ;
#36 = CIRCLE ( 'NONE', #220, 1.200000000000001510 ) ;
#37 = VERTEX_POINT ( 'NONE', #230 ) ;
#38 = CC_DESIGN_APPROVAL ( #150, ( #299 ) ) ;
#39 = PLANE ( 'NONE',  #213 ) ;
#40 = EDGE_CURVE ( 'NONE', #277, #277, #97, .T. ) ;
#41 = FACE_OUTER_BOUND ( 'NONE', #9, .T. ) ;
#42 = APPROVAL_DATE_TIME ( #115, #150 ) ;
#43 = AXIS2_PLACEMENT_3D ( 'NONE', #235, #110, #66 ) ;
#44 = DIRECTION ( 'NONE',  ( 0.0000000000000000000, 1.000000000000000000, 0.0000000000000000000 ) ) ;
#45 = CALENDAR_DATE ( 2021, 2, 12 ) ;
#46 = CIRCLE ( 'NONE', #152, 1.794999999999995044 ) ;
#47 = MANIFOLD_SOLID_BREP ( 'Corps-Déplacer/Copier1[2]', #264 ) ;
#48 = DIRECTION ( 'NONE',  ( 0.0000000000000000000, 0.0000000000000000000, 1.000000000000000000 ) ) ;
#49 = SHAPE_DEFINITION_REPRESENTATION ( #130, #184 ) ;
#50 = COORDINATED_UNIVERSAL_TIME_OFFSET ( 1, 0, .AHEAD. ) ;
#51 = FACE_OUTER_BOUND ( 'NONE', #218, .T. ) ;
#52 = PLANE ( 'NONE',  #108 ) ;
#53 = ORIENTED_EDGE ( 'NONE', *, *, #11, .F. ) ;
#54 = CC_DESIGN_PERSON_AND_ORGANIZATION_ASSIGNMENT ( #237, #90, ( #299 ) ) ;
#55 = APPLICATION_PROTOCOL_DEFINITION ( 'international standard', 'config_control_design', 1994, #139 ) ;
#56 = FACE_OUTER_BOUND ( 'NONE', #172, .T. ) ;
#57 = CC_DESIGN_APPROVAL ( #269, ( #283 ) ) ;
#58 = ORIENTED_EDGE ( 'NONE', *, *, #222, .T. ) ;
#59 = CONICAL_SURFACE ( 'NONE', #82, 1.544999999999994156, 0.7853981633974500554 ) ;
#60 = DIRECTION ( 'NONE',  ( -3.491481338843133355E-15, 1.224646799147353207E-16, -1.000000000000000000 ) ) ;
#61 = PERSON ( 'UNSPECIFIED', 'UNSPECIFIED', 'UNSPECIFIED', ('UNSPECIFIED'), ('UNSPECIFIED'), ('UNSPECIFIED') ) ;
#62 = ADVANCED_FACE ( 'NONE', ( #219, #226 ), #265, .T. ) ;
#63 = CARTESIAN_POINT ( 'NONE',  ( 8.728703347107835360E-16, 1.794999999999995044, 0.2500000000000000555 ) ) ;
#64 = CARTESIAN_POINT ( 'NONE',  ( 3.669880319483504217E-14, 1.499999999999991562, 10.51095498823282171 ) ) ;
#65 = CARTESIAN_POINT ( 'NONE',  ( 2.444036937190193601E-13, -8.572527594031472993E-15, 70.00000000000000000 ) ) ;
#66 = DIRECTION ( 'NONE',  ( 0.0000000000000000000, 1.000000000000000000, 0.0000000000000000000 ) ) ;
#67 = CARTESIAN_POINT ( 'NONE',  ( 3.669880319483504217E-14, 1.499999999999991562, 10.51095498823282171 ) ) ;
#68 = AXIS2_PLACEMENT_3D ( 'NONE', #141, #217, #242 ) ;
#69 = AXIS2_PLACEMENT_3D ( 'NONE', #245, #197, #74 ) ;
#70 = PERSON_AND_ORGANIZATION_ROLE ( 'design_owner' ) ;
#71 = FACE_BOUND ( 'NONE', #12, .T. ) ;
#72 = ADVANCED_FACE ( 'NONE', ( #25, #287 ), #142, .T. ) ;
#73 = APPROVAL_ROLE ( '' ) ;
#74 = DIRECTION ( 'NONE',  ( 0.0000000000000000000, 1.000000000000000000, 0.0000000000000000000 ) ) ;
#75 = COORDINATED_UNIVERSAL_TIME_OFFSET ( 1, 0, .AHEAD. ) ;
#76 = DIRECTION ( 'NONE',  ( 0.0000000000000000000, 1.000000000000000000, 0.0000000000000000000 ) ) ;
#77 = ORIENTED_EDGE ( 'NONE', *, *, #113, .F. ) ;
#78 = CIRCLE ( 'NONE', #252, 1.499999999999992895 ) ;
#79 = DIRECTION ( 'NONE',  ( -3.491481338843133355E-15, 1.224646799147353207E-16, -1.000000000000000000 ) ) ;
#80 = ORIENTED_EDGE ( 'NONE', *, *, #227, .F. ) ;
#81 = APPLICATION_CONTEXT ( 'configuration controlled 3d designs of mechanical parts and assemblies' ) ;
#82 = AXIS2_PLACEMENT_3D ( 'NONE', #132, #153, #278 ) ;
#83 = CARTESIAN_POINT ( 'NONE',  ( 3.669880319483504217E-14, -1.287220738232122977E-15, 10.51095498823282171 ) ) ;
#84 = AXIS2_PLACEMENT_3D ( 'NONE', #298, #288, #268 ) ;
#85 = CARTESIAN_POINT ( 'NONE',  ( 2.444036937190193601E-13, -8.572527594031472993E-15, 70.00000000000000000 ) ) ;
#86 = DIRECTION ( 'NONE',  ( -3.491481338843133355E-15, 1.224646799147353207E-16, -1.000000000000000000 ) ) ;
#87 = CARTESIAN_POINT ( 'NONE',  ( 0.0000000000000000000, 1.544999999999994156, 0.0000000000000000000 ) ) ;
#88 = DATE_AND_TIME ( #280, #232 ) ;
#89 = DIRECTION ( 'NONE',  ( 0.0000000000000000000, 1.000000000000000000, 0.0000000000000000000 ) ) ;
#90 = PERSON_AND_ORGANIZATION_ROLE ( 'classification_officer' ) ;
#91 = APPLICATION_PROTOCOL_DEFINITION ( 'international standard', 'config_control_design', 1994, #81 ) ;
#92 = EDGE_CURVE ( 'NONE', #106, #106, #248, .T. ) ;
#93 = CALENDAR_DATE ( 2021, 2, 12 ) ;
#94 = DIRECTION ( 'NONE',  ( -3.491481338843133355E-15, 1.224646799147353207E-16, -1.000000000000000000 ) ) ;
#95 = FACE_BOUND ( 'NONE', #147, .T. ) ;
#96 = EDGE_LOOP ( 'NONE', ( #165 ) ) ;
#97 = CIRCLE ( 'NONE', #84, 1.794999999999995044 ) ;
#98 = CARTESIAN_POINT ( 'NONE',  ( 3.491481338843133355E-14, -1.224646799147353256E-15, 10.00000000000000000 ) ) ;
#99 = EDGE_LOOP ( 'NONE', ( #289 ) ) ;
#100 = DIRECTION ( 'NONE',  ( 4.275831445896958607E-31, 1.000000000000000000, 1.224646799147353207E-16 ) ) ;
#101 = EDGE_LOOP ( 'NONE', ( #53 ) ) ;
#102 = CC_DESIGN_PERSON_AND_ORGANIZATION_ASSIGNMENT ( #144, #3, ( #283 ) ) ;
#103 = ORIENTED_EDGE ( 'NONE', *, *, #92, .T. ) ;
#104 = DESIGN_CONTEXT ( 'detailed design', #139, 'design' ) ;
#105 = FACE_OUTER_BOUND ( 'NONE', #5, .T. ) ;
#106 = VERTEX_POINT ( 'NONE', #64 ) ;
#107 = ORGANIZATION ( 'UNSPECIFIED', 'UNSPECIFIED', '' ) ;
#108 = AXIS2_PLACEMENT_3D ( 'NONE', #10, #164, #171 ) ;
#109 = SECURITY_CLASSIFICATION_LEVEL ( 'unclassified' ) ;
#110 = DIRECTION ( 'NONE',  ( -3.491481338843133355E-15, 1.224646799147353207E-16, -1.000000000000000000 ) ) ;
#111 = CLOSED_SHELL ( 'NONE', ( #296, #187, #62, #293, #15 ) ) ;
#112 = DIRECTION ( 'NONE',  ( -3.491481338843133355E-15, 1.224646799147353207E-16, -1.000000000000000000 ) ) ;
#113 = EDGE_CURVE ( 'NONE', #37, #37, #279, .T. ) ;
#114 = CIRCLE ( 'NONE', #126, 1.544999999999994156 ) ;
#115 = DATE_AND_TIME ( #45, #255 ) ;
#116 = PERSON_AND_ORGANIZATION ( #61, #107 ) ;
#117 = DIRECTION ( 'NONE',  ( 4.275831445896958607E-31, 1.000000000000000000, 1.224646799147353207E-16 ) ) ;
#118 = PRODUCT_RELATED_PRODUCT_CATEGORY ( 'detail', '', ( #178 ) ) ;
#119 = PERSON_AND_ORGANIZATION_ROLE ( 'creator' ) ;
#120 = DIRECTION ( 'NONE',  ( -3.491481338843133355E-15, 1.224646799147353207E-16, -1.000000000000000000 ) ) ;
#121 = PLANE ( 'NONE',  #228 ) ;
#122 = CC_DESIGN_APPROVAL ( #179, ( #200 ) ) ;
#123 = DATE_TIME_ROLE ( 'creation_date' ) ;
#124 = DIRECTION ( 'NONE',  ( -3.491481338843133355E-15, 1.224646799147353207E-16, -1.000000000000000000 ) ) ;
#125 = EDGE_LOOP ( 'NONE', ( #191 ) ) ;
#126 = AXIS2_PLACEMENT_3D ( 'NONE', #137, #112, #181 ) ;
#127 = ORIENTED_EDGE ( 'NONE', *, *, #113, .T. ) ;
#128 = EDGE_LOOP ( 'NONE', ( #223 ) ) ;
#129 = DIRECTION ( 'NONE',  ( 0.0000000000000000000, 1.000000000000000000, 0.0000000000000000000 ) ) ;
#130 = PRODUCT_DEFINITION_SHAPE ( 'NONE', 'NONE',  #200 ) ;
#131 = AXIS2_PLACEMENT_3D ( 'NONE', #2, #167, #28 ) ;
#132 = CARTESIAN_POINT ( 'NONE',  ( -6.606159583910775815E-31, 2.317128864212561191E-32, -1.892079304682653434E-16 ) ) ;
#133 = FACE_BOUND ( 'NONE', #198, .T. ) ;
#134 = VERTEX_POINT ( 'NONE', #67 ) ;
#135 = DIRECTION ( 'NONE',  ( -3.491481338843133355E-15, 1.224646799147353207E-16, -1.000000000000000000 ) ) ;
#136 = AXIS2_PLACEMENT_3D ( 'NONE', #19, #86, #44 ) ;
#137 = CARTESIAN_POINT ( 'NONE',  ( -6.606159583910775815E-31, 2.317128864212561191E-32, -1.892079304682653434E-16 ) ) ;
#138 = DIRECTION ( 'NONE',  ( -3.491481338843133355E-15, 1.224646799147353207E-16, -1.000000000000000000 ) ) ;
#139 = APPLICATION_CONTEXT ( 'configuration controlled 3d designs of mechanical parts and assemblies' ) ;
#140 = ADVANCED_FACE ( 'NONE', ( #13 ), #121, .T. ) ;
#141 = CARTESIAN_POINT ( 'NONE',  ( 0.0000000000000000000, 0.0000000000000000000, 0.0000000000000000000 ) ) ;
#142 = CYLINDRICAL_SURFACE ( 'NONE', #284, 1.794999999999995044 ) ;
#143 = CC_DESIGN_PERSON_AND_ORGANIZATION_ASSIGNMENT ( #238, #216, ( #200 ) ) ;
#144 = PERSON_AND_ORGANIZATION ( #61, #107 ) ;
#145 = CARTESIAN_POINT ( 'NONE',  ( 0.0000000000000000000, 0.0000000000000000000, 0.0000000000000000000 ) ) ;
#146 = ORIENTED_EDGE ( 'NONE', *, *, #236, .F. ) ;
#147 = EDGE_LOOP ( 'NONE', ( #103 ) ) ;
#148 = ADVANCED_FACE ( 'NONE', ( #56 ), #52, .F. ) ;
#149 = EDGE_LOOP ( 'NONE', ( #146 ) ) ;
#150 = APPROVAL ( #22, 'UNSPECIFIED' ) ;
#151 = DIRECTION ( 'NONE',  ( 4.275831445896958607E-31, 1.000000000000000000, 1.224646799147353454E-16 ) ) ;
#152 = AXIS2_PLACEMENT_3D ( 'NONE', #224, #79, #129 ) ;
#153 = DIRECTION ( 'NONE',  ( 3.491481338843133355E-15, -1.224646799147353207E-16, 1.000000000000000000 ) ) ;
#154 = DIRECTION ( 'NONE',  ( 0.0000000000000000000, 1.000000000000000000, 0.0000000000000000000 ) ) ;
#155 = ADVANCED_FACE ( 'NONE', ( #71, #7 ), #285, .T. ) ;
#156 = CARTESIAN_POINT ( 'NONE',  ( 3.491481338843133355E-14, 1.794999999999993712, 10.00000000000000000 ) ) ;
#157 = DIRECTION ( 'NONE',  ( -4.275831445896958607E-31, -1.000000000000000000, -1.224646799147353207E-16 ) ) ;
#158 =( NAMED_UNIT ( * ) PLANE_ANGLE_UNIT ( ) SI_UNIT ( $, .RADIAN. ) );
#159 = DATE_TIME_ROLE ( 'classification_date' ) ;
#160 = APPROVAL_PERSON_ORGANIZATION ( #206, #150, #208 ) ;
#161 = CIRCLE ( 'NONE', #131, 1.500000000000001110 ) ;
#162 = PERSON_AND_ORGANIZATION ( #61, #107 ) ;
#163 = CARTESIAN_POINT ( 'NONE',  ( 3.491481338843133355E-14, -1.224646799147353256E-15, 10.00000000000000000 ) ) ;
#164 = DIRECTION ( 'NONE',  ( -3.491481338843133355E-15, 1.224646799147353207E-16, -1.000000000000000000 ) ) ;
#165 = ORIENTED_EDGE ( 'NONE', *, *, #262, .T. ) ;
#166 = PERSON_AND_ORGANIZATION ( #61, #107 ) ;
#167 = DIRECTION ( 'NONE',  ( -3.491481338843133355E-15, 1.224646799147353207E-16, -1.000000000000000000 ) ) ;
#168 = CONICAL_SURFACE ( 'NONE', #261, 1.794999999999995044, 0.5235987755982999259 ) ;
#169 = EDGE_LOOP ( 'NONE', ( #273 ) ) ;
#170 = DATE_AND_TIME ( #26, #173 ) ;
#171 = DIRECTION ( 'NONE',  ( 4.275831445896958607E-31, 1.000000000000000000, 1.224646799147353207E-16 ) ) ;
#172 = EDGE_LOOP ( 'NONE', ( #215 ) ) ;
#173 = LOCAL_TIME ( 10, 35, 49.00000000000000000, #50 ) ;
#174 = EDGE_LOOP ( 'NONE', ( #292 ) ) ;
#175 = EDGE_LOOP ( 'NONE', ( #295 ) ) ;
#176 = CIRCLE ( 'NONE', #43, 1.200000000000001510 ) ;
#177 = DIRECTION ( 'NONE',  ( -3.491481338843133355E-15, 1.224646799147353207E-16, -1.000000000000000000 ) ) ;
#178 = PRODUCT ( '321585', '321585', '', ( #196 ) ) ;
#179 = APPROVAL ( #243, 'UNSPECIFIED' ) ;
#180 = VERTEX_POINT ( 'NONE', #87 ) ;
#181 = DIRECTION ( 'NONE',  ( 4.275831445896958607E-31, 1.000000000000000000, 1.224646799147353207E-16 ) ) ;
#182 = FACE_OUTER_BOUND ( 'NONE', #32, .T. ) ;
#183 = CARTESIAN_POINT ( 'NONE',  ( 2.444036937190193601E-13, 1.199999999999992628, 70.00000000000000000 ) ) ;
#184 = ADVANCED_BREP_SHAPE_REPRESENTATION ( '321585', ( #30, #47, #1 ), #247 ) ;
#185 = DIRECTION ( 'NONE',  ( -3.491481338843133355E-15, 1.224646799147353207E-16, -1.000000000000000000 ) ) ;
#186 = LOCAL_TIME ( 10, 35, 49.00000000000000000, #193 ) ;
#187 = ADVANCED_FACE ( 'NONE', ( #95, #23 ), #168, .T. ) ;
#188 = APPROVAL_DATE_TIME ( #170, #179 ) ;
#189 = FACE_OUTER_BOUND ( 'NONE', #266, .T. ) ;
#190 = CARTESIAN_POINT ( 'NONE',  ( 0.0000000000000000000, 0.0000000000000000000, 0.0000000000000000000 ) ) ;
#191 = ORIENTED_EDGE ( 'NONE', *, *, #40, .F. ) ;
#192 = AXIS2_PLACEMENT_3D ( 'NONE', #239, #60, #100 ) ;
#193 = COORDINATED_UNIVERSAL_TIME_OFFSET ( 1, 0, .AHEAD. ) ;
#194 = PLANE ( 'NONE',  #192 ) ;
#195 = EDGE_LOOP ( 'NONE', ( #294 ) ) ;
#196 = MECHANICAL_CONTEXT ( 'NONE', #81, 'mechanical' ) ;
#197 = DIRECTION ( 'NONE',  ( -3.491481338843133355E-15, 1.224646799147353207E-16, -1.000000000000000000 ) ) ;
#198 = EDGE_LOOP ( 'NONE', ( #58 ) ) ;
#199 = EDGE_CURVE ( 'NONE', #34, #34, #161, .T. ) ;
#200 = PRODUCT_DEFINITION ( 'UNKNOWN', '', #283, #104 ) ;
#201 = CARTESIAN_POINT ( 'NONE',  ( 2.444036937190193601E-13, 1.199999999999992628, 70.00000000000000000 ) ) ;
#202 = ADVANCED_FACE ( 'NONE', ( #105, #189 ), #263, .T. ) ;
#203 = DIRECTION ( 'NONE',  ( 0.0000000000000000000, 1.000000000000000000, 0.0000000000000000000 ) ) ;
#204 = DIRECTION ( 'NONE',  ( 1.000000000000000000, 0.0000000000000000000, 0.0000000000000000000 ) ) ;
#205 = FACE_BOUND ( 'NONE', #99, .T. ) ;
#206 = PERSON_AND_ORGANIZATION ( #61, #107 ) ;
#207 = AXIS2_PLACEMENT_3D ( 'NONE', #145, #138, #151 ) ;
#208 = APPROVAL_ROLE ( '' ) ;
#209 = CC_DESIGN_PERSON_AND_ORGANIZATION_ASSIGNMENT ( #267, #119, ( #283 ) ) ;
#210 = CC_DESIGN_SECURITY_CLASSIFICATION ( #299, ( #283 ) ) ;
#211 = APPROVAL_ROLE ( '' ) ;
#212 = CARTESIAN_POINT ( 'NONE',  ( 3.669880319483504217E-14, -1.287220738232122977E-15, 10.51095498823282171 ) ) ;
#213 = AXIS2_PLACEMENT_3D ( 'NONE', #301, #251, #157 ) ;
#214 = DIRECTION ( 'NONE',  ( 0.0000000000000000000, 1.000000000000000000, 0.0000000000000000000 ) ) ;
#215 = ORIENTED_EDGE ( 'NONE', *, *, #222, .F. ) ;
#216 = PERSON_AND_ORGANIZATION_ROLE ( 'creator' ) ;
#217 = DIRECTION ( 'NONE',  ( -3.491481338843133355E-15, 1.224646799147353207E-16, -1.000000000000000000 ) ) ;
#218 = EDGE_LOOP ( 'NONE', ( #271 ) ) ;
#219 = FACE_OUTER_BOUND ( 'NONE', #128, .T. ) ;
#220 = AXIS2_PLACEMENT_3D ( 'NONE', #250, #124, #33 ) ;
#221 = EDGE_LOOP ( 'NONE', ( #77 ) ) ;
#222 = EDGE_CURVE ( 'NONE', #14, #14, #36, .T. ) ;
#223 = ORIENTED_EDGE ( 'NONE', *, *, #92, .F. ) ;
#224 = CARTESIAN_POINT ( 'NONE',  ( 3.491481338843133355E-14, -1.224646799147353256E-15, 10.00000000000000000 ) ) ;
#225 = UNCERTAINTY_MEASURE_WITH_UNIT (LENGTH_MEASURE( 1.000000000000000082E-05 ), #17, 'distance_accuracy_value', 'NONE');
#226 = FACE_OUTER_BOUND ( 'NONE', #175, .T. ) ;
#227 = EDGE_CURVE ( 'NONE', #134, #134, #78, .T. ) ;
#228 = AXIS2_PLACEMENT_3D ( 'NONE', #4, #177, #117 ) ;
#229 = AXIS2_PLACEMENT_3D ( 'NONE', #65, #185, #203 ) ;
#230 = CARTESIAN_POINT ( 'NONE',  ( 2.433562493173664138E-13, 1.499999999999992673, 69.70000000000001705 ) ) ;
#231 = CARTESIAN_POINT ( 'NONE',  ( 3.491481338843133355E-14, 1.794999999999993712, 10.00000000000000000 ) ) ;
#232 = LOCAL_TIME ( 10, 35, 49.00000000000000000, #257 ) ;
#233 = VERTEX_POINT ( 'NONE', #183 ) ;
#234 = CONICAL_SURFACE ( 'NONE', #20, 1.200000000000001510, 0.7853981633974566057 ) ;
#235 = CARTESIAN_POINT ( 'NONE',  ( 2.444036937190193601E-13, -8.572527594031472993E-15, 70.00000000000000000 ) ) ;
#236 = EDGE_CURVE ( 'NONE', #180, #180, #114, .T. ) ;
#237 = PERSON_AND_ORGANIZATION ( #61, #107 ) ;
#238 = PERSON_AND_ORGANIZATION ( #61, #107 ) ;
#239 = CARTESIAN_POINT ( 'NONE',  ( 2.444036937190193601E-13, 8.998558695971026591E-33, 70.00000000000000000 ) ) ;
#240 = ADVANCED_FACE ( 'NONE', ( #41, #253 ), #59, .T. ) ;
#241 = DATE_AND_TIME ( #6, #29 ) ;
#242 = DIRECTION ( 'NONE',  ( 4.275831445896958607E-31, 1.000000000000000000, 1.224646799147353454E-16 ) ) ;
#243 = APPROVAL_STATUS ( 'not_yet_approved' ) ;
#244 = DIRECTION ( 'NONE',  ( -3.491481338843133355E-15, 1.224646799147353207E-16, -1.000000000000000000 ) ) ;
#245 = CARTESIAN_POINT ( 'NONE',  ( 2.433562493173664138E-13, -8.535788190057053710E-15, 69.70000000000001705 ) ) ;
#246 = ORIENTED_EDGE ( 'NONE', *, *, #199, .F. ) ;
#247 =( GEOMETRIC_REPRESENTATION_CONTEXT ( 3 ) GLOBAL_UNCERTAINTY_ASSIGNED_CONTEXT ( ( #225 ) ) GLOBAL_UNIT_ASSIGNED_CONTEXT ( ( #17, #158, #258 ) ) REPRESENTATION_CONTEXT ( 'NONE', 'WORKASPACE' ) );
#248 = CIRCLE ( 'NONE', #18, 1.499999999999992895 ) ;
#249 = ADVANCED_FACE ( 'NONE', ( #300, #133 ), #234, .T. ) ;
#250 = CARTESIAN_POINT ( 'NONE',  ( 2.444036937190193601E-13, -8.572527594031472993E-15, 70.00000000000000000 ) ) ;
#251 = DIRECTION ( 'NONE',  ( 3.491481338843133355E-15, -1.224646799147353207E-16, 1.000000000000000000 ) ) ;
#252 = AXIS2_PLACEMENT_3D ( 'NONE', #212, #94, #154 ) ;
#253 = FACE_BOUND ( 'NONE', #149, .T. ) ;
#254 = FACE_OUTER_BOUND ( 'NONE', #174, .T. ) ;
#255 = LOCAL_TIME ( 10, 35, 49.00000000000000000, #259 ) ;
#256 = VERTEX_POINT ( 'NONE', #156 ) ;
#257 = COORDINATED_UNIVERSAL_TIME_OFFSET ( 1, 0, .AHEAD. ) ;
#258 =( NAMED_UNIT ( * ) SI_UNIT ( $, .STERADIAN. ) SOLID_ANGLE_UNIT ( ) );
#259 = COORDINATED_UNIVERSAL_TIME_OFFSET ( 1, 0, .AHEAD. ) ;
#260 = CARTESIAN_POINT ( 'NONE',  ( 0.0000000000000000000, 0.0000000000000000000, 0.0000000000000000000 ) ) ;
#261 = AXIS2_PLACEMENT_3D ( 'NONE', #163, #291, #76 ) ;
#262 = EDGE_CURVE ( 'NONE', #21, #21, #274, .T. ) ;
#263 = CYLINDRICAL_SURFACE ( 'NONE', #207, 1.499999999999996891 ) ;
#264 = CLOSED_SHELL ( 'NONE', ( #155, #72, #240, #140, #148, #249, #202 ) ) ;
#265 = CYLINDRICAL_SURFACE ( 'NONE', #68, 1.499999999999996891 ) ;
#266 = EDGE_LOOP ( 'NONE', ( #127 ) ) ;
#267 = PERSON_AND_ORGANIZATION ( #61, #107 ) ;
#268 = DIRECTION ( 'NONE',  ( 4.291765892784938524E-31, 1.000000000000000000, 1.208024704719228327E-16 ) ) ;
#269 = APPROVAL ( #286, 'UNSPECIFIED' ) ;
#270 = DIRECTION ( 'NONE',  ( -3.491481338843133355E-15, 1.224646799147353207E-16, -1.000000000000000000 ) ) ;
#271 = ORIENTED_EDGE ( 'NONE', *, *, #281, .F. ) ;
#272 = APPROVAL_PERSON_ORGANIZATION ( #162, #179, #73 ) ;
#273 = ORIENTED_EDGE ( 'NONE', *, *, #262, .F. ) ;
#274 = CIRCLE ( 'NONE', #136, 1.794999999999995044 ) ;
#275 = ORIENTED_EDGE ( 'NONE', *, *, #40, .T. ) ;
#276 = DIRECTION ( 'NONE',  ( 0.0000000000000000000, 1.000000000000000000, 0.0000000000000000000 ) ) ;
#277 = VERTEX_POINT ( 'NONE', #63 ) ;
#278 = DIRECTION ( 'NONE',  ( -4.275831445896958607E-31, -1.000000000000000000, -1.224646799147353207E-16 ) ) ;
#279 = CIRCLE ( 'NONE', #69, 1.500000000000001110 ) ;
#280 = CALENDAR_DATE ( 2021, 2, 12 ) ;
#281 = EDGE_CURVE ( 'NONE', #233, #233, #176, .T. ) ;
#282 = CONICAL_SURFACE ( 'NONE', #229, 1.200000000000001510, 0.7853981633974566057 ) ;
#283 = PRODUCT_DEFINITION_FORMATION_WITH_SPECIFIED_SOURCE ( 'ANY', '', #178, .NOT_KNOWN. ) ;
#284 = AXIS2_PLACEMENT_3D ( 'NONE', #190, #120, #27 ) ;
#285 = CONICAL_SURFACE ( 'NONE', #303, 1.794999999999995044, 0.5235987755982999259 ) ;
#286 = APPROVAL_STATUS ( 'not_yet_approved' ) ;
#287 = FACE_OUTER_BOUND ( 'NONE', #125, .T. ) ;
#288 = DIRECTION ( 'NONE',  ( -3.491481338843133355E-15, 1.224646799147353207E-16, -1.000000000000000000 ) ) ;
#289 = ORIENTED_EDGE ( 'NONE', *, *, #281, .T. ) ;
#290 = DATE_AND_TIME ( #93, #186 ) ;
#291 = DIRECTION ( 'NONE',  ( -3.491481338843133355E-15, 1.224646799147353207E-16, -1.000000000000000000 ) ) ;
#292 = ORIENTED_EDGE ( 'NONE', *, *, #11, .T. ) ;
#293 = ADVANCED_FACE ( 'NONE', ( #182, #205 ), #282, .T. ) ;
#294 = ORIENTED_EDGE ( 'NONE', *, *, #236, .T. ) ;
#295 = ORIENTED_EDGE ( 'NONE', *, *, #199, .T. ) ;
#296 = ADVANCED_FACE ( 'NONE', ( #254 ), #39, .F. ) ;
#297 = ORIENTED_EDGE ( 'NONE', *, *, #227, .T. ) ;
#298 = CARTESIAN_POINT ( 'NONE',  ( 8.728703347107827472E-16, -3.061616997868381169E-17, 0.2499999999999998335 ) ) ;
#299 = SECURITY_CLASSIFICATION ( '', '', #109 ) ;
#300 = FACE_OUTER_BOUND ( 'NONE', #221, .T. ) ;
#301 = CARTESIAN_POINT ( 'NONE',  ( 3.491481338843133355E-14, 1.346034404939011428E-32, 10.00000000000000000 ) ) ;
#302 = CARTESIAN_POINT ( 'NONE',  ( 2.433562493173664138E-13, 1.499999999999992673, 69.70000000000001705 ) ) ;
#303 = AXIS2_PLACEMENT_3D ( 'NONE', #98, #270, #276 ) ;
ENDSEC;
END-ISO-10303-21;
