ISO-10303-21;
HEADER;
FILE_DESCRIPTION (( 'STEP AP203' ),
    '1' );
FILE_NAME ('321584.step',
    '2021-12-02T09:35:49',
    ( '' ),
    ( '' ),
    'SwSTEP 2.0',
    'SolidWorks 2019',
    '' );
FILE_SCHEMA (( 'CONFIG_CONTROL_DESIGN' ));
ENDSEC;

DATA;
#1 = AXIS2_PLACEMENT_3D ( 'NONE', #226, #45, #84 ) ;
#2 = DIRECTION ( 'NONE',  ( -4.275831445896958607E-31, -1.000000000000000000, -1.224646799147353207E-16 ) ) ;
#3 = APPROVAL_STATUS ( 'not_yet_approved' ) ;
#4 = EDGE_LOOP ( 'NONE', ( #220 ) ) ;
#5 = LOCAL_TIME ( 10, 35, 49.00000000000000000, #164 ) ;
#6 = SECURITY_CLASSIFICATION ( '', '', #282 ) ;
#7 = FACE_BOUND ( 'NONE', #165, .T. ) ;
#8 = CALENDAR_DATE ( 2021, 2, 12 ) ;
#9 = EDGE_LOOP ( 'NONE', ( #288 ) ) ;
#10 = UNCERTAINTY_MEASURE_WITH_UNIT (LENGTH_MEASURE( 1.000000000000000082E-05 ), #217, 'distance_accuracy_value', 'NONE');
#11 = CARTESIAN_POINT ( 'NONE',  ( 2.433562493173664138E-13, 1.499999999999992673, 69.70000000000001705 ) ) ;
#12 = ORIENTED_EDGE ( 'NONE', *, *, #234, .F. ) ;
#13 = ORIENTED_EDGE ( 'NONE', *, *, #269, .F. ) ;
#14 = CIRCLE ( 'NONE', #298, 1.200000000000001510 ) ;
#15 = EDGE_LOOP ( 'NONE', ( #12 ) ) ;
#16 = CARTESIAN_POINT ( 'NONE',  ( 3.666856607947226082E-14, 1.499999999999991562, 10.50229473419497594 ) ) ;
#17 = AXIS2_PLACEMENT_3D ( 'NONE', #65, #223, #277 ) ;
#18 = EDGE_LOOP ( 'NONE', ( #189 ) ) ;
#19 = PLANE ( 'NONE',  #198 ) ;
#20 = APPROVAL ( #3, 'UNSPECIFIED' ) ;
#21 = DIRECTION ( 'NONE',  ( 0.0000000000000000000, 1.000000000000000000, 0.0000000000000000000 ) ) ;
#22 = PRODUCT_DEFINITION_FORMATION_WITH_SPECIFIED_SOURCE ( 'ANY', '', #251, .NOT_KNOWN. ) ;
#23 = EDGE_CURVE ( 'NONE', #114, #114, #266, .T. ) ;
#24 = FACE_OUTER_BOUND ( 'NONE', #147, .T. ) ;
#25 = DIRECTION ( 'NONE',  ( -3.491481338843133355E-15, 1.224646799147353207E-16, -1.000000000000000000 ) ) ;
#26 = CARTESIAN_POINT ( 'NONE',  ( 0.0000000000000000000, 1.539999999999994040, 0.0000000000000000000 ) ) ;
#27 = ORGANIZATION ( 'UNSPECIFIED', 'UNSPECIFIED', '' ) ;
#28 = CARTESIAN_POINT ( 'NONE',  ( 3.491481338843133355E-14, 1.789999999999993596, 10.00000000000000000 ) ) ;
#29 = DIRECTION ( 'NONE',  ( 0.0000000000000000000, 1.000000000000000000, 0.0000000000000000000 ) ) ;
#30 = EDGE_CURVE ( 'NONE', #134, #134, #145, .T. ) ;
#31 = CARTESIAN_POINT ( 'NONE',  ( 2.444036937190193601E-13, -8.572527594031472993E-15, 70.00000000000000000 ) ) ;
#32 = PERSON_AND_ORGANIZATION ( #111, #27 ) ;
#33 = AXIS2_PLACEMENT_3D ( 'NONE', #176, #126, #43 ) ;
#34 = CARTESIAN_POINT ( 'NONE',  ( 0.0000000000000000000, 0.0000000000000000000, 0.0000000000000000000 ) ) ;
#35 = DATE_AND_TIME ( #187, #193 ) ;
#36 = DATE_TIME_ROLE ( 'creation_date' ) ;
#37 = EDGE_LOOP ( 'NONE', ( #295 ) ) ;
#38 = AXIS2_PLACEMENT_3D ( 'NONE', #107, #201, #252 ) ;
#39 = PRODUCT_RELATED_PRODUCT_CATEGORY ( 'detail', '', ( #251 ) ) ;
#40 = PERSON_AND_ORGANIZATION_ROLE ( 'creator' ) ;
#41 = AXIS2_PLACEMENT_3D ( 'NONE', #91, #156, #281 ) ;
#42 = CARTESIAN_POINT ( 'NONE',  ( 2.444036937190193601E-13, 8.998558695971026591E-33, 70.00000000000000000 ) ) ;
#43 = DIRECTION ( 'NONE',  ( -4.275831445896958607E-31, -1.000000000000000000, -1.224646799147353207E-16 ) ) ;
#44 = CARTESIAN_POINT ( 'NONE',  ( 8.728703347107827472E-16, -3.061616997868381169E-17, 0.2499999999999998335 ) ) ;
#45 = DIRECTION ( 'NONE',  ( -3.491481338843133355E-15, 1.224646799147353207E-16, -1.000000000000000000 ) ) ;
#46 = CIRCLE ( 'NONE', #83, 1.789999999999994929 ) ;
#47 = FACE_BOUND ( 'NONE', #57, .T. ) ;
#48 = MANIFOLD_SOLID_BREP ( 'Corps-Déplacer/Copier1[1]', #90 ) ;
#49 = VERTEX_POINT ( 'NONE', #243 ) ;
#50 = ADVANCED_FACE ( 'NONE', ( #222, #200 ), #171, .T. ) ;
#51 = CARTESIAN_POINT ( 'NONE',  ( 3.491481338843133355E-14, 1.342285005482357030E-32, 10.00000000000000000 ) ) ;
#52 = DIRECTION ( 'NONE',  ( 0.0000000000000000000, 1.000000000000000000, 0.0000000000000000000 ) ) ;
#53 = APPROVAL_DATE_TIME ( #120, #20 ) ;
#54 = FACE_OUTER_BOUND ( 'NONE', #101, .T. ) ;
#55 = ADVANCED_FACE ( 'NONE', ( #47, #24 ), #237, .T. ) ;
#56 = AXIS2_PLACEMENT_3D ( 'NONE', #31, #74, #136 ) ;
#57 = EDGE_LOOP ( 'NONE', ( #121 ) ) ;
#58 = DIRECTION ( 'NONE',  ( 0.0000000000000000000, 0.0000000000000000000, 1.000000000000000000 ) ) ;
#59 = COORDINATED_UNIVERSAL_TIME_OFFSET ( 1, 0, .AHEAD. ) ;
#60 = LOCAL_TIME ( 10, 35, 49.00000000000000000, #287 ) ;
#61 = CALENDAR_DATE ( 2021, 2, 12 ) ;
#62 = CALENDAR_DATE ( 2021, 2, 12 ) ;
#63 = AXIS2_PLACEMENT_3D ( 'NONE', #161, #118, #29 ) ;
#64 = EDGE_CURVE ( 'NONE', #95, #95, #82, .T. ) ;
#65 = CARTESIAN_POINT ( 'NONE',  ( 2.433562493173664138E-13, -8.535788190057053710E-15, 69.70000000000001705 ) ) ;
#66 = FACE_OUTER_BOUND ( 'NONE', #294, .T. ) ;
#67 = CC_DESIGN_DATE_AND_TIME_ASSIGNMENT ( #138, #159, ( #6 ) ) ;
#68 = FACE_OUTER_BOUND ( 'NONE', #246, .T. ) ;
#69 = AXIS2_PLACEMENT_3D ( 'NONE', #230, #133, #186 ) ;
#70 = DIRECTION ( 'NONE',  ( -3.491481338843133355E-15, 1.224646799147353207E-16, -1.000000000000000000 ) ) ;
#71 = FACE_OUTER_BOUND ( 'NONE', #215, .T. ) ;
#72 = DIRECTION ( 'NONE',  ( -3.491481338843133355E-15, 1.224646799147353207E-16, -1.000000000000000000 ) ) ;
#73 = AXIS2_PLACEMENT_3D ( 'NONE', #153, #25, #303 ) ;
#74 = DIRECTION ( 'NONE',  ( -3.491481338843133355E-15, 1.224646799147353207E-16, -1.000000000000000000 ) ) ;
#75 = EDGE_CURVE ( 'NONE', #289, #289, #46, .T. ) ;
#76 = CARTESIAN_POINT ( 'NONE',  ( 3.491481338843133355E-14, 1.789999999999993596, 10.00000000000000000 ) ) ;
#77 = APPLICATION_PROTOCOL_DEFINITION ( 'international standard', 'config_control_design', 1994, #93 ) ;
#78 = AXIS2_PLACEMENT_3D ( 'NONE', #178, #232, #229 ) ;
#79 = EDGE_LOOP ( 'NONE', ( #13 ) ) ;
#80 = CLOSED_SHELL ( 'NONE', ( #227, #100, #50, #117, #301, #247, #291 ) ) ;
#81 = PERSON_AND_ORGANIZATION_ROLE ( 'design_owner' ) ;
#82 = CIRCLE ( 'NONE', #248, 1.200000000000001510 ) ;
#83 = AXIS2_PLACEMENT_3D ( 'NONE', #170, #108, #302 ) ;
#84 = DIRECTION ( 'NONE',  ( 0.0000000000000000000, 1.000000000000000000, 0.0000000000000000000 ) ) ;
#85 = FACE_OUTER_BOUND ( 'NONE', #79, .T. ) ;
#86 = DIRECTION ( 'NONE',  ( -3.491481338843133355E-15, 1.224646799147353207E-16, -1.000000000000000000 ) ) ;
#87 = CIRCLE ( 'NONE', #175, 1.789999999999994929 ) ;
#88 = CC_DESIGN_PERSON_AND_ORGANIZATION_ASSIGNMENT ( #92, #236, ( #6 ) ) ;
#89 = APPLICATION_CONTEXT ( 'configuration controlled 3d designs of mechanical parts and assemblies' ) ;
#90 = CLOSED_SHELL ( 'NONE', ( #285, #55, #169, #254, #123 ) ) ;
#91 = CARTESIAN_POINT ( 'NONE',  ( 2.444036937190193601E-13, -8.572527594031472993E-15, 70.00000000000000000 ) ) ;
#92 = PERSON_AND_ORGANIZATION ( #111, #27 ) ;
#93 = APPLICATION_CONTEXT ( 'configuration controlled 3d designs of mechanical parts and assemblies' ) ;
#94 = ORIENTED_EDGE ( 'NONE', *, *, #197, .T. ) ;
#95 = VERTEX_POINT ( 'NONE', #184 ) ;
#96 = PERSON_AND_ORGANIZATION ( #111, #27 ) ;
#97 = VERTEX_POINT ( 'NONE', #257 ) ;
#98 = CALENDAR_DATE ( 2021, 2, 12 ) ;
#99 = ORIENTED_EDGE ( 'NONE', *, *, #30, .T. ) ;
#100 = ADVANCED_FACE ( 'NONE', ( #278, #255 ), #280, .T. ) ;
#101 = EDGE_LOOP ( 'NONE', ( #162 ) ) ;
#102 = CIRCLE ( 'NONE', #38, 1.500000000000001110 ) ;
#103 = DIRECTION ( 'NONE',  ( -3.491481338843133355E-15, 1.224646799147353207E-16, -1.000000000000000000 ) ) ;
#104 = MECHANICAL_CONTEXT ( 'NONE', #89, 'mechanical' ) ;
#105 = CIRCLE ( 'NONE', #78, 1.499999999999992895 ) ;
#106 = DIRECTION ( 'NONE',  ( -3.491481338843133355E-15, 1.224646799147353207E-16, -1.000000000000000000 ) ) ;
#107 = CARTESIAN_POINT ( 'NONE',  ( 2.433562493173664138E-13, -8.535788190057053710E-15, 69.70000000000001705 ) ) ;
#108 = DIRECTION ( 'NONE',  ( -3.491481338843133355E-15, 1.224646799147353207E-16, -1.000000000000000000 ) ) ;
#109 = DIRECTION ( 'NONE',  ( 4.275831445896958607E-31, 1.000000000000000000, 1.224646799147353207E-16 ) ) ;
#110 = APPROVAL ( #231, 'UNSPECIFIED' ) ;
#111 = PERSON ( 'UNSPECIFIED', 'UNSPECIFIED', 'UNSPECIFIED', ('UNSPECIFIED'), ('UNSPECIFIED'), ('UNSPECIFIED') ) ;
#112 = DIRECTION ( 'NONE',  ( -3.491481338843133355E-15, 1.224646799147353207E-16, -1.000000000000000000 ) ) ;
#113 = PERSON_AND_ORGANIZATION_ROLE ( 'design_supplier' ) ;
#114 = VERTEX_POINT ( 'NONE', #26 ) ;
#115 = ORIENTED_EDGE ( 'NONE', *, *, #30, .F. ) ;
#116 = AXIS2_PLACEMENT_3D ( 'NONE', #274, #86, #109 ) ;
#117 = ADVANCED_FACE ( 'NONE', ( #127 ), #19, .T. ) ;
#118 = DIRECTION ( 'NONE',  ( -3.491481338843133355E-15, 1.224646799147353207E-16, -1.000000000000000000 ) ) ;
#119 = APPROVAL_ROLE ( '' ) ;
#120 = DATE_AND_TIME ( #8, #60 ) ;
#121 = ORIENTED_EDGE ( 'NONE', *, *, #269, .T. ) ;
#122 = AXIS2_PLACEMENT_3D ( 'NONE', #51, #286, #2 ) ;
#123 = ADVANCED_FACE ( 'NONE', ( #68 ), #172, .F. ) ;
#124 = CARTESIAN_POINT ( 'NONE',  ( -6.584780426681291101E-31, 2.309630065299252122E-32, -1.885956070686916805E-16 ) ) ;
#125 = DATE_AND_TIME ( #62, #284 ) ;
#126 = DIRECTION ( 'NONE',  ( 3.491481338843133355E-15, -1.224646799147353207E-16, 1.000000000000000000 ) ) ;
#127 = FACE_OUTER_BOUND ( 'NONE', #242, .T. ) ;
#128 = EDGE_CURVE ( 'NONE', #163, #163, #244, .T. ) ;
#129 = DIRECTION ( 'NONE',  ( -3.491481338843133355E-15, 1.224646799147353207E-16, -1.000000000000000000 ) ) ;
#130 = AXIS2_PLACEMENT_3D ( 'NONE', #34, #112, #208 ) ;
#131 = DIRECTION ( 'NONE',  ( -3.491481338843133355E-15, 1.224646799147353207E-16, -1.000000000000000000 ) ) ;
#132 = CARTESIAN_POINT ( 'NONE',  ( -3.292390213340645550E-31, 1.154815032649626061E-32, -9.429780353434584024E-17 ) ) ;
#133 = DIRECTION ( 'NONE',  ( -3.491481338843133355E-15, 1.224646799147353207E-16, -1.000000000000000000 ) ) ;
#134 = VERTEX_POINT ( 'NONE', #28 ) ;
#135 = ORIENTED_EDGE ( 'NONE', *, *, #75, .T. ) ;
#136 = DIRECTION ( 'NONE',  ( 4.275831445896958607E-31, 1.000000000000000000, 1.224646799147353207E-16 ) ) ;
#137 = CARTESIAN_POINT ( 'NONE',  ( 2.444036937190193601E-13, 1.199999999999992628, 70.00000000000000000 ) ) ;
#138 = DATE_AND_TIME ( #98, #5 ) ;
#139 = APPROVAL_PERSON_ORGANIZATION ( #146, #199, #272 ) ;
#140 = CC_DESIGN_PERSON_AND_ORGANIZATION_ASSIGNMENT ( #297, #40, ( #256 ) ) ;
#141 = ORIENTED_EDGE ( 'NONE', *, *, #150, .T. ) ;
#142 = DIRECTION ( 'NONE',  ( 4.275831445896958607E-31, 1.000000000000000000, 1.224646799147353207E-16 ) ) ;
#143 = MANIFOLD_SOLID_BREP ( 'Corps-Déplacer/Copier1[2]', #80 ) ;
#144 = DATE_AND_TIME ( #61, #275 ) ;
#145 = CIRCLE ( 'NONE', #216, 1.789999999999994929 ) ;
#146 = PERSON_AND_ORGANIZATION ( #111, #27 ) ;
#147 = EDGE_LOOP ( 'NONE', ( #115 ) ) ;
#148 = APPLICATION_PROTOCOL_DEFINITION ( 'international standard', 'config_control_design', 1994, #89 ) ;
#149 = ORIENTED_EDGE ( 'NONE', *, *, #23, .T. ) ;
#150 = EDGE_CURVE ( 'NONE', #264, #264, #14, .T. ) ;
#151 = AXIS2_PLACEMENT_3D ( 'NONE', #270, #58, #240 ) ;
#152 = DIRECTION ( 'NONE',  ( 4.275831445896958607E-31, 1.000000000000000000, 1.224646799147353207E-16 ) ) ;
#153 = CARTESIAN_POINT ( 'NONE',  ( 0.0000000000000000000, 0.0000000000000000000, 0.0000000000000000000 ) ) ;
#154 = CARTESIAN_POINT ( 'NONE',  ( 2.444036937190193601E-13, -8.572527594031472993E-15, 70.00000000000000000 ) ) ;
#155 = CARTESIAN_POINT ( 'NONE',  ( 2.433562493173664138E-13, 1.499999999999992673, 69.70000000000001705 ) ) ;
#156 = DIRECTION ( 'NONE',  ( -3.491481338843133355E-15, 1.224646799147353207E-16, -1.000000000000000000 ) ) ;
#157 = CC_DESIGN_PERSON_AND_ORGANIZATION_ASSIGNMENT ( #241, #113, ( #22 ) ) ;
#158 = FACE_OUTER_BOUND ( 'NONE', #37, .T. ) ;
#159 = DATE_TIME_ROLE ( 'classification_date' ) ;
#160 = CIRCLE ( 'NONE', #63, 1.499999999999992895 ) ;
#161 = CARTESIAN_POINT ( 'NONE',  ( 3.666856607947226082E-14, -1.286160162993397933E-15, 10.50229473419497594 ) ) ;
#162 = ORIENTED_EDGE ( 'NONE', *, *, #128, .T. ) ;
#163 = VERTEX_POINT ( 'NONE', #155 ) ;
#164 = COORDINATED_UNIVERSAL_TIME_OFFSET ( 1, 0, .AHEAD. ) ;
#165 = EDGE_LOOP ( 'NONE', ( #293 ) ) ;
#166 = AXIS2_PLACEMENT_3D ( 'NONE', #42, #276, #152 ) ;
#167 = APPROVAL_PERSON_ORGANIZATION ( #32, #110, #265 ) ;
#168 =( NAMED_UNIT ( * ) SI_UNIT ( $, .STERADIAN. ) SOLID_ANGLE_UNIT ( ) );
#169 = ADVANCED_FACE ( 'NONE', ( #85, #66 ), #228, .T. ) ;
#170 = CARTESIAN_POINT ( 'NONE',  ( 3.491481338843133355E-14, -1.224646799147353256E-15, 10.00000000000000000 ) ) ;
#171 = CONICAL_SURFACE ( 'NONE', #33, 1.539999999999994040, 0.7853981633974500554 ) ;
#172 = PLANE ( 'NONE',  #166 ) ;
#173 = EDGE_CURVE ( 'NONE', #238, #238, #102, .T. ) ;
#174 = DIRECTION ( 'NONE',  ( -3.491481338843133355E-15, 1.224646799147353207E-16, -1.000000000000000000 ) ) ;
#175 = AXIS2_PLACEMENT_3D ( 'NONE', #44, #129, #224 ) ;
#176 = CARTESIAN_POINT ( 'NONE',  ( -6.584780426681291101E-31, 2.309630065299252122E-32, -1.885956070686916805E-16 ) ) ;
#177 = CARTESIAN_POINT ( 'NONE',  ( 3.491481338843133355E-14, -1.224646799147353256E-15, 10.00000000000000000 ) ) ;
#178 = CARTESIAN_POINT ( 'NONE',  ( 3.666856607947226082E-14, -1.286160162993397933E-15, 10.50229473419497594 ) ) ;
#179 = EDGE_LOOP ( 'NONE', ( #99 ) ) ;
#180 = PLANE ( 'NONE',  #122 ) ;
#181 = PERSON_AND_ORGANIZATION_ROLE ( 'creator' ) ;
#182 = EDGE_LOOP ( 'NONE', ( #94 ) ) ;
#183 = APPROVAL_PERSON_ORGANIZATION ( #267, #20, #119 ) ;
#184 = CARTESIAN_POINT ( 'NONE',  ( 2.444036937190193601E-13, 1.199999999999992628, 70.00000000000000000 ) ) ;
#185 = ORIENTED_EDGE ( 'NONE', *, *, #173, .T. ) ;
#186 = DIRECTION ( 'NONE',  ( 0.0000000000000000000, 1.000000000000000000, 0.0000000000000000000 ) ) ;
#187 = CALENDAR_DATE ( 2021, 2, 12 ) ;
#188 = ORIENTED_EDGE ( 'NONE', *, *, #64, .F. ) ;
#189 = ORIENTED_EDGE ( 'NONE', *, *, #75, .F. ) ;
#190 = DESIGN_CONTEXT ( 'detailed design', #93, 'design' ) ;
#191 = ORIENTED_EDGE ( 'NONE', *, *, #173, .F. ) ;
#192 = AXIS2_PLACEMENT_3D ( 'NONE', #124, #103, #142 ) ;
#193 = LOCAL_TIME ( 10, 35, 49.00000000000000000, #239 ) ;
#194 = EDGE_LOOP ( 'NONE', ( #283 ) ) ;
#195 = APPROVAL_STATUS ( 'not_yet_approved' ) ;
#196 = VERTEX_POINT ( 'NONE', #16 ) ;
#197 = EDGE_CURVE ( 'NONE', #97, #97, #87, .T. ) ;
#198 = AXIS2_PLACEMENT_3D ( 'NONE', #132, #174, #205 ) ;
#199 = APPROVAL ( #195, 'UNSPECIFIED' ) ;
#200 = FACE_BOUND ( 'NONE', #9, .T. ) ;
#201 = DIRECTION ( 'NONE',  ( -3.491481338843133355E-15, 1.224646799147353207E-16, -1.000000000000000000 ) ) ;
#202 = PRODUCT_DEFINITION_SHAPE ( 'NONE', 'NONE',  #256 ) ;
#203 = DIRECTION ( 'NONE',  ( 0.0000000000000000000, 1.000000000000000000, 0.0000000000000000000 ) ) ;
#204 = CARTESIAN_POINT ( 'NONE',  ( 2.444036937190193601E-13, -8.572527594031472993E-15, 70.00000000000000000 ) ) ;
#205 = DIRECTION ( 'NONE',  ( 4.275831445896958607E-31, 1.000000000000000000, 1.224646799147353207E-16 ) ) ;
#206 = CONICAL_SURFACE ( 'NONE', #69, 1.200000000000001510, 0.7853981633974566057 ) ;
#207 = FACE_OUTER_BOUND ( 'NONE', #18, .T. ) ;
#208 = DIRECTION ( 'NONE',  ( 4.275831445896958607E-31, 1.000000000000000000, 1.224646799147353454E-16 ) ) ;
#209 = ADVANCED_BREP_SHAPE_REPRESENTATION ( '321584', ( #48, #143, #151 ), #221 ) ;
#210 = AXIS2_PLACEMENT_3D ( 'NONE', #177, #72, #52 ) ;
#211 = PLANE ( 'NONE',  #56 ) ;
#212 = ORIENTED_EDGE ( 'NONE', *, *, #197, .F. ) ;
#213 = FACE_OUTER_BOUND ( 'NONE', #179, .T. ) ;
#214 = SHAPE_DEFINITION_REPRESENTATION ( #202, #209 ) ;
#215 = EDGE_LOOP ( 'NONE', ( #191 ) ) ;
#216 = AXIS2_PLACEMENT_3D ( 'NONE', #296, #131, #250 ) ;
#217 =( LENGTH_UNIT ( ) NAMED_UNIT ( * ) SI_UNIT ( .MILLI., .METRE. ) );
#218 = COORDINATED_UNIVERSAL_TIME_OFFSET ( 1, 0, .AHEAD. ) ;
#219 =( NAMED_UNIT ( * ) PLANE_ANGLE_UNIT ( ) SI_UNIT ( $, .RADIAN. ) );
#220 = ORIENTED_EDGE ( 'NONE', *, *, #150, .F. ) ;
#221 =( GEOMETRIC_REPRESENTATION_CONTEXT ( 3 ) GLOBAL_UNCERTAINTY_ASSIGNED_CONTEXT ( ( #10 ) ) GLOBAL_UNIT_ASSIGNED_CONTEXT ( ( #217, #219, #168 ) ) REPRESENTATION_CONTEXT ( 'NONE', 'WORKASPACE' ) );
#222 = FACE_OUTER_BOUND ( 'NONE', #182, .T. ) ;
#223 = DIRECTION ( 'NONE',  ( -3.491481338843133355E-15, 1.224646799147353207E-16, -1.000000000000000000 ) ) ;
#224 = DIRECTION ( 'NONE',  ( 4.303754065669813178E-31, 1.000000000000000000, 1.211399075402801737E-16 ) ) ;
#225 = CC_DESIGN_APPROVAL ( #20, ( #22 ) ) ;
#226 = CARTESIAN_POINT ( 'NONE',  ( 3.491481338843133355E-14, -1.224646799147353256E-15, 10.00000000000000000 ) ) ;
#227 = ADVANCED_FACE ( 'NONE', ( #7, #207 ), #279, .T. ) ;
#228 = CYLINDRICAL_SURFACE ( 'NONE', #73, 1.499999999999996891 ) ;
#229 = DIRECTION ( 'NONE',  ( 0.0000000000000000000, 1.000000000000000000, 0.0000000000000000000 ) ) ;
#230 = CARTESIAN_POINT ( 'NONE',  ( 2.444036937190193601E-13, -8.572527594031472993E-15, 70.00000000000000000 ) ) ;
#231 = APPROVAL_STATUS ( 'not_yet_approved' ) ;
#232 = DIRECTION ( 'NONE',  ( -3.491481338843133355E-15, 1.224646799147353207E-16, -1.000000000000000000 ) ) ;
#233 = EDGE_LOOP ( 'NONE', ( #141 ) ) ;
#234 = EDGE_CURVE ( 'NONE', #49, #49, #160, .T. ) ;
#235 = FACE_OUTER_BOUND ( 'NONE', #15, .T. ) ;
#236 = PERSON_AND_ORGANIZATION_ROLE ( 'classification_officer' ) ;
#237 = CONICAL_SURFACE ( 'NONE', #1, 1.789999999999994929, 0.5235987755983005920 ) ;
#238 = VERTEX_POINT ( 'NONE', #11 ) ;
#239 = COORDINATED_UNIVERSAL_TIME_OFFSET ( 1, 0, .AHEAD. ) ;
#240 = DIRECTION ( 'NONE',  ( 1.000000000000000000, 0.0000000000000000000, 0.0000000000000000000 ) ) ;
#241 = PERSON_AND_ORGANIZATION ( #111, #27 ) ;
#242 = EDGE_LOOP ( 'NONE', ( #149 ) ) ;
#243 = CARTESIAN_POINT ( 'NONE',  ( 3.666856607947226082E-14, 1.499999999999991562, 10.50229473419497594 ) ) ;
#244 = CIRCLE ( 'NONE', #17, 1.500000000000001110 ) ;
#245 = APPROVAL_DATE_TIME ( #144, #199 ) ;
#246 = EDGE_LOOP ( 'NONE', ( #188 ) ) ;
#247 = ADVANCED_FACE ( 'NONE', ( #158, #292 ), #206, .T. ) ;
#248 = AXIS2_PLACEMENT_3D ( 'NONE', #154, #70, #203 ) ;
#249 = CC_DESIGN_SECURITY_CLASSIFICATION ( #6, ( #22 ) ) ;
#250 = DIRECTION ( 'NONE',  ( 0.0000000000000000000, 1.000000000000000000, 0.0000000000000000000 ) ) ;
#251 = PRODUCT ( '321584', '321584', '', ( #104 ) ) ;
#252 = DIRECTION ( 'NONE',  ( 0.0000000000000000000, 1.000000000000000000, 0.0000000000000000000 ) ) ;
#253 = CC_DESIGN_PERSON_AND_ORGANIZATION_ASSIGNMENT ( #273, #81, ( #251 ) ) ;
#254 = ADVANCED_FACE ( 'NONE', ( #71, #261 ), #259, .T. ) ;
#255 = FACE_OUTER_BOUND ( 'NONE', #268, .T. ) ;
#256 = PRODUCT_DEFINITION ( 'UNKNOWN', '', #22, #190 ) ;
#257 = CARTESIAN_POINT ( 'NONE',  ( 8.728703347107835360E-16, 1.789999999999994929, 0.2500000000000000555 ) ) ;
#258 = CYLINDRICAL_SURFACE ( 'NONE', #130, 1.499999999999996891 ) ;
#259 = CONICAL_SURFACE ( 'NONE', #41, 1.200000000000001510, 0.7853981633974566057 ) ;
#260 = CC_DESIGN_APPROVAL ( #110, ( #6 ) ) ;
#261 = FACE_BOUND ( 'NONE', #194, .T. ) ;
#262 = APPROVAL_DATE_TIME ( #35, #110 ) ;
#263 = FACE_OUTER_BOUND ( 'NONE', #4, .T. ) ;
#264 = VERTEX_POINT ( 'NONE', #137 ) ;
#265 = APPROVAL_ROLE ( '' ) ;
#266 = CIRCLE ( 'NONE', #192, 1.539999999999994040 ) ;
#267 = PERSON_AND_ORGANIZATION ( #111, #27 ) ;
#268 = EDGE_LOOP ( 'NONE', ( #212 ) ) ;
#269 = EDGE_CURVE ( 'NONE', #196, #196, #105, .T. ) ;
#270 = CARTESIAN_POINT ( 'NONE',  ( 0.0000000000000000000, 0.0000000000000000000, 0.0000000000000000000 ) ) ;
#271 = CC_DESIGN_PERSON_AND_ORGANIZATION_ASSIGNMENT ( #96, #181, ( #22 ) ) ;
#272 = APPROVAL_ROLE ( '' ) ;
#273 = PERSON_AND_ORGANIZATION ( #111, #27 ) ;
#274 = CARTESIAN_POINT ( 'NONE',  ( 0.0000000000000000000, 0.0000000000000000000, 0.0000000000000000000 ) ) ;
#275 = LOCAL_TIME ( 10, 35, 49.00000000000000000, #59 ) ;
#276 = DIRECTION ( 'NONE',  ( -3.491481338843133355E-15, 1.224646799147353207E-16, -1.000000000000000000 ) ) ;
#277 = DIRECTION ( 'NONE',  ( 0.0000000000000000000, 1.000000000000000000, 0.0000000000000000000 ) ) ;
#278 = FACE_OUTER_BOUND ( 'NONE', #290, .T. ) ;
#279 = CONICAL_SURFACE ( 'NONE', #210, 1.789999999999994929, 0.5235987755983005920 ) ;
#280 = CYLINDRICAL_SURFACE ( 'NONE', #116, 1.789999999999994929 ) ;
#281 = DIRECTION ( 'NONE',  ( 0.0000000000000000000, 1.000000000000000000, 0.0000000000000000000 ) ) ;
#282 = SECURITY_CLASSIFICATION_LEVEL ( 'unclassified' ) ;
#283 = ORIENTED_EDGE ( 'NONE', *, *, #64, .T. ) ;
#284 = LOCAL_TIME ( 10, 35, 49.00000000000000000, #218 ) ;
#285 = ADVANCED_FACE ( 'NONE', ( #213 ), #180, .F. ) ;
#286 = DIRECTION ( 'NONE',  ( 3.491481338843133355E-15, -1.224646799147353207E-16, 1.000000000000000000 ) ) ;
#287 = COORDINATED_UNIVERSAL_TIME_OFFSET ( 1, 0, .AHEAD. ) ;
#288 = ORIENTED_EDGE ( 'NONE', *, *, #23, .F. ) ;
#289 = VERTEX_POINT ( 'NONE', #76 ) ;
#290 = EDGE_LOOP ( 'NONE', ( #135 ) ) ;
#291 = ADVANCED_FACE ( 'NONE', ( #235, #54 ), #258, .T. ) ;
#292 = FACE_BOUND ( 'NONE', #233, .T. ) ;
#293 = ORIENTED_EDGE ( 'NONE', *, *, #234, .T. ) ;
#294 = EDGE_LOOP ( 'NONE', ( #185 ) ) ;
#295 = ORIENTED_EDGE ( 'NONE', *, *, #128, .F. ) ;
#296 = CARTESIAN_POINT ( 'NONE',  ( 3.491481338843133355E-14, -1.224646799147353256E-15, 10.00000000000000000 ) ) ;
#297 = PERSON_AND_ORGANIZATION ( #111, #27 ) ;
#298 = AXIS2_PLACEMENT_3D ( 'NONE', #204, #106, #21 ) ;
#299 = CC_DESIGN_DATE_AND_TIME_ASSIGNMENT ( #125, #36, ( #256 ) ) ;
#300 = CC_DESIGN_APPROVAL ( #199, ( #256 ) ) ;
#301 = ADVANCED_FACE ( 'NONE', ( #263 ), #211, .F. ) ;
#302 = DIRECTION ( 'NONE',  ( 0.0000000000000000000, 1.000000000000000000, 0.0000000000000000000 ) ) ;
#303 = DIRECTION ( 'NONE',  ( 4.275831445896958607E-31, 1.000000000000000000, 1.224646799147353454E-16 ) ) ;
ENDSEC;
END-ISO-10303-21;
