ISO-10303-21;
HEADER;
FILE_DESCRIPTION (( 'STEP AP203' ),
    '1' );
FILE_NAME ('321583.step',
    '2021-12-02T09:35:48',
    ( '' ),
    ( '' ),
    'SwSTEP 2.0',
    'SolidWorks 2019',
    '' );
FILE_SCHEMA (( 'CONFIG_CONTROL_DESIGN' ));
ENDSEC;

DATA;
#1 = CARTESIAN_POINT ( 'NONE',  ( 2.444036937190193601E-13, -8.572527594031472993E-15, 70.00000000000000000 ) ) ;
#2 = CLOSED_SHELL ( 'NONE', ( #59, #209, #8, #26, #234 ) ) ;
#3 = CC_DESIGN_SECURITY_CLASSIFICATION ( #242, ( #67 ) ) ;
#4 = EDGE_LOOP ( 'NONE', ( #237 ) ) ;
#5 = FACE_OUTER_BOUND ( 'NONE', #130, .T. ) ;
#6 = PERSON_AND_ORGANIZATION ( #283, #38 ) ;
#7 = DIRECTION ( 'NONE',  ( -3.491481338843133355E-15, 1.224646799147353207E-16, -1.000000000000000000 ) ) ;
#8 = ADVANCED_FACE ( 'NONE', ( #126, #17 ), #282, .T. ) ;
#9 = PERSON_AND_ORGANIZATION ( #283, #38 ) ;
#10 = EDGE_CURVE ( 'NONE', #285, #285, #239, .T. ) ;
#11 = DATE_TIME_ROLE ( 'classification_date' ) ;
#12 = DIRECTION ( 'NONE',  ( 0.0000000000000000000, 1.000000000000000000, 0.0000000000000000000 ) ) ;
#13 = DESIGN_CONTEXT ( 'detailed design', #289, 'design' ) ;
#14 = FACE_OUTER_BOUND ( 'NONE', #73, .T. ) ;
#15 = AXIS2_PLACEMENT_3D ( 'NONE', #291, #7, #150 ) ;
#16 = FACE_OUTER_BOUND ( 'NONE', #154, .T. ) ;
#17 = FACE_OUTER_BOUND ( 'NONE', #124, .T. ) ;
#18 = FACE_BOUND ( 'NONE', #36, .T. ) ;
#19 = ORIENTED_EDGE ( 'NONE', *, *, #244, .T. ) ;
#20 = CC_DESIGN_DATE_AND_TIME_ASSIGNMENT ( #99, #292, ( #249 ) ) ;
#21 = FACE_BOUND ( 'NONE', #4, .T. ) ;
#22 = DIRECTION ( 'NONE',  ( -3.491481338843133355E-15, 1.224646799147353207E-16, -1.000000000000000000 ) ) ;
#23 = PLANE ( 'NONE',  #171 ) ;
#24 = CARTESIAN_POINT ( 'NONE',  ( 2.444036937190193601E-13, 1.199999999999992628, 70.00000000000000000 ) ) ;
#25 = ADVANCED_FACE ( 'NONE', ( #157 ), #302, .F. ) ;
#26 = ADVANCED_FACE ( 'NONE', ( #5, #186 ), #272, .T. ) ;
#27 = VERTEX_POINT ( 'NONE', #257 ) ;
#28 = EDGE_LOOP ( 'NONE', ( #187 ) ) ;
#29 = PERSON_AND_ORGANIZATION ( #283, #38 ) ;
#30 = APPROVAL_PERSON_ORGANIZATION ( #216, #137, #192 ) ;
#31 = APPLICATION_PROTOCOL_DEFINITION ( 'international standard', 'config_control_design', 1994, #289 ) ;
#32 = DATE_AND_TIME ( #270, #76 ) ;
#33 = EDGE_CURVE ( 'NONE', #161, #161, #256, .T. ) ;
#34 = CARTESIAN_POINT ( 'NONE',  ( 0.0000000000000000000, 0.0000000000000000000, 0.0000000000000000000 ) ) ;
#35 = DIRECTION ( 'NONE',  ( -3.491481338843133355E-15, 1.224646799147353207E-16, -1.000000000000000000 ) ) ;
#36 = EDGE_LOOP ( 'NONE', ( #190 ) ) ;
#37 = AXIS2_PLACEMENT_3D ( 'NONE', #303, #131, #174 ) ;
#38 = ORGANIZATION ( 'UNSPECIFIED', 'UNSPECIFIED', '' ) ;
#39 = CARTESIAN_POINT ( 'NONE',  ( 2.444036937190193601E-13, -8.572527594031472993E-15, 70.00000000000000000 ) ) ;
#40 = EDGE_CURVE ( 'NONE', #160, #160, #252, .T. ) ;
#41 = FACE_OUTER_BOUND ( 'NONE', #51, .T. ) ;
#42 = DIRECTION ( 'NONE',  ( -3.491481338843133355E-15, 1.224646799147353207E-16, -1.000000000000000000 ) ) ;
#43 = ORIENTED_EDGE ( 'NONE', *, *, #117, .T. ) ;
#44 = CIRCLE ( 'NONE', #211, 1.500000000000001110 ) ;
#45 = CARTESIAN_POINT ( 'NONE',  ( 2.433562493173664138E-13, -8.535788190057053710E-15, 69.70000000000001705 ) ) ;
#46 = DIRECTION ( 'NONE',  ( -3.491481338843133355E-15, 1.224646799147353207E-16, -1.000000000000000000 ) ) ;
#47 = CARTESIAN_POINT ( 'NONE',  ( 2.433562493173664138E-13, 1.499999999999992673, 69.70000000000001705 ) ) ;
#48 =( NAMED_UNIT ( * ) PLANE_ANGLE_UNIT ( ) SI_UNIT ( $, .RADIAN. ) );
#49 = AXIS2_PLACEMENT_3D ( 'NONE', #72, #167, #243 ) ;
#50 = VERTEX_POINT ( 'NONE', #47 ) ;
#51 = EDGE_LOOP ( 'NONE', ( #177 ) ) ;
#52 = CIRCLE ( 'NONE', #245, 1.784999999999995035 ) ;
#53 = CONICAL_SURFACE ( 'NONE', #264, 1.784999999999995035, 0.5235987755983001479 ) ;
#54 = APPROVAL_ROLE ( '' ) ;
#55 = ORIENTED_EDGE ( 'NONE', *, *, #75, .F. ) ;
#56 = COORDINATED_UNIVERSAL_TIME_OFFSET ( 1, 0, .AHEAD. ) ;
#57 = PERSON_AND_ORGANIZATION_ROLE ( 'classification_officer' ) ;
#58 = COORDINATED_UNIVERSAL_TIME_OFFSET ( 1, 0, .AHEAD. ) ;
#59 = ADVANCED_FACE ( 'NONE', ( #141 ), #189, .F. ) ;
#60 = EDGE_CURVE ( 'NONE', #232, #232, #271, .T. ) ;
#61 = DIRECTION ( 'NONE',  ( 4.275831445896958607E-31, 1.000000000000000000, 1.224646799147353207E-16 ) ) ;
#62 = FACE_OUTER_BOUND ( 'NONE', #81, .T. ) ;
#63 = DIRECTION ( 'NONE',  ( 4.275831445896958607E-31, 1.000000000000000000, 1.224646799147353207E-16 ) ) ;
#64 = CARTESIAN_POINT ( 'NONE',  ( 3.491481338843133355E-14, -1.224646799147353256E-15, 10.00000000000000000 ) ) ;
#65 = CYLINDRICAL_SURFACE ( 'NONE', #191, 1.499999999999996891 ) ;
#66 = CARTESIAN_POINT ( 'NONE',  ( 3.491481338843133355E-14, 1.784999999999993925, 10.00000000000000000 ) ) ;
#67 = PRODUCT_DEFINITION_FORMATION_WITH_SPECIFIED_SOURCE ( 'ANY', '', #159, .NOT_KNOWN. ) ;
#68 = DIRECTION ( 'NONE',  ( -3.491481338843133355E-15, 1.224646799147353207E-16, -1.000000000000000000 ) ) ;
#69 = CARTESIAN_POINT ( 'NONE',  ( 0.0000000000000000000, 0.0000000000000000000, 0.0000000000000000000 ) ) ;
#70 = ORIENTED_EDGE ( 'NONE', *, *, #117, .F. ) ;
#71 = APPROVAL_ROLE ( '' ) ;
#72 = CARTESIAN_POINT ( 'NONE',  ( 3.663832896410949209E-14, -1.285099587754673283E-15, 10.49363448015713196 ) ) ;
#73 = EDGE_LOOP ( 'NONE', ( #173 ) ) ;
#74 = CONICAL_SURFACE ( 'NONE', #168, 1.200000000000001510, 0.7853981633974566057 ) ;
#75 = EDGE_CURVE ( 'NONE', #178, #178, #52, .T. ) ;
#76 = LOCAL_TIME ( 10, 35, 48.00000000000000000, #295 ) ;
#77 = CALENDAR_DATE ( 2021, 2, 12 ) ;
#78 = ORIENTED_EDGE ( 'NONE', *, *, #60, .T. ) ;
#79 = ADVANCED_FACE ( 'NONE', ( #14, #21 ), #263, .T. ) ;
#80 = AXIS2_PLACEMENT_3D ( 'NONE', #97, #218, #12 ) ;
#81 = EDGE_LOOP ( 'NONE', ( #287 ) ) ;
#82 = DIRECTION ( 'NONE',  ( 0.0000000000000000000, 1.000000000000000000, 0.0000000000000000000 ) ) ;
#83 = DIRECTION ( 'NONE',  ( 4.275831445896958607E-31, 1.000000000000000000, 1.224646799147353454E-16 ) ) ;
#84 = FACE_OUTER_BOUND ( 'NONE', #212, .T. ) ;
#85 = CARTESIAN_POINT ( 'NONE',  ( 3.663832896410949209E-14, -1.285099587754673283E-15, 10.49363448015713196 ) ) ;
#86 = ADVANCED_FACE ( 'NONE', ( #62 ), #172, .T. ) ;
#87 = AXIS2_PLACEMENT_3D ( 'NONE', #69, #163, #93 ) ;
#88 = CARTESIAN_POINT ( 'NONE',  ( 2.433562493173664138E-13, 1.499999999999992673, 69.70000000000001705 ) ) ;
#89 = ADVANCED_FACE ( 'NONE', ( #41, #273 ), #74, .T. ) ;
#90 = CC_DESIGN_DATE_AND_TIME_ASSIGNMENT ( #149, #11, ( #242 ) ) ;
#91 =( LENGTH_UNIT ( ) NAMED_UNIT ( * ) SI_UNIT ( .MILLI., .METRE. ) );
#92 = AXIS2_PLACEMENT_3D ( 'NONE', #134, #231, #147 ) ;
#93 = DIRECTION ( 'NONE',  ( 1.000000000000000000, 0.0000000000000000000, 0.0000000000000000000 ) ) ;
#94 = CC_DESIGN_PERSON_AND_ORGANIZATION_ASSIGNMENT ( #238, #169, ( #249 ) ) ;
#95 = EDGE_LOOP ( 'NONE', ( #240 ) ) ;
#96 = PERSON_AND_ORGANIZATION_ROLE ( 'design_owner' ) ;
#97 = CARTESIAN_POINT ( 'NONE',  ( 3.491481338843133355E-14, -1.224646799147353256E-15, 10.00000000000000000 ) ) ;
#98 = EDGE_LOOP ( 'NONE', ( #43 ) ) ;
#99 = DATE_AND_TIME ( #77, #225 ) ;
#100 = APPROVAL_DATE_TIME ( #166, #133 ) ;
#101 = CIRCLE ( 'NONE', #300, 1.784999999999995035 ) ;
#102 = FACE_OUTER_BOUND ( 'NONE', #259, .T. ) ;
#103 = DIRECTION ( 'NONE',  ( -3.491481338843133355E-15, 1.224646799147353207E-16, -1.000000000000000000 ) ) ;
#104 = LOCAL_TIME ( 10, 35, 48.00000000000000000, #143 ) ;
#105 = DIRECTION ( 'NONE',  ( -4.275831445896958607E-31, -1.000000000000000000, -1.224646799147353207E-16 ) ) ;
#106 = CARTESIAN_POINT ( 'NONE',  ( 0.0000000000000000000, 0.0000000000000000000, 0.0000000000000000000 ) ) ;
#107 = PRODUCT_DEFINITION_SHAPE ( 'NONE', 'NONE',  #249 ) ;
#108 = CARTESIAN_POINT ( 'NONE',  ( 3.491481338843133355E-14, -1.224646799147353256E-15, 10.00000000000000000 ) ) ;
#109 = VERTEX_POINT ( 'NONE', #180 ) ;
#110 = VERTEX_POINT ( 'NONE', #66 ) ;
#111 = AXIS2_PLACEMENT_3D ( 'NONE', #301, #197, #61 ) ;
#112 = ORIENTED_EDGE ( 'NONE', *, *, #40, .T. ) ;
#113 = AXIS2_PLACEMENT_3D ( 'NONE', #1, #22, #138 ) ;
#114 = ORIENTED_EDGE ( 'NONE', *, *, #185, .T. ) ;
#115 = ORIENTED_EDGE ( 'NONE', *, *, #144, .F. ) ;
#116 = CALENDAR_DATE ( 2021, 2, 12 ) ;
#117 = EDGE_CURVE ( 'NONE', #27, #27, #122, .T. ) ;
#118 = AXIS2_PLACEMENT_3D ( 'NONE', #106, #198, #83 ) ;
#119 = DIRECTION ( 'NONE',  ( 3.491481338843133355E-15, -1.224646799147353207E-16, 1.000000000000000000 ) ) ;
#120 = PERSON_AND_ORGANIZATION ( #283, #38 ) ;
#121 = DIRECTION ( 'NONE',  ( -3.491481338843133355E-15, 1.224646799147353207E-16, -1.000000000000000000 ) ) ;
#122 = CIRCLE ( 'NONE', #37, 1.200000000000001510 ) ;
#123 = DIRECTION ( 'NONE',  ( 0.0000000000000000000, 1.000000000000000000, 0.0000000000000000000 ) ) ;
#124 = EDGE_LOOP ( 'NONE', ( #19 ) ) ;
#125 = CYLINDRICAL_SURFACE ( 'NONE', #202, 1.784999999999995035 ) ;
#126 = FACE_OUTER_BOUND ( 'NONE', #229, .T. ) ;
#127 = CC_DESIGN_APPROVAL ( #133, ( #242 ) ) ;
#128 = CC_DESIGN_APPROVAL ( #137, ( #67 ) ) ;
#129 = DIRECTION ( 'NONE',  ( 0.0000000000000000000, 1.000000000000000000, 0.0000000000000000000 ) ) ;
#130 = EDGE_LOOP ( 'NONE', ( #205 ) ) ;
#131 = DIRECTION ( 'NONE',  ( -3.491481338843133355E-15, 1.224646799147353207E-16, -1.000000000000000000 ) ) ;
#132 = EDGE_LOOP ( 'NONE', ( #112 ) ) ;
#133 = APPROVAL ( #146, 'UNSPECIFIED' ) ;
#134 = CARTESIAN_POINT ( 'NONE',  ( 2.444036937190193601E-13, -8.572527594031472993E-15, 70.00000000000000000 ) ) ;
#135 = CARTESIAN_POINT ( 'NONE',  ( 2.444036937190193601E-13, 8.998558695971026591E-33, 70.00000000000000000 ) ) ;
#136 = CLOSED_SHELL ( 'NONE', ( #196, #222, #79, #86, #25, #89, #145 ) ) ;
#137 = APPROVAL ( #260, 'UNSPECIFIED' ) ;
#138 = DIRECTION ( 'NONE',  ( 0.0000000000000000000, 1.000000000000000000, 0.0000000000000000000 ) ) ;
#139 = DIRECTION ( 'NONE',  ( 4.275831445896958607E-31, 1.000000000000000000, 1.224646799147353207E-16 ) ) ;
#140 = APPROVAL_PERSON_ORGANIZATION ( #120, #133, #71 ) ;
#141 = FACE_OUTER_BOUND ( 'NONE', #164, .T. ) ;
#142 = EDGE_LOOP ( 'NONE', ( #70 ) ) ;
#143 = COORDINATED_UNIVERSAL_TIME_OFFSET ( 1, 0, .AHEAD. ) ;
#144 = EDGE_CURVE ( 'NONE', #109, #109, #207, .T. ) ;
#145 = ADVANCED_FACE ( 'NONE', ( #102, #84 ), #65, .T. ) ;
#146 = APPROVAL_STATUS ( 'not_yet_approved' ) ;
#147 = DIRECTION ( 'NONE',  ( 4.275831445896958607E-31, 1.000000000000000000, 1.224646799147353207E-16 ) ) ;
#148 = CC_DESIGN_PERSON_AND_ORGANIZATION_ASSIGNMENT ( #29, #57, ( #242 ) ) ;
#149 = DATE_AND_TIME ( #213, #151 ) ;
#150 = DIRECTION ( 'NONE',  ( 0.0000000000000000000, 1.000000000000000000, 0.0000000000000000000 ) ) ;
#151 = LOCAL_TIME ( 10, 35, 48.00000000000000000, #56 ) ;
#152 = APPROVAL ( #241, 'UNSPECIFIED' ) ;
#153 = DIRECTION ( 'NONE',  ( 4.315809399187094961E-31, 1.000000000000000000, 1.214792350123817818E-16 ) ) ;
#154 = EDGE_LOOP ( 'NONE', ( #165 ) ) ;
#155 = ORIENTED_EDGE ( 'NONE', *, *, #261, .T. ) ;
#156 = DIRECTION ( 'NONE',  ( -3.491481338843133355E-15, 1.224646799147353207E-16, -1.000000000000000000 ) ) ;
#157 = FACE_OUTER_BOUND ( 'NONE', #268, .T. ) ;
#158 = FACE_OUTER_BOUND ( 'NONE', #183, .T. ) ;
#159 = PRODUCT ( '321583', '321583', '', ( #182 ) ) ;
#160 = VERTEX_POINT ( 'NONE', #235 ) ;
#161 = VERTEX_POINT ( 'NONE', #288 ) ;
#162 = CONICAL_SURFACE ( 'NONE', #233, 1.784999999999995035, 0.5235987755983001479 ) ;
#163 = DIRECTION ( 'NONE',  ( 0.0000000000000000000, 0.0000000000000000000, 1.000000000000000000 ) ) ;
#164 = EDGE_LOOP ( 'NONE', ( #114 ) ) ;
#165 = ORIENTED_EDGE ( 'NONE', *, *, #185, .F. ) ;
#166 = DATE_AND_TIME ( #290, #104 ) ;
#167 = DIRECTION ( 'NONE',  ( -3.491481338843133355E-15, 1.224646799147353207E-16, -1.000000000000000000 ) ) ;
#168 = AXIS2_PLACEMENT_3D ( 'NONE', #39, #203, #204 ) ;
#169 = PERSON_AND_ORGANIZATION_ROLE ( 'creator' ) ;
#170 = SECURITY_CLASSIFICATION_LEVEL ( 'unclassified' ) ;
#171 = AXIS2_PLACEMENT_3D ( 'NONE', #135, #68, #139 ) ;
#172 = PLANE ( 'NONE',  #111 ) ;
#173 = ORIENTED_EDGE ( 'NONE', *, *, #75, .T. ) ;
#174 = DIRECTION ( 'NONE',  ( 0.0000000000000000000, 1.000000000000000000, 0.0000000000000000000 ) ) ;
#175 = DIRECTION ( 'NONE',  ( 0.0000000000000000000, 1.000000000000000000, 0.0000000000000000000 ) ) ;
#176 = DIRECTION ( 'NONE',  ( -3.491481338843133355E-15, 1.224646799147353207E-16, -1.000000000000000000 ) ) ;
#177 = ORIENTED_EDGE ( 'NONE', *, *, #60, .F. ) ;
#178 = VERTEX_POINT ( 'NONE', #286 ) ;
#179 =( GEOMETRIC_REPRESENTATION_CONTEXT ( 3 ) GLOBAL_UNCERTAINTY_ASSIGNED_CONTEXT ( ( #199 ) ) GLOBAL_UNIT_ASSIGNED_CONTEXT ( ( #91, #48, #254 ) ) REPRESENTATION_CONTEXT ( 'NONE', 'WORKASPACE' ) );
#180 = CARTESIAN_POINT ( 'NONE',  ( 3.663832896410949209E-14, 1.499999999999991562, 10.49363448015713196 ) ) ;
#181 = DIRECTION ( 'NONE',  ( -3.491481338843133355E-15, 1.224646799147353207E-16, -1.000000000000000000 ) ) ;
#182 = MECHANICAL_CONTEXT ( 'NONE', #265, 'mechanical' ) ;
#183 = EDGE_LOOP ( 'NONE', ( #55 ) ) ;
#184 = APPLICATION_PROTOCOL_DEFINITION ( 'international standard', 'config_control_design', 1994, #265 ) ;
#185 = EDGE_CURVE ( 'NONE', #110, #110, #101, .T. ) ;
#186 = FACE_BOUND ( 'NONE', #98, .T. ) ;
#187 = ORIENTED_EDGE ( 'NONE', *, *, #33, .F. ) ;
#188 = APPROVAL_DATE_TIME ( #32, #152 ) ;
#189 = PLANE ( 'NONE',  #220 ) ;
#190 = ORIENTED_EDGE ( 'NONE', *, *, #144, .T. ) ;
#191 = AXIS2_PLACEMENT_3D ( 'NONE', #34, #121, #194 ) ;
#192 = APPROVAL_ROLE ( '' ) ;
#193 = COORDINATED_UNIVERSAL_TIME_OFFSET ( 1, 0, .AHEAD. ) ;
#194 = DIRECTION ( 'NONE',  ( 4.275831445896958607E-31, 1.000000000000000000, 1.224646799147353454E-16 ) ) ;
#195 = FACE_OUTER_BOUND ( 'NONE', #95, .T. ) ;
#196 = ADVANCED_FACE ( 'NONE', ( #18, #221 ), #53, .T. ) ;
#197 = DIRECTION ( 'NONE',  ( -3.491481338843133355E-15, 1.224646799147353207E-16, -1.000000000000000000 ) ) ;
#198 = DIRECTION ( 'NONE',  ( -3.491481338843133355E-15, 1.224646799147353207E-16, -1.000000000000000000 ) ) ;
#199 = UNCERTAINTY_MEASURE_WITH_UNIT (LENGTH_MEASURE( 1.000000000000000082E-05 ), #91, 'distance_accuracy_value', 'NONE');
#200 = AXIS2_PLACEMENT_3D ( 'NONE', #248, #156, #175 ) ;
#201 = CC_DESIGN_PERSON_AND_ORGANIZATION_ASSIGNMENT ( #6, #96, ( #159 ) ) ;
#202 = AXIS2_PLACEMENT_3D ( 'NONE', #223, #42, #206 ) ;
#203 = DIRECTION ( 'NONE',  ( -3.491481338843133355E-15, 1.224646799147353207E-16, -1.000000000000000000 ) ) ;
#204 = DIRECTION ( 'NONE',  ( 0.0000000000000000000, 1.000000000000000000, 0.0000000000000000000 ) ) ;
#205 = ORIENTED_EDGE ( 'NONE', *, *, #244, .F. ) ;
#206 = DIRECTION ( 'NONE',  ( 4.275831445896959482E-31, 1.000000000000000000, 1.224646799147353207E-16 ) ) ;
#207 = CIRCLE ( 'NONE', #284, 1.499999999999992895 ) ;
#208 = APPROVAL_PERSON_ORGANIZATION ( #215, #152, #54 ) ;
#209 = ADVANCED_FACE ( 'NONE', ( #251, #16 ), #162, .T. ) ;
#210 = ADVANCED_BREP_SHAPE_REPRESENTATION ( '321583', ( #276, #275, #87 ), #179 ) ;
#211 = AXIS2_PLACEMENT_3D ( 'NONE', #45, #181, #236 ) ;
#212 = EDGE_LOOP ( 'NONE', ( #78 ) ) ;
#213 = CALENDAR_DATE ( 2021, 2, 12 ) ;
#214 = LOCAL_TIME ( 10, 35, 48.00000000000000000, #58 ) ;
#215 = PERSON_AND_ORGANIZATION ( #283, #38 ) ;
#216 = PERSON_AND_ORGANIZATION ( #283, #38 ) ;
#217 = PERSON_AND_ORGANIZATION ( #283, #38 ) ;
#218 = DIRECTION ( 'NONE',  ( -3.491481338843133355E-15, 1.224646799147353207E-16, -1.000000000000000000 ) ) ;
#219 = CARTESIAN_POINT ( 'NONE',  ( 8.728703347107827472E-16, -3.061616997868381169E-17, 0.2499999999999998335 ) ) ;
#220 = AXIS2_PLACEMENT_3D ( 'NONE', #293, #119, #105 ) ;
#221 = FACE_OUTER_BOUND ( 'NONE', #28, .T. ) ;
#222 = ADVANCED_FACE ( 'NONE', ( #195, #158 ), #125, .T. ) ;
#223 = CARTESIAN_POINT ( 'NONE',  ( 0.0000000000000000000, 0.0000000000000000000, 0.0000000000000000000 ) ) ;
#224 = CC_DESIGN_PERSON_AND_ORGANIZATION_ASSIGNMENT ( #217, #296, ( #67 ) ) ;
#225 = LOCAL_TIME ( 10, 35, 48.00000000000000000, #193 ) ;
#226 = DIRECTION ( 'NONE',  ( 3.491481338843133355E-15, -1.224646799147353207E-16, 1.000000000000000000 ) ) ;
#227 = AXIS2_PLACEMENT_3D ( 'NONE', #278, #46, #63 ) ;
#228 = DIRECTION ( 'NONE',  ( 0.0000000000000000000, 1.000000000000000000, 0.0000000000000000000 ) ) ;
#229 = EDGE_LOOP ( 'NONE', ( #280 ) ) ;
#230 = CARTESIAN_POINT ( 'NONE',  ( 0.0000000000000000000, 1.534999999999994369, 0.0000000000000000000 ) ) ;
#231 = DIRECTION ( 'NONE',  ( -3.491481338843133355E-15, 1.224646799147353207E-16, -1.000000000000000000 ) ) ;
#232 = VERTEX_POINT ( 'NONE', #88 ) ;
#233 = AXIS2_PLACEMENT_3D ( 'NONE', #64, #103, #82 ) ;
#234 = ADVANCED_FACE ( 'NONE', ( #255 ), #23, .F. ) ;
#235 = CARTESIAN_POINT ( 'NONE',  ( 3.663832896410949209E-14, 1.499999999999991562, 10.49363448015713196 ) ) ;
#236 = DIRECTION ( 'NONE',  ( 0.0000000000000000000, 1.000000000000000000, 0.0000000000000000000 ) ) ;
#237 = ORIENTED_EDGE ( 'NONE', *, *, #10, .F. ) ;
#238 = PERSON_AND_ORGANIZATION ( #283, #38 ) ;
#239 = CIRCLE ( 'NONE', #227, 1.534999999999994369 ) ;
#240 = ORIENTED_EDGE ( 'NONE', *, *, #33, .T. ) ;
#241 = APPROVAL_STATUS ( 'not_yet_approved' ) ;
#242 = SECURITY_CLASSIFICATION ( '', '', #170 ) ;
#243 = DIRECTION ( 'NONE',  ( 0.0000000000000000000, 1.000000000000000000, 0.0000000000000000000 ) ) ;
#244 = EDGE_CURVE ( 'NONE', #50, #50, #44, .T. ) ;
#245 = AXIS2_PLACEMENT_3D ( 'NONE', #219, #281, #153 ) ;
#246 = DATE_AND_TIME ( #116, #214 ) ;
#247 = CARTESIAN_POINT ( 'NONE',  ( 3.491481338843133355E-14, -1.224646799147353256E-15, 10.00000000000000000 ) ) ;
#248 = CARTESIAN_POINT ( 'NONE',  ( 2.433562493173664138E-13, -8.535788190057053710E-15, 69.70000000000001705 ) ) ;
#249 = PRODUCT_DEFINITION ( 'UNKNOWN', '', #67, #13 ) ;
#250 = CC_DESIGN_APPROVAL ( #152, ( #249 ) ) ;
#251 = FACE_BOUND ( 'NONE', #132, .T. ) ;
#252 = CIRCLE ( 'NONE', #49, 1.499999999999992895 ) ;
#253 = CIRCLE ( 'NONE', #113, 1.200000000000001510 ) ;
#254 =( NAMED_UNIT ( * ) SI_UNIT ( $, .STERADIAN. ) SOLID_ANGLE_UNIT ( ) );
#255 = FACE_OUTER_BOUND ( 'NONE', #142, .T. ) ;
#256 = CIRCLE ( 'NONE', #80, 1.784999999999995035 ) ;
#257 = CARTESIAN_POINT ( 'NONE',  ( 2.444036937190193601E-13, 1.199999999999992628, 70.00000000000000000 ) ) ;
#258 = VERTEX_POINT ( 'NONE', #24 ) ;
#259 = EDGE_LOOP ( 'NONE', ( #115 ) ) ;
#260 = APPROVAL_STATUS ( 'not_yet_approved' ) ;
#261 = EDGE_CURVE ( 'NONE', #258, #258, #253, .T. ) ;
#262 = SHAPE_DEFINITION_REPRESENTATION ( #107, #210 ) ;
#263 = CONICAL_SURFACE ( 'NONE', #298, 1.534999999999994369, 0.7853981633974500554 ) ;
#264 = AXIS2_PLACEMENT_3D ( 'NONE', #108, #279, #228 ) ;
#265 = APPLICATION_CONTEXT ( 'configuration controlled 3d designs of mechanical parts and assemblies' ) ;
#266 = ORIENTED_EDGE ( 'NONE', *, *, #261, .F. ) ;
#267 = PERSON_AND_ORGANIZATION_ROLE ( 'design_supplier' ) ;
#268 = EDGE_LOOP ( 'NONE', ( #266 ) ) ;
#269 = APPROVAL_DATE_TIME ( #246, #137 ) ;
#270 = CALENDAR_DATE ( 2021, 2, 12 ) ;
#271 = CIRCLE ( 'NONE', #200, 1.500000000000001110 ) ;
#272 = CONICAL_SURFACE ( 'NONE', #15, 1.200000000000001510, 0.7853981633974566057 ) ;
#273 = FACE_BOUND ( 'NONE', #294, .T. ) ;
#274 = CARTESIAN_POINT ( 'NONE',  ( -6.563401269451807262E-31, 2.302131266385943053E-32, -1.879832836691180176E-16 ) ) ;
#275 = MANIFOLD_SOLID_BREP ( 'Corps-Déplacer/Copier1[2]', #136 ) ;
#276 = MANIFOLD_SOLID_BREP ( 'Corps-Déplacer/Copier1[1]', #2 ) ;
#277 = DIRECTION ( 'NONE',  ( -4.275831445896958607E-31, -1.000000000000000000, -1.224646799147353207E-16 ) ) ;
#278 = CARTESIAN_POINT ( 'NONE',  ( -6.563401269451807262E-31, 2.302131266385943053E-32, -1.879832836691180176E-16 ) ) ;
#279 = DIRECTION ( 'NONE',  ( -3.491481338843133355E-15, 1.224646799147353207E-16, -1.000000000000000000 ) ) ;
#280 = ORIENTED_EDGE ( 'NONE', *, *, #40, .F. ) ;
#281 = DIRECTION ( 'NONE',  ( -3.491481338843133355E-15, 1.224646799147353207E-16, -1.000000000000000000 ) ) ;
#282 = CYLINDRICAL_SURFACE ( 'NONE', #118, 1.499999999999996891 ) ;
#283 = PERSON ( 'UNSPECIFIED', 'UNSPECIFIED', 'UNSPECIFIED', ('UNSPECIFIED'), ('UNSPECIFIED'), ('UNSPECIFIED') ) ;
#284 = AXIS2_PLACEMENT_3D ( 'NONE', #85, #176, #129 ) ;
#285 = VERTEX_POINT ( 'NONE', #230 ) ;
#286 = CARTESIAN_POINT ( 'NONE',  ( 8.728703347107835360E-16, 1.784999999999995035, 0.2500000000000000555 ) ) ;
#287 = ORIENTED_EDGE ( 'NONE', *, *, #10, .T. ) ;
#288 = CARTESIAN_POINT ( 'NONE',  ( 3.491481338843133355E-14, 1.784999999999993925, 10.00000000000000000 ) ) ;
#289 = APPLICATION_CONTEXT ( 'configuration controlled 3d designs of mechanical parts and assemblies' ) ;
#290 = CALENDAR_DATE ( 2021, 2, 12 ) ;
#291 = CARTESIAN_POINT ( 'NONE',  ( 2.444036937190193601E-13, -8.572527594031472993E-15, 70.00000000000000000 ) ) ;
#292 = DATE_TIME_ROLE ( 'creation_date' ) ;
#293 = CARTESIAN_POINT ( 'NONE',  ( 3.491481338843133355E-14, 1.338535606025702085E-32, 10.00000000000000000 ) ) ;
#294 = EDGE_LOOP ( 'NONE', ( #155 ) ) ;
#295 = COORDINATED_UNIVERSAL_TIME_OFFSET ( 1, 0, .AHEAD. ) ;
#296 = PERSON_AND_ORGANIZATION_ROLE ( 'creator' ) ;
#297 = PRODUCT_RELATED_PRODUCT_CATEGORY ( 'detail', '', ( #159 ) ) ;
#298 = AXIS2_PLACEMENT_3D ( 'NONE', #274, #226, #277 ) ;
#299 = CC_DESIGN_PERSON_AND_ORGANIZATION_ASSIGNMENT ( #9, #267, ( #67 ) ) ;
#300 = AXIS2_PLACEMENT_3D ( 'NONE', #247, #35, #123 ) ;
#301 = CARTESIAN_POINT ( 'NONE',  ( -3.281700634725903631E-31, 1.151065633192971527E-32, -9.399164183455900878E-17 ) ) ;
#302 = PLANE ( 'NONE',  #92 ) ;
#303 = CARTESIAN_POINT ( 'NONE',  ( 2.444036937190193601E-13, -8.572527594031472993E-15, 70.00000000000000000 ) ) ;
ENDSEC;
END-ISO-10303-21;
