ISO-10303-21;
HEADER;
FILE_DESCRIPTION (( 'STEP AP203' ),
    '1' );
FILE_NAME ('321582.step',
    '2021-12-02T09:35:47',
    ( '' ),
    ( '' ),
    'SwSTEP 2.0',
    'SolidWorks 2019',
    '' );
FILE_SCHEMA (( 'CONFIG_CONTROL_DESIGN' ));
ENDSEC;

DATA;
#1 = MANIFOLD_SOLID_BREP ( 'Corps-Déplacer/Copier1[1]', #146 ) ;
#2 = APPROVAL_DATE_TIME ( #21, #270 ) ;
#3 = AXIS2_PLACEMENT_3D ( 'NONE', #92, #15, #59 ) ;
#4 = EDGE_LOOP ( 'NONE', ( #43 ) ) ;
#5 = ORIENTED_EDGE ( 'NONE', *, *, #96, .T. ) ;
#6 = DIRECTION ( 'NONE',  ( 0.0000000000000000000, 1.000000000000000000, 0.0000000000000000000 ) ) ;
#7 = CARTESIAN_POINT ( 'NONE',  ( 3.491481338843133355E-14, 1.779999999999993587, 10.00000000000000000 ) ) ;
#8 = DATE_AND_TIME ( #126, #158 ) ;
#9 = DIRECTION ( 'NONE',  ( -3.491481338843133355E-15, 1.224646799147353207E-16, -1.000000000000000000 ) ) ;
#10 = CONICAL_SURFACE ( 'NONE', #63, 1.779999999999994920, 0.5235987755983005920 ) ;
#11 = AXIS2_PLACEMENT_3D ( 'NONE', #180, #249, #269 ) ;
#12 = CARTESIAN_POINT ( 'NONE',  ( 3.660809184874671704E-14, -1.284039012515948239E-15, 10.48497422611928798 ) ) ;
#13 = DIRECTION ( 'NONE',  ( 0.0000000000000000000, 1.000000000000000000, 0.0000000000000000000 ) ) ;
#14 = DATE_AND_TIME ( #119, #107 ) ;
#15 = DIRECTION ( 'NONE',  ( -3.491481338843133355E-15, 1.224646799147353207E-16, -1.000000000000000000 ) ) ;
#16 = CC_DESIGN_APPROVAL ( #98, ( #151 ) ) ;
#17 = EDGE_CURVE ( 'NONE', #252, #252, #195, .T. ) ;
#18 = EDGE_LOOP ( 'NONE', ( #30 ) ) ;
#19 = PRODUCT_DEFINITION ( 'UNKNOWN', '', #128, #62 ) ;
#20 = CARTESIAN_POINT ( 'NONE',  ( 3.491481338843133355E-14, -1.224646799147353256E-15, 10.00000000000000000 ) ) ;
#21 = DATE_AND_TIME ( #49, #41 ) ;
#22 = PRODUCT_DEFINITION_SHAPE ( 'NONE', 'NONE',  #19 ) ;
#23 = COORDINATED_UNIVERSAL_TIME_OFFSET ( 1, 0, .AHEAD. ) ;
#24 = APPLICATION_PROTOCOL_DEFINITION ( 'international standard', 'config_control_design', 1994, #243 ) ;
#25 = EDGE_LOOP ( 'NONE', ( #101 ) ) ;
#26 = ADVANCED_FACE ( 'NONE', ( #277 ), #174, .T. ) ;
#27 = CARTESIAN_POINT ( 'NONE',  ( 2.444036937190193601E-13, 8.998558695971026591E-33, 70.00000000000000000 ) ) ;
#28 = FACE_BOUND ( 'NONE', #83, .T. ) ;
#29 = AXIS2_PLACEMENT_3D ( 'NONE', #273, #182, #109 ) ;
#30 = ORIENTED_EDGE ( 'NONE', *, *, #17, .T. ) ;
#31 = PERSON_AND_ORGANIZATION ( #132, #111 ) ;
#32 = CARTESIAN_POINT ( 'NONE',  ( 3.491481338843133355E-14, -1.224646799147353256E-15, 10.00000000000000000 ) ) ;
#33 = CARTESIAN_POINT ( 'NONE',  ( 2.444036937190193601E-13, -8.572527594031472993E-15, 70.00000000000000000 ) ) ;
#34 = CALENDAR_DATE ( 2021, 2, 12 ) ;
#35 = AXIS2_PLACEMENT_3D ( 'NONE', #103, #201, #283 ) ;
#36 = LOCAL_TIME ( 10, 35, 47.00000000000000000, #154 ) ;
#37 = DIRECTION ( 'NONE',  ( 0.0000000000000000000, 1.000000000000000000, 0.0000000000000000000 ) ) ;
#38 = DIRECTION ( 'NONE',  ( 4.275831445896958607E-31, 1.000000000000000000, 1.224646799147353207E-16 ) ) ;
#39 = CARTESIAN_POINT ( 'NONE',  ( 2.433562493173664138E-13, 1.499999999999992673, 69.70000000000001705 ) ) ;
#40 = ORIENTED_EDGE ( 'NONE', *, *, #297, .F. ) ;
#41 = LOCAL_TIME ( 10, 35, 47.00000000000000000, #23 ) ;
#42 = EDGE_LOOP ( 'NONE', ( #51 ) ) ;
#43 = ORIENTED_EDGE ( 'NONE', *, *, #130, .F. ) ;
#44 = DIRECTION ( 'NONE',  ( -3.491481338843133355E-15, 1.224646799147353207E-16, -1.000000000000000000 ) ) ;
#45 = CC_DESIGN_PERSON_AND_ORGANIZATION_ASSIGNMENT ( #230, #284, ( #128 ) ) ;
#46 = CONICAL_SURFACE ( 'NONE', #122, 1.200000000000001510, 0.7853981633974566057 ) ;
#47 = APPLICATION_PROTOCOL_DEFINITION ( 'international standard', 'config_control_design', 1994, #200 ) ;
#48 = ADVANCED_FACE ( 'NONE', ( #75, #73 ), #198, .T. ) ;
#49 = CALENDAR_DATE ( 2021, 2, 12 ) ;
#50 = CONICAL_SURFACE ( 'NONE', #70, 1.200000000000001510, 0.7853981633974566057 ) ;
#51 = ORIENTED_EDGE ( 'NONE', *, *, #266, .F. ) ;
#52 = PERSON_AND_ORGANIZATION ( #132, #111 ) ;
#53 = DIRECTION ( 'NONE',  ( -3.491481338843133355E-15, 1.224646799147353207E-16, -1.000000000000000000 ) ) ;
#54 = CC_DESIGN_DATE_AND_TIME_ASSIGNMENT ( #8, #105, ( #151 ) ) ;
#55 = ORIENTED_EDGE ( 'NONE', *, *, #17, .F. ) ;
#56 = FACE_OUTER_BOUND ( 'NONE', #169, .T. ) ;
#57 = SECURITY_CLASSIFICATION_LEVEL ( 'unclassified' ) ;
#58 = FACE_OUTER_BOUND ( 'NONE', #255, .T. ) ;
#59 = DIRECTION ( 'NONE',  ( 0.0000000000000000000, 1.000000000000000000, 0.0000000000000000000 ) ) ;
#60 = COORDINATED_UNIVERSAL_TIME_OFFSET ( 1, 0, .AHEAD. ) ;
#61 = DIRECTION ( 'NONE',  ( -3.491481338843133355E-15, 1.224646799147353207E-16, -1.000000000000000000 ) ) ;
#62 = DESIGN_CONTEXT ( 'detailed design', #200, 'design' ) ;
#63 = AXIS2_PLACEMENT_3D ( 'NONE', #225, #166, #193 ) ;
#64 = AXIS2_PLACEMENT_3D ( 'NONE', #147, #239, #6 ) ;
#65 = VERTEX_POINT ( 'NONE', #7 ) ;
#66 = DATE_AND_TIME ( #272, #136 ) ;
#67 = FACE_OUTER_BOUND ( 'NONE', #299, .T. ) ;
#68 = ADVANCED_FACE ( 'NONE', ( #124 ), #199, .F. ) ;
#69 = ORIENTED_EDGE ( 'NONE', *, *, #263, .F. ) ;
#70 = AXIS2_PLACEMENT_3D ( 'NONE', #33, #160, #153 ) ;
#71 = EDGE_LOOP ( 'NONE', ( #244 ) ) ;
#72 = VERTEX_POINT ( 'NONE', #191 ) ;
#73 = FACE_OUTER_BOUND ( 'NONE', #137, .T. ) ;
#74 = DIRECTION ( 'NONE',  ( 1.000000000000000000, 0.0000000000000000000, 0.0000000000000000000 ) ) ;
#75 = FACE_BOUND ( 'NONE', #142, .T. ) ;
#76 = ADVANCED_FACE ( 'NONE', ( #150, #56 ), #97, .T. ) ;
#77 = PERSON_AND_ORGANIZATION_ROLE ( 'creator' ) ;
#78 = DIRECTION ( 'NONE',  ( 0.0000000000000000000, 0.0000000000000000000, 1.000000000000000000 ) ) ;
#79 = CIRCLE ( 'NONE', #259, 1.529999999999994031 ) ;
#80 = CARTESIAN_POINT ( 'NONE',  ( 3.660809184874671704E-14, 1.499999999999991562, 10.48497422611928798 ) ) ;
#81 =( GEOMETRIC_REPRESENTATION_CONTEXT ( 3 ) GLOBAL_UNCERTAINTY_ASSIGNED_CONTEXT ( ( #217 ) ) GLOBAL_UNIT_ASSIGNED_CONTEXT ( ( #240, #251, #140 ) ) REPRESENTATION_CONTEXT ( 'NONE', 'WORKASPACE' ) );
#82 = CARTESIAN_POINT ( 'NONE',  ( 0.0000000000000000000, 0.0000000000000000000, 0.0000000000000000000 ) ) ;
#83 = EDGE_LOOP ( 'NONE', ( #95 ) ) ;
#84 = AXIS2_PLACEMENT_3D ( 'NONE', #27, #226, #303 ) ;
#85 = FACE_BOUND ( 'NONE', #139, .T. ) ;
#86 = PERSON_AND_ORGANIZATION ( #132, #111 ) ;
#87 = DIRECTION ( 'NONE',  ( -3.491481338843133355E-15, 1.224646799147353207E-16, -1.000000000000000000 ) ) ;
#88 = DIRECTION ( 'NONE',  ( -3.491481338843133355E-15, 1.224646799147353207E-16, -1.000000000000000000 ) ) ;
#89 = VERTEX_POINT ( 'NONE', #39 ) ;
#90 = AXIS2_PLACEMENT_3D ( 'NONE', #82, #258, #276 ) ;
#91 = CIRCLE ( 'NONE', #170, 1.200000000000001510 ) ;
#92 = CARTESIAN_POINT ( 'NONE',  ( 3.491481338843133355E-14, -1.224646799147353256E-15, 10.00000000000000000 ) ) ;
#93 = EDGE_LOOP ( 'NONE', ( #69 ) ) ;
#94 = ADVANCED_FACE ( 'NONE', ( #28, #262 ), #10, .T. ) ;
#95 = ORIENTED_EDGE ( 'NONE', *, *, #297, .T. ) ;
#96 = EDGE_CURVE ( 'NONE', #89, #89, #141, .T. ) ;
#97 = CYLINDRICAL_SURFACE ( 'NONE', #90, 1.779999999999994920 ) ;
#98 = APPROVAL ( #248, 'UNSPECIFIED' ) ;
#99 = ADVANCED_FACE ( 'NONE', ( #282, #121 ), #175, .T. ) ;
#100 = MECHANICAL_CONTEXT ( 'NONE', #243, 'mechanical' ) ;
#101 = ORIENTED_EDGE ( 'NONE', *, *, #130, .T. ) ;
#102 = EDGE_LOOP ( 'NONE', ( #138 ) ) ;
#103 = CARTESIAN_POINT ( 'NONE',  ( 0.0000000000000000000, 0.0000000000000000000, 0.0000000000000000000 ) ) ;
#104 = FACE_OUTER_BOUND ( 'NONE', #264, .T. ) ;
#105 = DATE_TIME_ROLE ( 'classification_date' ) ;
#106 = CARTESIAN_POINT ( 'NONE',  ( 3.660809184874671704E-14, 1.499999999999991562, 10.48497422611928798 ) ) ;
#107 = LOCAL_TIME ( 10, 35, 47.00000000000000000, #145 ) ;
#108 = DIRECTION ( 'NONE',  ( -3.491481338843133355E-15, 1.224646799147353207E-16, -1.000000000000000000 ) ) ;
#109 = DIRECTION ( 'NONE',  ( -4.275831445896958607E-31, -1.000000000000000000, -1.224646799147353207E-16 ) ) ;
#110 = CARTESIAN_POINT ( 'NONE',  ( 2.444036937190193601E-13, -8.572527594031472993E-15, 70.00000000000000000 ) ) ;
#111 = ORGANIZATION ( 'UNSPECIFIED', 'UNSPECIFIED', '' ) ;
#112 = CARTESIAN_POINT ( 'NONE',  ( 8.728703347107835360E-16, 1.779999999999994920, 0.2500000000000000555 ) ) ;
#113 = VERTEX_POINT ( 'NONE', #112 ) ;
#114 = PRODUCT_RELATED_PRODUCT_CATEGORY ( 'detail', '', ( #118 ) ) ;
#115 = CARTESIAN_POINT ( 'NONE',  ( 2.433562493173664138E-13, -8.535788190057053710E-15, 69.70000000000001705 ) ) ;
#116 = ADVANCED_FACE ( 'NONE', ( #120, #173 ), #294, .T. ) ;
#117 = CLOSED_SHELL ( 'NONE', ( #48, #76, #116, #26, #206, #189, #149 ) ) ;
#118 = PRODUCT ( '321582', '321582', '', ( #100 ) ) ;
#119 = CALENDAR_DATE ( 2021, 2, 12 ) ;
#120 = FACE_OUTER_BOUND ( 'NONE', #102, .T. ) ;
#121 = FACE_OUTER_BOUND ( 'NONE', #18, .T. ) ;
#122 = AXIS2_PLACEMENT_3D ( 'NONE', #267, #87, #13 ) ;
#123 = DIRECTION ( 'NONE',  ( 0.0000000000000000000, 1.000000000000000000, 0.0000000000000000000 ) ) ;
#124 = FACE_OUTER_BOUND ( 'NONE', #42, .T. ) ;
#125 = PLANE ( 'NONE',  #29 ) ;
#126 = CALENDAR_DATE ( 2021, 2, 12 ) ;
#127 = DIRECTION ( 'NONE',  ( -3.491481338843133355E-15, 1.224646799147353207E-16, -1.000000000000000000 ) ) ;
#128 = PRODUCT_DEFINITION_FORMATION_WITH_SPECIFIED_SOURCE ( 'ANY', '', #118, .NOT_KNOWN. ) ;
#129 = APPROVAL_DATE_TIME ( #66, #302 ) ;
#130 = EDGE_CURVE ( 'NONE', #271, #271, #79, .T. ) ;
#131 = DIRECTION ( 'NONE',  ( 4.275831445896958607E-31, 1.000000000000000000, 1.224646799147353454E-16 ) ) ;
#132 = PERSON ( 'UNSPECIFIED', 'UNSPECIFIED', 'UNSPECIFIED', ('UNSPECIFIED'), ('UNSPECIFIED'), ('UNSPECIFIED') ) ;
#133 = DIRECTION ( 'NONE',  ( 0.0000000000000000000, 1.000000000000000000, 0.0000000000000000000 ) ) ;
#134 = PERSON_AND_ORGANIZATION_ROLE ( 'creator' ) ;
#135 = CARTESIAN_POINT ( 'NONE',  ( 0.0000000000000000000, 1.529999999999994031, 0.0000000000000000000 ) ) ;
#136 = LOCAL_TIME ( 10, 35, 47.00000000000000000, #184 ) ;
#137 = EDGE_LOOP ( 'NONE', ( #234 ) ) ;
#138 = ORIENTED_EDGE ( 'NONE', *, *, #237, .T. ) ;
#139 = EDGE_LOOP ( 'NONE', ( #164 ) ) ;
#140 =( NAMED_UNIT ( * ) SI_UNIT ( $, .STERADIAN. ) SOLID_ANGLE_UNIT ( ) );
#141 = CIRCLE ( 'NONE', #64, 1.500000000000001110 ) ;
#142 = EDGE_LOOP ( 'NONE', ( #216 ) ) ;
#143 = CIRCLE ( 'NONE', #172, 1.779999999999994920 ) ;
#144 = CIRCLE ( 'NONE', #224, 1.200000000000001510 ) ;
#145 = COORDINATED_UNIVERSAL_TIME_OFFSET ( 1, 0, .AHEAD. ) ;
#146 = CLOSED_SHELL ( 'NONE', ( #301, #94, #99, #290, #68 ) ) ;
#147 = CARTESIAN_POINT ( 'NONE',  ( 2.433562493173664138E-13, -8.535788190057053710E-15, 69.70000000000001705 ) ) ;
#148 = ORIENTED_EDGE ( 'NONE', *, *, #209, .F. ) ;
#149 = ADVANCED_FACE ( 'NONE', ( #268, #67 ), #285, .T. ) ;
#150 = FACE_OUTER_BOUND ( 'NONE', #275, .T. ) ;
#151 = SECURITY_CLASSIFICATION ( '', '', #57 ) ;
#152 = CARTESIAN_POINT ( 'NONE',  ( -6.542022112222320797E-31, 2.294632467472633163E-32, -1.873709602695443053E-16 ) ) ;
#153 = DIRECTION ( 'NONE',  ( 0.0000000000000000000, 1.000000000000000000, 0.0000000000000000000 ) ) ;
#154 = COORDINATED_UNIVERSAL_TIME_OFFSET ( 1, 0, .AHEAD. ) ;
#155 = CARTESIAN_POINT ( 'NONE',  ( 3.491481338843133355E-14, 1.779999999999993587, 10.00000000000000000 ) ) ;
#156 = PERSON_AND_ORGANIZATION ( #132, #111 ) ;
#157 = FACE_OUTER_BOUND ( 'NONE', #165, .T. ) ;
#158 = LOCAL_TIME ( 10, 35, 47.00000000000000000, #60 ) ;
#159 = DIRECTION ( 'NONE',  ( 3.491481338843133355E-15, -1.224646799147353207E-16, 1.000000000000000000 ) ) ;
#160 = DIRECTION ( 'NONE',  ( -3.491481338843133355E-15, 1.224646799147353207E-16, -1.000000000000000000 ) ) ;
#161 = EDGE_LOOP ( 'NONE', ( #40 ) ) ;
#162 = CC_DESIGN_PERSON_AND_ORGANIZATION_ASSIGNMENT ( #192, #168, ( #118 ) ) ;
#163 = AXIS2_PLACEMENT_3D ( 'NONE', #232, #9, #131 ) ;
#164 = ORIENTED_EDGE ( 'NONE', *, *, #263, .T. ) ;
#165 = EDGE_LOOP ( 'NONE', ( #55 ) ) ;
#166 = DIRECTION ( 'NONE',  ( -3.491481338843133355E-15, 1.224646799147353207E-16, -1.000000000000000000 ) ) ;
#167 = CC_DESIGN_DATE_AND_TIME_ASSIGNMENT ( #14, #245, ( #19 ) ) ;
#168 = PERSON_AND_ORGANIZATION_ROLE ( 'design_owner' ) ;
#169 = EDGE_LOOP ( 'NONE', ( #222 ) ) ;
#170 = AXIS2_PLACEMENT_3D ( 'NONE', #110, #214, #231 ) ;
#171 = AXIS2_PLACEMENT_3D ( 'NONE', #115, #280, #123 ) ;
#172 = AXIS2_PLACEMENT_3D ( 'NONE', #208, #186, #289 ) ;
#173 = FACE_BOUND ( 'NONE', #4, .T. ) ;
#174 = PLANE ( 'NONE',  #221 ) ;
#175 = CYLINDRICAL_SURFACE ( 'NONE', #35, 1.499999999999996891 ) ;
#176 = CC_DESIGN_SECURITY_CLASSIFICATION ( #151, ( #128 ) ) ;
#177 = FACE_OUTER_BOUND ( 'NONE', #93, .T. ) ;
#178 = APPROVAL_ROLE ( '' ) ;
#179 = VERTEX_POINT ( 'NONE', #155 ) ;
#180 = CARTESIAN_POINT ( 'NONE',  ( 3.660809184874671704E-14, -1.284039012515948239E-15, 10.48497422611928798 ) ) ;
#181 = APPROVAL_DATE_TIME ( #291, #98 ) ;
#182 = DIRECTION ( 'NONE',  ( 3.491481338843133355E-15, -1.224646799147353207E-16, 1.000000000000000000 ) ) ;
#183 = AXIS2_PLACEMENT_3D ( 'NONE', #296, #127, #204 ) ;
#184 = COORDINATED_UNIVERSAL_TIME_OFFSET ( 1, 0, .AHEAD. ) ;
#185 = EDGE_CURVE ( 'NONE', #65, #65, #281, .T. ) ;
#186 = DIRECTION ( 'NONE',  ( -3.491481338843133355E-15, 1.224646799147353207E-16, -1.000000000000000000 ) ) ;
#187 = ORIENTED_EDGE ( 'NONE', *, *, #213, .T. ) ;
#188 = SHAPE_DEFINITION_REPRESENTATION ( #22, #254 ) ;
#189 = ADVANCED_FACE ( 'NONE', ( #58, #85 ), #50, .T. ) ;
#190 = CARTESIAN_POINT ( 'NONE',  ( -3.271011056111160398E-31, 1.147316233736316581E-32, -9.368548013477215267E-17 ) ) ;
#191 = CARTESIAN_POINT ( 'NONE',  ( 2.444036937190193601E-13, 1.199999999999992628, 70.00000000000000000 ) ) ;
#192 = PERSON_AND_ORGANIZATION ( #132, #111 ) ;
#193 = DIRECTION ( 'NONE',  ( 0.0000000000000000000, 1.000000000000000000, 0.0000000000000000000 ) ) ;
#194 = APPROVAL_STATUS ( 'not_yet_approved' ) ;
#195 = CIRCLE ( 'NONE', #171, 1.500000000000001110 ) ;
#196 = APPROVAL_PERSON_ORGANIZATION ( #52, #270, #257 ) ;
#197 = ORIENTED_EDGE ( 'NONE', *, *, #266, .T. ) ;
#198 = CONICAL_SURFACE ( 'NONE', #205, 1.779999999999994920, 0.5235987755983005920 ) ;
#199 = PLANE ( 'NONE',  #84 ) ;
#200 = APPLICATION_CONTEXT ( 'configuration controlled 3d designs of mechanical parts and assemblies' ) ;
#201 = DIRECTION ( 'NONE',  ( -3.491481338843133355E-15, 1.224646799147353207E-16, -1.000000000000000000 ) ) ;
#202 = CC_DESIGN_PERSON_AND_ORGANIZATION_ASSIGNMENT ( #156, #134, ( #128 ) ) ;
#203 = MANIFOLD_SOLID_BREP ( 'Corps-Déplacer/Copier1[2]', #117 ) ;
#204 = DIRECTION ( 'NONE',  ( 4.275831445896958607E-31, 1.000000000000000000, 1.224646799147353207E-16 ) ) ;
#205 = AXIS2_PLACEMENT_3D ( 'NONE', #20, #53, #219 ) ;
#206 = ADVANCED_FACE ( 'NONE', ( #177 ), #246, .F. ) ;
#207 = AXIS2_PLACEMENT_3D ( 'NONE', #32, #108, #133 ) ;
#208 = CARTESIAN_POINT ( 'NONE',  ( 8.728703347107827472E-16, -3.061616997868381169E-17, 0.2499999999999998335 ) ) ;
#209 = EDGE_CURVE ( 'NONE', #228, #228, #274, .T. ) ;
#210 = DIRECTION ( 'NONE',  ( 0.0000000000000000000, 1.000000000000000000, 0.0000000000000000000 ) ) ;
#211 = FACE_BOUND ( 'NONE', #241, .T. ) ;
#212 = PERSON_AND_ORGANIZATION ( #132, #111 ) ;
#213 = EDGE_CURVE ( 'NONE', #179, #179, #238, .T. ) ;
#214 = DIRECTION ( 'NONE',  ( -3.491481338843133355E-15, 1.224646799147353207E-16, -1.000000000000000000 ) ) ;
#215 = CARTESIAN_POINT ( 'NONE',  ( 2.444036937190193601E-13, 1.199999999999992628, 70.00000000000000000 ) ) ;
#216 = ORIENTED_EDGE ( 'NONE', *, *, #209, .T. ) ;
#217 = UNCERTAINTY_MEASURE_WITH_UNIT (LENGTH_MEASURE( 1.000000000000000082E-05 ), #240, 'distance_accuracy_value', 'NONE');
#218 = AXIS2_PLACEMENT_3D ( 'NONE', #152, #159, #250 ) ;
#219 = DIRECTION ( 'NONE',  ( 0.0000000000000000000, 1.000000000000000000, 0.0000000000000000000 ) ) ;
#220 = CARTESIAN_POINT ( 'NONE',  ( 0.0000000000000000000, 0.0000000000000000000, 0.0000000000000000000 ) ) ;
#221 = AXIS2_PLACEMENT_3D ( 'NONE', #190, #44, #235 ) ;
#222 = ORIENTED_EDGE ( 'NONE', *, *, #237, .F. ) ;
#223 = CC_DESIGN_PERSON_AND_ORGANIZATION_ASSIGNMENT ( #279, #77, ( #19 ) ) ;
#224 = AXIS2_PLACEMENT_3D ( 'NONE', #288, #88, #37 ) ;
#225 = CARTESIAN_POINT ( 'NONE',  ( 3.491481338843133355E-14, -1.224646799147353256E-15, 10.00000000000000000 ) ) ;
#226 = DIRECTION ( 'NONE',  ( -3.491481338843133355E-15, 1.224646799147353207E-16, -1.000000000000000000 ) ) ;
#227 = PERSON_AND_ORGANIZATION_ROLE ( 'classification_officer' ) ;
#228 = VERTEX_POINT ( 'NONE', #106 ) ;
#229 = DIRECTION ( 'NONE',  ( -3.491481338843133355E-15, 1.224646799147353207E-16, -1.000000000000000000 ) ) ;
#230 = PERSON_AND_ORGANIZATION ( #132, #111 ) ;
#231 = DIRECTION ( 'NONE',  ( 0.0000000000000000000, 1.000000000000000000, 0.0000000000000000000 ) ) ;
#232 = CARTESIAN_POINT ( 'NONE',  ( 0.0000000000000000000, 0.0000000000000000000, 0.0000000000000000000 ) ) ;
#233 = APPROVAL_STATUS ( 'not_yet_approved' ) ;
#234 = ORIENTED_EDGE ( 'NONE', *, *, #213, .F. ) ;
#235 = DIRECTION ( 'NONE',  ( 4.275831445896958607E-31, 1.000000000000000000, 1.224646799147353207E-16 ) ) ;
#236 = VERTEX_POINT ( 'NONE', #215 ) ;
#237 = EDGE_CURVE ( 'NONE', #113, #113, #143, .T. ) ;
#238 = CIRCLE ( 'NONE', #3, 1.779999999999994920 ) ;
#239 = DIRECTION ( 'NONE',  ( -3.491481338843133355E-15, 1.224646799147353207E-16, -1.000000000000000000 ) ) ;
#240 =( LENGTH_UNIT ( ) NAMED_UNIT ( * ) SI_UNIT ( .MILLI., .METRE. ) );
#241 = EDGE_LOOP ( 'NONE', ( #197 ) ) ;
#242 = ORIENTED_EDGE ( 'NONE', *, *, #185, .T. ) ;
#243 = APPLICATION_CONTEXT ( 'configuration controlled 3d designs of mechanical parts and assemblies' ) ;
#244 = ORIENTED_EDGE ( 'NONE', *, *, #185, .F. ) ;
#245 = DATE_TIME_ROLE ( 'creation_date' ) ;
#246 = PLANE ( 'NONE',  #183 ) ;
#247 = CARTESIAN_POINT ( 'NONE',  ( -6.542022112222320797E-31, 2.294632467472633163E-32, -1.873709602695443053E-16 ) ) ;
#248 = APPROVAL_STATUS ( 'not_yet_approved' ) ;
#249 = DIRECTION ( 'NONE',  ( -3.491481338843133355E-15, 1.224646799147353207E-16, -1.000000000000000000 ) ) ;
#250 = DIRECTION ( 'NONE',  ( -4.275831445896958607E-31, -1.000000000000000000, -1.224646799147353207E-16 ) ) ;
#251 =( NAMED_UNIT ( * ) PLANE_ANGLE_UNIT ( ) SI_UNIT ( $, .RADIAN. ) );
#252 = VERTEX_POINT ( 'NONE', #292 ) ;
#253 = ORIENTED_EDGE ( 'NONE', *, *, #96, .F. ) ;
#254 = ADVANCED_BREP_SHAPE_REPRESENTATION ( '321582', ( #1, #203, #278 ), #81 ) ;
#255 = EDGE_LOOP ( 'NONE', ( #253 ) ) ;
#256 = AXIS2_PLACEMENT_3D ( 'NONE', #12, #61, #210 ) ;
#257 = APPROVAL_ROLE ( '' ) ;
#258 = DIRECTION ( 'NONE',  ( -3.491481338843133355E-15, 1.224646799147353207E-16, -1.000000000000000000 ) ) ;
#259 = AXIS2_PLACEMENT_3D ( 'NONE', #247, #229, #38 ) ;
#260 = APPROVAL_PERSON_ORGANIZATION ( #86, #98, #178 ) ;
#261 = EDGE_LOOP ( 'NONE', ( #148 ) ) ;
#262 = FACE_OUTER_BOUND ( 'NONE', #71, .T. ) ;
#263 = EDGE_CURVE ( 'NONE', #72, #72, #144, .T. ) ;
#264 = EDGE_LOOP ( 'NONE', ( #242 ) ) ;
#265 = CC_DESIGN_APPROVAL ( #302, ( #128 ) ) ;
#266 = EDGE_CURVE ( 'NONE', #236, #236, #91, .T. ) ;
#267 = CARTESIAN_POINT ( 'NONE',  ( 2.444036937190193601E-13, -8.572527594031472993E-15, 70.00000000000000000 ) ) ;
#268 = FACE_OUTER_BOUND ( 'NONE', #261, .T. ) ;
#269 = DIRECTION ( 'NONE',  ( 0.0000000000000000000, 1.000000000000000000, 0.0000000000000000000 ) ) ;
#270 = APPROVAL ( #194, 'UNSPECIFIED' ) ;
#271 = VERTEX_POINT ( 'NONE', #135 ) ;
#272 = CALENDAR_DATE ( 2021, 2, 12 ) ;
#273 = CARTESIAN_POINT ( 'NONE',  ( 3.491481338843133355E-14, 1.334786206569047688E-32, 10.00000000000000000 ) ) ;
#274 = CIRCLE ( 'NONE', #256, 1.499999999999992895 ) ;
#275 = EDGE_LOOP ( 'NONE', ( #187 ) ) ;
#276 = DIRECTION ( 'NONE',  ( 4.275831445896958607E-31, 1.000000000000000000, 1.224646799147353207E-16 ) ) ;
#277 = FACE_OUTER_BOUND ( 'NONE', #25, .T. ) ;
#278 = AXIS2_PLACEMENT_3D ( 'NONE', #220, #78, #74 ) ;
#279 = PERSON_AND_ORGANIZATION ( #132, #111 ) ;
#280 = DIRECTION ( 'NONE',  ( -3.491481338843133355E-15, 1.224646799147353207E-16, -1.000000000000000000 ) ) ;
#281 = CIRCLE ( 'NONE', #207, 1.779999999999994920 ) ;
#282 = FACE_OUTER_BOUND ( 'NONE', #161, .T. ) ;
#283 = DIRECTION ( 'NONE',  ( 4.275831445896958607E-31, 1.000000000000000000, 1.224646799147353454E-16 ) ) ;
#284 = PERSON_AND_ORGANIZATION_ROLE ( 'design_supplier' ) ;
#285 = CYLINDRICAL_SURFACE ( 'NONE', #163, 1.499999999999996891 ) ;
#286 = APPROVAL_ROLE ( '' ) ;
#287 = CC_DESIGN_APPROVAL ( #270, ( #19 ) ) ;
#288 = CARTESIAN_POINT ( 'NONE',  ( 2.444036937190193601E-13, -8.572527594031472993E-15, 70.00000000000000000 ) ) ;
#289 = DIRECTION ( 'NONE',  ( 4.327932459297171570E-31, 1.000000000000000000, 1.218204688185963514E-16 ) ) ;
#290 = ADVANCED_FACE ( 'NONE', ( #157, #211 ), #46, .T. ) ;
#291 = DATE_AND_TIME ( #34, #36 ) ;
#292 = CARTESIAN_POINT ( 'NONE',  ( 2.433562493173664138E-13, 1.499999999999992673, 69.70000000000001705 ) ) ;
#293 = CC_DESIGN_PERSON_AND_ORGANIZATION_ASSIGNMENT ( #31, #227, ( #151 ) ) ;
#294 = CONICAL_SURFACE ( 'NONE', #218, 1.529999999999994031, 0.7853981633974500554 ) ;
#295 = CIRCLE ( 'NONE', #11, 1.499999999999992895 ) ;
#296 = CARTESIAN_POINT ( 'NONE',  ( 2.444036937190193601E-13, -8.572527594031472993E-15, 70.00000000000000000 ) ) ;
#297 = EDGE_CURVE ( 'NONE', #298, #298, #295, .T. ) ;
#298 = VERTEX_POINT ( 'NONE', #80 ) ;
#299 = EDGE_LOOP ( 'NONE', ( #5 ) ) ;
#300 = APPROVAL_PERSON_ORGANIZATION ( #212, #302, #286 ) ;
#301 = ADVANCED_FACE ( 'NONE', ( #104 ), #125, .F. ) ;
#302 = APPROVAL ( #233, 'UNSPECIFIED' ) ;
#303 = DIRECTION ( 'NONE',  ( 4.275831445896958607E-31, 1.000000000000000000, 1.224646799147353207E-16 ) ) ;
ENDSEC;
END-ISO-10303-21;
