ISO-10303-21;
HEADER;
FILE_DESCRIPTION (( 'STEP AP203' ),
    '1' );
FILE_NAME ('321581.step',
    '2021-12-02T09:35:47',
    ( '' ),
    ( '' ),
    'SwSTEP 2.0',
    'SolidWorks 2019',
    '' );
FILE_SCHEMA (( 'CONFIG_CONTROL_DESIGN' ));
ENDSEC;

DATA;
#1 = DIRECTION ( 'NONE',  ( -3.491481338843133355E-15, 1.224646799147353207E-16, -1.000000000000000000 ) ) ;
#2 = DIRECTION ( 'NONE',  ( 4.275831445896958607E-31, 1.000000000000000000, 1.224646799147353207E-16 ) ) ;
#3 = EDGE_LOOP ( 'NONE', ( #223 ) ) ;
#4 = DIRECTION ( 'NONE',  ( -3.491481338843133355E-15, 1.224646799147353207E-16, -1.000000000000000000 ) ) ;
#5 = EDGE_CURVE ( 'NONE', #19, #19, #118, .T. ) ;
#6 = AXIS2_PLACEMENT_3D ( 'NONE', #33, #129, #110 ) ;
#7 = ORIENTED_EDGE ( 'NONE', *, *, #5, .F. ) ;
#8 = FACE_OUTER_BOUND ( 'NONE', #198, .T. ) ;
#9 = PERSON_AND_ORGANIZATION ( #93, #174 ) ;
#10 = DIRECTION ( 'NONE',  ( -3.491481338843133355E-15, 1.224646799147353207E-16, -1.000000000000000000 ) ) ;
#11 = ADVANCED_FACE ( 'NONE', ( #193, #220 ), #292, .T. ) ;
#12 = PERSON_AND_ORGANIZATION_ROLE ( 'classification_officer' ) ;
#13 = EDGE_LOOP ( 'NONE', ( #243 ) ) ;
#14 = APPLICATION_CONTEXT ( 'configuration controlled 3d designs of mechanical parts and assemblies' ) ;
#15 = DIRECTION ( 'NONE',  ( 0.0000000000000000000, 1.000000000000000000, 0.0000000000000000000 ) ) ;
#16 = DIRECTION ( 'NONE',  ( 0.0000000000000000000, 1.000000000000000000, 0.0000000000000000000 ) ) ;
#17 = DIRECTION ( 'NONE',  ( 0.0000000000000000000, 0.0000000000000000000, 1.000000000000000000 ) ) ;
#18 = EDGE_CURVE ( 'NONE', #141, #141, #126, .T. ) ;
#19 = VERTEX_POINT ( 'NONE', #96 ) ;
#20 = AXIS2_PLACEMENT_3D ( 'NONE', #111, #242, #83 ) ;
#21 = CARTESIAN_POINT ( 'NONE',  ( -6.520642954992836958E-31, 2.287133668559324368E-32, -1.867586368699706424E-16 ) ) ;
#22 = AXIS2_PLACEMENT_3D ( 'NONE', #92, #97, #205 ) ;
#23 = EDGE_CURVE ( 'NONE', #280, #280, #216, .T. ) ;
#24 = APPROVAL_PERSON_ORGANIZATION ( #270, #234, #267 ) ;
#25 = AXIS2_PLACEMENT_3D ( 'NONE', #66, #285, #240 ) ;
#26 = FACE_OUTER_BOUND ( 'NONE', #200, .T. ) ;
#27 = FACE_OUTER_BOUND ( 'NONE', #3, .T. ) ;
#28 = ORIENTED_EDGE ( 'NONE', *, *, #241, .T. ) ;
#29 = COORDINATED_UNIVERSAL_TIME_OFFSET ( 1, 0, .AHEAD. ) ;
#30 = FACE_BOUND ( 'NONE', #173, .T. ) ;
#31 = DIRECTION ( 'NONE',  ( -3.491481338843133355E-15, 1.224646799147353207E-16, -1.000000000000000000 ) ) ;
#32 = CALENDAR_DATE ( 2021, 2, 12 ) ;
#33 = CARTESIAN_POINT ( 'NONE',  ( -6.520642954992836958E-31, 2.287133668559324368E-32, -1.867586368699706424E-16 ) ) ;
#34 = PERSON_AND_ORGANIZATION_ROLE ( 'creator' ) ;
#35 = ORIENTED_EDGE ( 'NONE', *, *, #99, .T. ) ;
#36 = EDGE_CURVE ( 'NONE', #79, #79, #279, .T. ) ;
#37 = SHAPE_DEFINITION_REPRESENTATION ( #74, #71 ) ;
#38 = CARTESIAN_POINT ( 'NONE',  ( 3.491481338843133355E-14, -1.224646799147353256E-15, 10.00000000000000000 ) ) ;
#39 = UNCERTAINTY_MEASURE_WITH_UNIT (LENGTH_MEASURE( 1.000000000000000082E-05 ), #166, 'distance_accuracy_value', 'NONE');
#40 = DIRECTION ( 'NONE',  ( -3.491481338843133355E-15, 1.224646799147353207E-16, -1.000000000000000000 ) ) ;
#41 = APPLICATION_PROTOCOL_DEFINITION ( 'international standard', 'config_control_design', 1994, #14 ) ;
#42 = ADVANCED_FACE ( 'NONE', ( #27, #226 ), #299, .T. ) ;
#43 = CALENDAR_DATE ( 2021, 2, 12 ) ;
#44 = APPROVAL_PERSON_ORGANIZATION ( #78, #163, #254 ) ;
#45 = CIRCLE ( 'NONE', #119, 1.774999999999995026 ) ;
#46 =( NAMED_UNIT ( * ) SI_UNIT ( $, .STERADIAN. ) SOLID_ANGLE_UNIT ( ) );
#47 = PRODUCT_DEFINITION ( 'UNKNOWN', '', #165, #298 ) ;
#48 = PLANE ( 'NONE',  #189 ) ;
#49 = ADVANCED_FACE ( 'NONE', ( #30, #86 ), #77, .T. ) ;
#50 = CC_DESIGN_SECURITY_CLASSIFICATION ( #73, ( #165 ) ) ;
#51 = VERTEX_POINT ( 'NONE', #231 ) ;
#52 = CLOSED_SHELL ( 'NONE', ( #49, #121, #203, #281, #132, #199, #42 ) ) ;
#53 = AXIS2_PLACEMENT_3D ( 'NONE', #268, #150, #212 ) ;
#54 = PERSON_AND_ORGANIZATION ( #93, #174 ) ;
#55 = CARTESIAN_POINT ( 'NONE',  ( 2.444036937190193601E-13, -8.572527594031472993E-15, 70.00000000000000000 ) ) ;
#56 = DIRECTION ( 'NONE',  ( -3.491481338843133355E-15, 1.224646799147353207E-16, -1.000000000000000000 ) ) ;
#57 = EDGE_LOOP ( 'NONE', ( #108 ) ) ;
#58 = ADVANCED_FACE ( 'NONE', ( #26, #284 ), #293, .T. ) ;
#59 = DIRECTION ( 'NONE',  ( -3.491481338843133355E-15, 1.224646799147353207E-16, -1.000000000000000000 ) ) ;
#60 = CIRCLE ( 'NONE', #75, 1.200000000000001510 ) ;
#61 = ORIENTED_EDGE ( 'NONE', *, *, #5, .T. ) ;
#62 = APPROVAL_DATE_TIME ( #219, #234 ) ;
#63 = ORIENTED_EDGE ( 'NONE', *, *, #68, .T. ) ;
#64 = EDGE_LOOP ( 'NONE', ( #85 ) ) ;
#65 = COORDINATED_UNIVERSAL_TIME_OFFSET ( 1, 0, .AHEAD. ) ;
#66 = CARTESIAN_POINT ( 'NONE',  ( 3.491481338843133355E-14, -1.224646799147353256E-15, 10.00000000000000000 ) ) ;
#67 = CARTESIAN_POINT ( 'NONE',  ( 0.0000000000000000000, 0.0000000000000000000, 0.0000000000000000000 ) ) ;
#68 = EDGE_CURVE ( 'NONE', #255, #255, #300, .T. ) ;
#69 = DIRECTION ( 'NONE',  ( 1.000000000000000000, 0.0000000000000000000, 0.0000000000000000000 ) ) ;
#70 = SECURITY_CLASSIFICATION_LEVEL ( 'unclassified' ) ;
#71 = ADVANCED_BREP_SHAPE_REPRESENTATION ( '321581', ( #143, #236, #303 ), #266 ) ;
#72 = DIRECTION ( 'NONE',  ( 3.491481338843133355E-15, -1.224646799147353207E-16, 1.000000000000000000 ) ) ;
#73 = SECURITY_CLASSIFICATION ( '', '', #70 ) ;
#74 = PRODUCT_DEFINITION_SHAPE ( 'NONE', 'NONE',  #47 ) ;
#75 = AXIS2_PLACEMENT_3D ( 'NONE', #207, #76, #137 ) ;
#76 = DIRECTION ( 'NONE',  ( -3.491481338843133355E-15, 1.224646799147353207E-16, -1.000000000000000000 ) ) ;
#77 = CONICAL_SURFACE ( 'NONE', #53, 1.774999999999995026, 0.5235987755983000369 ) ;
#78 = PERSON_AND_ORGANIZATION ( #93, #174 ) ;
#79 = VERTEX_POINT ( 'NONE', #115 ) ;
#80 = AXIS2_PLACEMENT_3D ( 'NONE', #104, #4, #84 ) ;
#81 = DIRECTION ( 'NONE',  ( 4.275831445896958607E-31, 1.000000000000000000, 1.224646799147353454E-16 ) ) ;
#82 = AXIS2_PLACEMENT_3D ( 'NONE', #211, #31, #2 ) ;
#83 = DIRECTION ( 'NONE',  ( -4.275831445896958607E-31, -1.000000000000000000, -1.224646799147353207E-16 ) ) ;
#84 = DIRECTION ( 'NONE',  ( 4.275831445896958607E-31, 1.000000000000000000, 1.224646799147353454E-16 ) ) ;
#85 = ORIENTED_EDGE ( 'NONE', *, *, #101, .F. ) ;
#86 = FACE_OUTER_BOUND ( 'NONE', #247, .T. ) ;
#87 = CC_DESIGN_APPROVAL ( #163, ( #47 ) ) ;
#88 = APPROVAL_STATUS ( 'not_yet_approved' ) ;
#89 = ORIENTED_EDGE ( 'NONE', *, *, #147, .T. ) ;
#90 = DIRECTION ( 'NONE',  ( 0.0000000000000000000, 1.000000000000000000, 0.0000000000000000000 ) ) ;
#91 = MECHANICAL_CONTEXT ( 'NONE', #14, 'mechanical' ) ;
#92 = CARTESIAN_POINT ( 'NONE',  ( 2.433562493173664138E-13, -8.535788190057053710E-15, 69.70000000000001705 ) ) ;
#93 = PERSON ( 'UNSPECIFIED', 'UNSPECIFIED', 'UNSPECIFIED', ('UNSPECIFIED'), ('UNSPECIFIED'), ('UNSPECIFIED') ) ;
#94 = PERSON_AND_ORGANIZATION ( #93, #174 ) ;
#95 = AXIS2_PLACEMENT_3D ( 'NONE', #160, #214, #16 ) ;
#96 = CARTESIAN_POINT ( 'NONE',  ( 0.0000000000000000000, 1.524999999999994138, 0.0000000000000000000 ) ) ;
#97 = DIRECTION ( 'NONE',  ( -3.491481338843133355E-15, 1.224646799147353207E-16, -1.000000000000000000 ) ) ;
#98 = CALENDAR_DATE ( 2021, 2, 12 ) ;
#99 = EDGE_CURVE ( 'NONE', #51, #51, #45, .T. ) ;
#100 = DIRECTION ( 'NONE',  ( -3.491481338843133355E-15, 1.224646799147353207E-16, -1.000000000000000000 ) ) ;
#101 = EDGE_CURVE ( 'NONE', #142, #142, #224, .T. ) ;
#102 = PLANE ( 'NONE',  #245 ) ;
#103 = EDGE_LOOP ( 'NONE', ( #61 ) ) ;
#104 = CARTESIAN_POINT ( 'NONE',  ( 0.0000000000000000000, 0.0000000000000000000, 0.0000000000000000000 ) ) ;
#105 = ORIENTED_EDGE ( 'NONE', *, *, #99, .F. ) ;
#106 = FACE_BOUND ( 'NONE', #269, .T. ) ;
#107 = ORIENTED_EDGE ( 'NONE', *, *, #23, .F. ) ;
#108 = ORIENTED_EDGE ( 'NONE', *, *, #227, .T. ) ;
#109 = DATE_AND_TIME ( #43, #228 ) ;
#110 = DIRECTION ( 'NONE',  ( 4.275831445896958607E-31, 1.000000000000000000, 1.224646799147353207E-16 ) ) ;
#111 = CARTESIAN_POINT ( 'NONE',  ( 3.491481338843133355E-14, 1.331036807112393016E-32, 10.00000000000000000 ) ) ;
#112 = CARTESIAN_POINT ( 'NONE',  ( 3.657785473338394831E-14, 1.499999999999991562, 10.47631397208144399 ) ) ;
#113 = DIRECTION ( 'NONE',  ( 4.275831445896958607E-31, 1.000000000000000000, 1.224646799147353207E-16 ) ) ;
#114 = APPLICATION_PROTOCOL_DEFINITION ( 'international standard', 'config_control_design', 1994, #251 ) ;
#115 = CARTESIAN_POINT ( 'NONE',  ( 3.491481338843133355E-14, 1.774999999999993916, 10.00000000000000000 ) ) ;
#116 = AXIS2_PLACEMENT_3D ( 'NONE', #67, #176, #81 ) ;
#117 = ADVANCED_FACE ( 'NONE', ( #133 ), #122, .F. ) ;
#118 = CIRCLE ( 'NONE', #6, 1.524999999999994138 ) ;
#119 = AXIS2_PLACEMENT_3D ( 'NONE', #250, #1, #196 ) ;
#120 = DIRECTION ( 'NONE',  ( 4.275831445896958607E-31, 1.000000000000000000, 1.224646799147353207E-16 ) ) ;
#121 = ADVANCED_FACE ( 'NONE', ( #182, #275 ), #237, .T. ) ;
#122 = PLANE ( 'NONE',  #20 ) ;
#123 = CARTESIAN_POINT ( 'NONE',  ( 2.433562493173664138E-13, -8.535788190057053710E-15, 69.70000000000001705 ) ) ;
#124 = DIRECTION ( 'NONE',  ( 4.340123818337444861E-31, 1.000000000000000000, 1.221636250687895684E-16 ) ) ;
#125 = ORIENTED_EDGE ( 'NONE', *, *, #227, .F. ) ;
#126 = CIRCLE ( 'NONE', #138, 1.500000000000001110 ) ;
#127 = DIRECTION ( 'NONE',  ( -3.491481338843133355E-15, 1.224646799147353207E-16, -1.000000000000000000 ) ) ;
#128 = EDGE_LOOP ( 'NONE', ( #125 ) ) ;
#129 = DIRECTION ( 'NONE',  ( -3.491481338843133355E-15, 1.224646799147353207E-16, -1.000000000000000000 ) ) ;
#130 = ORIENTED_EDGE ( 'NONE', *, *, #18, .F. ) ;
#131 = CARTESIAN_POINT ( 'NONE',  ( 2.444036937190193601E-13, -8.572527594031472993E-15, 70.00000000000000000 ) ) ;
#132 = ADVANCED_FACE ( 'NONE', ( #171 ), #102, .F. ) ;
#133 = FACE_OUTER_BOUND ( 'NONE', #218, .T. ) ;
#134 = CALENDAR_DATE ( 2021, 2, 12 ) ;
#135 = DIRECTION ( 'NONE',  ( -4.275831445896958607E-31, -1.000000000000000000, -1.224646799147353207E-16 ) ) ;
#136 = CC_DESIGN_APPROVAL ( #294, ( #73 ) ) ;
#137 = DIRECTION ( 'NONE',  ( 0.0000000000000000000, 1.000000000000000000, 0.0000000000000000000 ) ) ;
#138 = AXIS2_PLACEMENT_3D ( 'NONE', #123, #10, #213 ) ;
#139 = AXIS2_PLACEMENT_3D ( 'NONE', #192, #56, #90 ) ;
#140 = VERTEX_POINT ( 'NONE', #232 ) ;
#141 = VERTEX_POINT ( 'NONE', #186 ) ;
#142 = VERTEX_POINT ( 'NONE', #208 ) ;
#143 = MANIFOLD_SOLID_BREP ( 'Corps-Déplacer/Copier1[1]', #144 ) ;
#144 = CLOSED_SHELL ( 'NONE', ( #117, #11, #159, #58, #151 ) ) ;
#145 = AXIS2_PLACEMENT_3D ( 'NONE', #261, #100, #124 ) ;
#146 = CARTESIAN_POINT ( 'NONE',  ( 3.657785473338394831E-14, -1.282978437277223589E-15, 10.47631397208144399 ) ) ;
#147 = EDGE_CURVE ( 'NONE', #230, #230, #177, .T. ) ;
#148 = PERSON_AND_ORGANIZATION_ROLE ( 'creator' ) ;
#149 = DIRECTION ( 'NONE',  ( 4.275831445896958607E-31, 1.000000000000000000, 1.224646799147353207E-16 ) ) ;
#150 = DIRECTION ( 'NONE',  ( -3.491481338843133355E-15, 1.224646799147353207E-16, -1.000000000000000000 ) ) ;
#151 = ADVANCED_FACE ( 'NONE', ( #188 ), #282, .F. ) ;
#152 = CYLINDRICAL_SURFACE ( 'NONE', #80, 1.499999999999996891 ) ;
#153 = ORIENTED_EDGE ( 'NONE', *, *, #36, .T. ) ;
#154 = EDGE_LOOP ( 'NONE', ( #105 ) ) ;
#155 = CC_DESIGN_PERSON_AND_ORGANIZATION_ASSIGNMENT ( #54, #148, ( #47 ) ) ;
#156 = CC_DESIGN_APPROVAL ( #234, ( #165 ) ) ;
#157 = DATE_AND_TIME ( #272, #235 ) ;
#158 = DIRECTION ( 'NONE',  ( -3.491481338843133355E-15, 1.224646799147353207E-16, -1.000000000000000000 ) ) ;
#159 = ADVANCED_FACE ( 'NONE', ( #239, #194 ), #152, .T. ) ;
#160 = CARTESIAN_POINT ( 'NONE',  ( 2.444036937190193601E-13, -8.572527594031472993E-15, 70.00000000000000000 ) ) ;
#161 = AXIS2_PLACEMENT_3D ( 'NONE', #170, #259, #149 ) ;
#162 = CARTESIAN_POINT ( 'NONE',  ( -3.260321477496418479E-31, 1.143566834279662184E-32, -9.337931843498532120E-17 ) ) ;
#163 = APPROVAL ( #167, 'UNSPECIFIED' ) ;
#164 = PRODUCT ( '321581', '321581', '', ( #91 ) ) ;
#165 = PRODUCT_DEFINITION_FORMATION_WITH_SPECIFIED_SOURCE ( 'ANY', '', #164, .NOT_KNOWN. ) ;
#166 =( LENGTH_UNIT ( ) NAMED_UNIT ( * ) SI_UNIT ( .MILLI., .METRE. ) );
#167 = APPROVAL_STATUS ( 'not_yet_approved' ) ;
#168 = FACE_OUTER_BOUND ( 'NONE', #103, .T. ) ;
#169 = DATE_AND_TIME ( #98, #209 ) ;
#170 = CARTESIAN_POINT ( 'NONE',  ( 2.444036937190193601E-13, 8.998558695971026591E-33, 70.00000000000000000 ) ) ;
#171 = FACE_OUTER_BOUND ( 'NONE', #195, .T. ) ;
#172 = FACE_OUTER_BOUND ( 'NONE', #180, .T. ) ;
#173 = EDGE_LOOP ( 'NONE', ( #63 ) ) ;
#174 = ORGANIZATION ( 'UNSPECIFIED', 'UNSPECIFIED', '' ) ;
#175 = COORDINATED_UNIVERSAL_TIME_OFFSET ( 1, 0, .AHEAD. ) ;
#176 = DIRECTION ( 'NONE',  ( -3.491481338843133355E-15, 1.224646799147353207E-16, -1.000000000000000000 ) ) ;
#177 = CIRCLE ( 'NONE', #145, 1.774999999999995026 ) ;
#178 = ORIENTED_EDGE ( 'NONE', *, *, #147, .F. ) ;
#179 = APPROVAL_ROLE ( '' ) ;
#180 = EDGE_LOOP ( 'NONE', ( #296 ) ) ;
#181 = PERSON_AND_ORGANIZATION ( #93, #174 ) ;
#182 = FACE_OUTER_BOUND ( 'NONE', #215, .T. ) ;
#183 = CC_DESIGN_DATE_AND_TIME_ASSIGNMENT ( #109, #295, ( #73 ) ) ;
#184 = CARTESIAN_POINT ( 'NONE',  ( 2.433562493173664138E-13, 1.499999999999992673, 69.70000000000001705 ) ) ;
#185 = PERSON_AND_ORGANIZATION_ROLE ( 'design_owner' ) ;
#186 = CARTESIAN_POINT ( 'NONE',  ( 2.433562493173664138E-13, 1.499999999999992673, 69.70000000000001705 ) ) ;
#187 = CARTESIAN_POINT ( 'NONE',  ( 0.0000000000000000000, 0.0000000000000000000, 0.0000000000000000000 ) ) ;
#188 = FACE_OUTER_BOUND ( 'NONE', #128, .T. ) ;
#189 = AXIS2_PLACEMENT_3D ( 'NONE', #162, #302, #113 ) ;
#190 = AXIS2_PLACEMENT_3D ( 'NONE', #21, #72, #135 ) ;
#191 = LOCAL_TIME ( 10, 35, 47.00000000000000000, #274 ) ;
#192 = CARTESIAN_POINT ( 'NONE',  ( 3.657785473338394831E-14, -1.282978437277223589E-15, 10.47631397208144399 ) ) ;
#193 = FACE_BOUND ( 'NONE', #265, .T. ) ;
#194 = FACE_OUTER_BOUND ( 'NONE', #273, .T. ) ;
#195 = EDGE_LOOP ( 'NONE', ( #107 ) ) ;
#196 = DIRECTION ( 'NONE',  ( 0.0000000000000000000, 1.000000000000000000, 0.0000000000000000000 ) ) ;
#197 = EDGE_LOOP ( 'NONE', ( #178 ) ) ;
#198 = EDGE_LOOP ( 'NONE', ( #89 ) ) ;
#199 = ADVANCED_FACE ( 'NONE', ( #172, #263 ), #210, .T. ) ;
#200 = EDGE_LOOP ( 'NONE', ( #130 ) ) ;
#201 = PERSON_AND_ORGANIZATION ( #93, #174 ) ;
#202 = COORDINATED_UNIVERSAL_TIME_OFFSET ( 1, 0, .AHEAD. ) ;
#203 = ADVANCED_FACE ( 'NONE', ( #8, #106 ), #283, .T. ) ;
#204 = VERTEX_POINT ( 'NONE', #184 ) ;
#205 = DIRECTION ( 'NONE',  ( 0.0000000000000000000, 1.000000000000000000, 0.0000000000000000000 ) ) ;
#206 = CC_DESIGN_PERSON_AND_ORGANIZATION_ASSIGNMENT ( #252, #12, ( #73 ) ) ;
#207 = CARTESIAN_POINT ( 'NONE',  ( 2.444036937190193601E-13, -8.572527594031472993E-15, 70.00000000000000000 ) ) ;
#208 = CARTESIAN_POINT ( 'NONE',  ( 3.657785473338394831E-14, 1.499999999999991562, 10.47631397208144399 ) ) ;
#209 = LOCAL_TIME ( 10, 35, 47.00000000000000000, #29 ) ;
#210 = CONICAL_SURFACE ( 'NONE', #277, 1.200000000000001510, 0.7853981633974566057 ) ;
#211 = CARTESIAN_POINT ( 'NONE',  ( 0.0000000000000000000, 0.0000000000000000000, 0.0000000000000000000 ) ) ;
#212 = DIRECTION ( 'NONE',  ( 0.0000000000000000000, 1.000000000000000000, 0.0000000000000000000 ) ) ;
#213 = DIRECTION ( 'NONE',  ( 0.0000000000000000000, 1.000000000000000000, 0.0000000000000000000 ) ) ;
#214 = DIRECTION ( 'NONE',  ( -3.491481338843133355E-15, 1.224646799147353207E-16, -1.000000000000000000 ) ) ;
#215 = EDGE_LOOP ( 'NONE', ( #153 ) ) ;
#216 = CIRCLE ( 'NONE', #256, 1.200000000000001510 ) ;
#217 = DIRECTION ( 'NONE',  ( 0.0000000000000000000, 1.000000000000000000, 0.0000000000000000000 ) ) ;
#218 = EDGE_LOOP ( 'NONE', ( #35 ) ) ;
#219 = DATE_AND_TIME ( #134, #191 ) ;
#220 = FACE_OUTER_BOUND ( 'NONE', #154, .T. ) ;
#221 = CC_DESIGN_DATE_AND_TIME_ASSIGNMENT ( #291, #276, ( #47 ) ) ;
#222 = PERSON_AND_ORGANIZATION_ROLE ( 'design_supplier' ) ;
#223 = ORIENTED_EDGE ( 'NONE', *, *, #68, .F. ) ;
#224 = CIRCLE ( 'NONE', #260, 1.499999999999992895 ) ;
#225 = DIRECTION ( 'NONE',  ( -3.491481338843133355E-15, 1.224646799147353207E-16, -1.000000000000000000 ) ) ;
#226 = FACE_OUTER_BOUND ( 'NONE', #289, .T. ) ;
#227 = EDGE_CURVE ( 'NONE', #140, #140, #60, .T. ) ;
#228 = LOCAL_TIME ( 10, 35, 47.00000000000000000, #65 ) ;
#229 = CIRCLE ( 'NONE', #22, 1.500000000000001110 ) ;
#230 = VERTEX_POINT ( 'NONE', #301 ) ;
#231 = CARTESIAN_POINT ( 'NONE',  ( 3.491481338843133355E-14, 1.774999999999993916, 10.00000000000000000 ) ) ;
#232 = CARTESIAN_POINT ( 'NONE',  ( 2.444036937190193601E-13, 1.199999999999992628, 70.00000000000000000 ) ) ;
#233 = AXIS2_PLACEMENT_3D ( 'NONE', #38, #225, #15 ) ;
#234 = APPROVAL ( #88, 'UNSPECIFIED' ) ;
#235 = LOCAL_TIME ( 10, 35, 47.00000000000000000, #202 ) ;
#236 = MANIFOLD_SOLID_BREP ( 'Corps-Déplacer/Copier1[2]', #52 ) ;
#237 = CYLINDRICAL_SURFACE ( 'NONE', #82, 1.774999999999995026 ) ;
#238 = PRODUCT_RELATED_PRODUCT_CATEGORY ( 'detail', '', ( #164 ) ) ;
#239 = FACE_OUTER_BOUND ( 'NONE', #64, .T. ) ;
#240 = DIRECTION ( 'NONE',  ( 0.0000000000000000000, 1.000000000000000000, 0.0000000000000000000 ) ) ;
#241 = EDGE_CURVE ( 'NONE', #204, #204, #229, .T. ) ;
#242 = DIRECTION ( 'NONE',  ( 3.491481338843133355E-15, -1.224646799147353207E-16, 1.000000000000000000 ) ) ;
#243 = ORIENTED_EDGE ( 'NONE', *, *, #23, .T. ) ;
#244 = CARTESIAN_POINT ( 'NONE',  ( 2.444036937190193601E-13, -8.572527594031472993E-15, 70.00000000000000000 ) ) ;
#245 = AXIS2_PLACEMENT_3D ( 'NONE', #55, #59, #120 ) ;
#246 = CC_DESIGN_PERSON_AND_ORGANIZATION_ASSIGNMENT ( #201, #222, ( #165 ) ) ;
#247 = EDGE_LOOP ( 'NONE', ( #262 ) ) ;
#248 = APPROVAL_DATE_TIME ( #157, #294 ) ;
#249 = DIRECTION ( 'NONE',  ( 0.0000000000000000000, 1.000000000000000000, 0.0000000000000000000 ) ) ;
#250 = CARTESIAN_POINT ( 'NONE',  ( 3.491481338843133355E-14, -1.224646799147353256E-15, 10.00000000000000000 ) ) ;
#251 = APPLICATION_CONTEXT ( 'configuration controlled 3d designs of mechanical parts and assemblies' ) ;
#252 = PERSON_AND_ORGANIZATION ( #93, #174 ) ;
#253 = CARTESIAN_POINT ( 'NONE',  ( 2.444036937190193601E-13, 1.199999999999992628, 70.00000000000000000 ) ) ;
#254 = APPROVAL_ROLE ( '' ) ;
#255 = VERTEX_POINT ( 'NONE', #112 ) ;
#256 = AXIS2_PLACEMENT_3D ( 'NONE', #131, #158, #249 ) ;
#257 = APPROVAL_DATE_TIME ( #169, #163 ) ;
#258 = CC_DESIGN_PERSON_AND_ORGANIZATION_ASSIGNMENT ( #9, #34, ( #165 ) ) ;
#259 = DIRECTION ( 'NONE',  ( -3.491481338843133355E-15, 1.224646799147353207E-16, -1.000000000000000000 ) ) ;
#260 = AXIS2_PLACEMENT_3D ( 'NONE', #146, #40, #286 ) ;
#261 = CARTESIAN_POINT ( 'NONE',  ( 8.728703347107827472E-16, -3.061616997868381169E-17, 0.2499999999999998335 ) ) ;
#262 = ORIENTED_EDGE ( 'NONE', *, *, #36, .F. ) ;
#263 = FACE_BOUND ( 'NONE', #13, .T. ) ;
#264 = APPROVAL_PERSON_ORGANIZATION ( #181, #294, #179 ) ;
#265 = EDGE_LOOP ( 'NONE', ( #287 ) ) ;
#266 =( GEOMETRIC_REPRESENTATION_CONTEXT ( 3 ) GLOBAL_UNCERTAINTY_ASSIGNED_CONTEXT ( ( #39 ) ) GLOBAL_UNIT_ASSIGNED_CONTEXT ( ( #166, #278, #46 ) ) REPRESENTATION_CONTEXT ( 'NONE', 'WORKASPACE' ) );
#267 = APPROVAL_ROLE ( '' ) ;
#268 = CARTESIAN_POINT ( 'NONE',  ( 3.491481338843133355E-14, -1.224646799147353256E-15, 10.00000000000000000 ) ) ;
#269 = EDGE_LOOP ( 'NONE', ( #7 ) ) ;
#270 = PERSON_AND_ORGANIZATION ( #93, #174 ) ;
#271 = ORIENTED_EDGE ( 'NONE', *, *, #18, .T. ) ;
#272 = CALENDAR_DATE ( 2021, 2, 12 ) ;
#273 = EDGE_LOOP ( 'NONE', ( #271 ) ) ;
#274 = COORDINATED_UNIVERSAL_TIME_OFFSET ( 1, 0, .AHEAD. ) ;
#275 = FACE_OUTER_BOUND ( 'NONE', #197, .T. ) ;
#276 = DATE_TIME_ROLE ( 'creation_date' ) ;
#277 = AXIS2_PLACEMENT_3D ( 'NONE', #244, #127, #217 ) ;
#278 =( NAMED_UNIT ( * ) PLANE_ANGLE_UNIT ( ) SI_UNIT ( $, .RADIAN. ) );
#279 = CIRCLE ( 'NONE', #233, 1.774999999999995026 ) ;
#280 = VERTEX_POINT ( 'NONE', #253 ) ;
#281 = ADVANCED_FACE ( 'NONE', ( #168 ), #48, .T. ) ;
#282 = PLANE ( 'NONE',  #161 ) ;
#283 = CONICAL_SURFACE ( 'NONE', #190, 1.524999999999994138, 0.7853981633974500554 ) ;
#284 = FACE_BOUND ( 'NONE', #57, .T. ) ;
#285 = DIRECTION ( 'NONE',  ( -3.491481338843133355E-15, 1.224646799147353207E-16, -1.000000000000000000 ) ) ;
#286 = DIRECTION ( 'NONE',  ( 0.0000000000000000000, 1.000000000000000000, 0.0000000000000000000 ) ) ;
#287 = ORIENTED_EDGE ( 'NONE', *, *, #101, .T. ) ;
#288 = CC_DESIGN_PERSON_AND_ORGANIZATION_ASSIGNMENT ( #94, #185, ( #164 ) ) ;
#289 = EDGE_LOOP ( 'NONE', ( #28 ) ) ;
#290 = LOCAL_TIME ( 10, 35, 47.00000000000000000, #175 ) ;
#291 = DATE_AND_TIME ( #32, #290 ) ;
#292 = CONICAL_SURFACE ( 'NONE', #25, 1.774999999999995026, 0.5235987755983000369 ) ;
#293 = CONICAL_SURFACE ( 'NONE', #95, 1.200000000000001510, 0.7853981633974566057 ) ;
#294 = APPROVAL ( #297, 'UNSPECIFIED' ) ;
#295 = DATE_TIME_ROLE ( 'classification_date' ) ;
#296 = ORIENTED_EDGE ( 'NONE', *, *, #241, .F. ) ;
#297 = APPROVAL_STATUS ( 'not_yet_approved' ) ;
#298 = DESIGN_CONTEXT ( 'detailed design', #251, 'design' ) ;
#299 = CYLINDRICAL_SURFACE ( 'NONE', #116, 1.499999999999996891 ) ;
#300 = CIRCLE ( 'NONE', #139, 1.499999999999992895 ) ;
#301 = CARTESIAN_POINT ( 'NONE',  ( 8.728703347107835360E-16, 1.774999999999995026, 0.2500000000000000555 ) ) ;
#302 = DIRECTION ( 'NONE',  ( -3.491481338843133355E-15, 1.224646799147353207E-16, -1.000000000000000000 ) ) ;
#303 = AXIS2_PLACEMENT_3D ( 'NONE', #187, #17, #69 ) ;
ENDSEC;
END-ISO-10303-21;
