ISO-10303-21;
HEADER;
FILE_DESCRIPTION (( 'STEP AP203' ),
    '1' );
FILE_NAME ('321580.step',
    '2021-12-02T09:35:46',
    ( '' ),
    ( '' ),
    'SwSTEP 2.0',
    'SolidWorks 2019',
    '' );
FILE_SCHEMA (( 'CONFIG_CONTROL_DESIGN' ));
ENDSEC;

DATA;
#1 = CIRCLE ( 'NONE', #261, 1.769999999999994911 ) ;
#2 = CALENDAR_DATE ( 2021, 2, 12 ) ;
#3 = AXIS2_PLACEMENT_3D ( 'NONE', #297, #71, #93 ) ;
#4 = CARTESIAN_POINT ( 'NONE',  ( 2.433562493173664138E-13, 1.499999999999992673, 69.70000000000001705 ) ) ;
#5 = ORIENTED_EDGE ( 'NONE', *, *, #83, .F. ) ;
#6 = CARTESIAN_POINT ( 'NONE',  ( 0.0000000000000000000, 0.0000000000000000000, 0.0000000000000000000 ) ) ;
#7 = EDGE_LOOP ( 'NONE', ( #38 ) ) ;
#8 = APPROVAL_ROLE ( '' ) ;
#9 = DIRECTION ( 'NONE',  ( -3.491481338843133355E-15, 1.224646799147353207E-16, -1.000000000000000000 ) ) ;
#10 = ADVANCED_FACE ( 'NONE', ( #137, #266 ), #33, .T. ) ;
#11 = SECURITY_CLASSIFICATION ( '', '', #63 ) ;
#12 = ORIENTED_EDGE ( 'NONE', *, *, #251, .T. ) ;
#13 = APPLICATION_CONTEXT ( 'configuration controlled 3d designs of mechanical parts and assemblies' ) ;
#14 = CALENDAR_DATE ( 2021, 2, 12 ) ;
#15 = APPROVAL ( #263, 'UNSPECIFIED' ) ;
#16 = ORIENTED_EDGE ( 'NONE', *, *, #70, .T. ) ;
#17 = APPROVAL_DATE_TIME ( #229, #151 ) ;
#18 = DIRECTION ( 'NONE',  ( 0.0000000000000000000, 1.000000000000000000, 0.0000000000000000000 ) ) ;
#19 = DATE_AND_TIME ( #14, #90 ) ;
#20 = CARTESIAN_POINT ( 'NONE',  ( 2.433562493173664138E-13, -8.535788190057053710E-15, 69.70000000000001705 ) ) ;
#21 = CARTESIAN_POINT ( 'NONE',  ( -6.499263797763351368E-31, 2.279634869646014751E-32, -1.861463134703969548E-16 ) ) ;
#22 = CARTESIAN_POINT ( 'NONE',  ( 3.491481338843133355E-14, -1.224646799147353256E-15, 10.00000000000000000 ) ) ;
#23 = AXIS2_PLACEMENT_3D ( 'NONE', #211, #236, #302 ) ;
#24 = DIRECTION ( 'NONE',  ( -3.491481338843133355E-15, 1.224646799147353207E-16, -1.000000000000000000 ) ) ;
#25 = AXIS2_PLACEMENT_3D ( 'NONE', #142, #194, #189 ) ;
#26 = CC_DESIGN_PERSON_AND_ORGANIZATION_ASSIGNMENT ( #113, #117, ( #295 ) ) ;
#27 = EDGE_LOOP ( 'NONE', ( #109 ) ) ;
#28 = APPLICATION_CONTEXT ( 'configuration controlled 3d designs of mechanical parts and assemblies' ) ;
#29 = EDGE_CURVE ( 'NONE', #201, #201, #275, .T. ) ;
#30 = PERSON_AND_ORGANIZATION_ROLE ( 'creator' ) ;
#31 = ADVANCED_FACE ( 'NONE', ( #156, #116 ), #248, .T. ) ;
#32 = FACE_OUTER_BOUND ( 'NONE', #27, .T. ) ;
#33 = CYLINDRICAL_SURFACE ( 'NONE', #221, 1.499999999999996891 ) ;
#34 = CYLINDRICAL_SURFACE ( 'NONE', #218, 1.499999999999996891 ) ;
#35 = FACE_BOUND ( 'NONE', #226, .T. ) ;
#36 = EDGE_LOOP ( 'NONE', ( #292 ) ) ;
#37 = LOCAL_TIME ( 10, 35, 46.00000000000000000, #141 ) ;
#38 = ORIENTED_EDGE ( 'NONE', *, *, #70, .F. ) ;
#39 = CARTESIAN_POINT ( 'NONE',  ( 8.728703347107827472E-16, -3.061616997868381169E-17, 0.2499999999999998335 ) ) ;
#40 = CALENDAR_DATE ( 2021, 2, 12 ) ;
#41 = ADVANCED_FACE ( 'NONE', ( #157, #154 ), #56, .T. ) ;
#42 = DIRECTION ( 'NONE',  ( 0.0000000000000000000, 1.000000000000000000, 0.0000000000000000000 ) ) ;
#43 = CONICAL_SURFACE ( 'NONE', #246, 1.769999999999994911, 0.5235987755983003700 ) ;
#44 = DIRECTION ( 'NONE',  ( 0.0000000000000000000, 1.000000000000000000, 0.0000000000000000000 ) ) ;
#45 = FACE_OUTER_BOUND ( 'NONE', #227, .T. ) ;
#46 = ADVANCED_FACE ( 'NONE', ( #32, #35 ), #190, .T. ) ;
#47 = DIRECTION ( 'NONE',  ( -3.491481338843133355E-15, 1.224646799147353207E-16, -1.000000000000000000 ) ) ;
#48 = AXIS2_PLACEMENT_3D ( 'NONE', #245, #290, #273 ) ;
#49 = MECHANICAL_CONTEXT ( 'NONE', #13, 'mechanical' ) ;
#50 = CLOSED_SHELL ( 'NONE', ( #87, #41, #258, #46, #213 ) ) ;
#51 = CARTESIAN_POINT ( 'NONE',  ( 2.433562493173664138E-13, 1.499999999999992673, 69.70000000000001705 ) ) ;
#52 = PERSON_AND_ORGANIZATION ( #170, #200 ) ;
#53 = DIRECTION ( 'NONE',  ( 0.0000000000000000000, 1.000000000000000000, 0.0000000000000000000 ) ) ;
#54 = CARTESIAN_POINT ( 'NONE',  ( 0.0000000000000000000, 1.519999999999994023, 0.0000000000000000000 ) ) ;
#55 = EDGE_LOOP ( 'NONE', ( #287 ) ) ;
#56 = CONICAL_SURFACE ( 'NONE', #48, 1.769999999999994911, 0.5235987755983003700 ) ;
#57 = CARTESIAN_POINT ( 'NONE',  ( 3.491481338843133355E-14, 1.769999999999993578, 10.00000000000000000 ) ) ;
#58 = DIRECTION ( 'NONE',  ( 4.275831445896958607E-31, 1.000000000000000000, 1.224646799147353454E-16 ) ) ;
#59 = APPROVAL_ROLE ( '' ) ;
#60 = EDGE_LOOP ( 'NONE', ( #136 ) ) ;
#61 = ORIENTED_EDGE ( 'NONE', *, *, #149, .T. ) ;
#62 = AXIS2_PLACEMENT_3D ( 'NONE', #301, #192, #276 ) ;
#63 = SECURITY_CLASSIFICATION_LEVEL ( 'unclassified' ) ;
#64 = CC_DESIGN_APPROVAL ( #151, ( #295 ) ) ;
#65 = LOCAL_TIME ( 10, 35, 46.00000000000000000, #274 ) ;
#66 = CARTESIAN_POINT ( 'NONE',  ( -6.499263797763351368E-31, 2.279634869646014751E-32, -1.861463134703969548E-16 ) ) ;
#67 = PERSON_AND_ORGANIZATION ( #170, #200 ) ;
#68 = FACE_OUTER_BOUND ( 'NONE', #270, .T. ) ;
#69 = DATE_TIME_ROLE ( 'creation_date' ) ;
#70 = EDGE_CURVE ( 'NONE', #148, #148, #150, .T. ) ;
#71 = DIRECTION ( 'NONE',  ( -3.491481338843133355E-15, 1.224646799147353207E-16, -1.000000000000000000 ) ) ;
#72 = ADVANCED_FACE ( 'NONE', ( #73, #68 ), #43, .T. ) ;
#73 = FACE_BOUND ( 'NONE', #36, .T. ) ;
#74 = DIRECTION ( 'NONE',  ( 4.275831445896958607E-31, 1.000000000000000000, 1.224646799147353207E-16 ) ) ;
#75 = CARTESIAN_POINT ( 'NONE',  ( 0.0000000000000000000, 0.0000000000000000000, 0.0000000000000000000 ) ) ;
#76 = VERTEX_POINT ( 'NONE', #135 ) ;
#77 = VERTEX_POINT ( 'NONE', #184 ) ;
#78 = CARTESIAN_POINT ( 'NONE',  ( 2.444036937190193601E-13, -8.572527594031472993E-15, 70.00000000000000000 ) ) ;
#79 = APPLICATION_PROTOCOL_DEFINITION ( 'international standard', 'config_control_design', 1994, #13 ) ;
#80 = ORIENTED_EDGE ( 'NONE', *, *, #102, .F. ) ;
#81 = CLOSED_SHELL ( 'NONE', ( #72, #31, #158, #219, #138, #101, #10 ) ) ;
#82 = AXIS2_PLACEMENT_3D ( 'NONE', #6, #238, #108 ) ;
#83 = EDGE_CURVE ( 'NONE', #77, #77, #95, .T. ) ;
#84 = DIRECTION ( 'NONE',  ( -3.491481338843133355E-15, 1.224646799147353207E-16, -1.000000000000000000 ) ) ;
#85 = PERSON_AND_ORGANIZATION_ROLE ( 'design_supplier' ) ;
#86 = EDGE_LOOP ( 'NONE', ( #222 ) ) ;
#87 = ADVANCED_FACE ( 'NONE', ( #94 ), #216, .F. ) ;
#88 = EDGE_LOOP ( 'NONE', ( #80 ) ) ;
#89 = CONICAL_SURFACE ( 'NONE', #179, 1.200000000000001510, 0.7853981633974566057 ) ;
#90 = LOCAL_TIME ( 10, 35, 46.00000000000000000, #166 ) ;
#91 = CARTESIAN_POINT ( 'NONE',  ( 3.654761761802116696E-14, -1.281917862038498348E-15, 10.46765371804359823 ) ) ;
#92 = PERSON_AND_ORGANIZATION ( #170, #200 ) ;
#93 = DIRECTION ( 'NONE',  ( 4.275831445896958607E-31, 1.000000000000000000, 1.224646799147353207E-16 ) ) ;
#94 = FACE_OUTER_BOUND ( 'NONE', #289, .T. ) ;
#95 = CIRCLE ( 'NONE', #164, 1.200000000000001510 ) ;
#96 = CC_DESIGN_APPROVAL ( #15, ( #172 ) ) ;
#97 = DESIGN_CONTEXT ( 'detailed design', #28, 'design' ) ;
#98 = DIRECTION ( 'NONE',  ( 0.0000000000000000000, 1.000000000000000000, 0.0000000000000000000 ) ) ;
#99 =( NAMED_UNIT ( * ) PLANE_ANGLE_UNIT ( ) SI_UNIT ( $, .RADIAN. ) );
#100 = CARTESIAN_POINT ( 'NONE',  ( 2.444036937190193601E-13, 1.199999999999992628, 70.00000000000000000 ) ) ;
#101 = ADVANCED_FACE ( 'NONE', ( #255, #230 ), #89, .T. ) ;
#102 = EDGE_CURVE ( 'NONE', #76, #76, #231, .T. ) ;
#103 = DATE_AND_TIME ( #2, #174 ) ;
#104 = APPROVAL ( #161, 'UNSPECIFIED' ) ;
#105 = CIRCLE ( 'NONE', #147, 1.499999999999992895 ) ;
#106 = VERTEX_POINT ( 'NONE', #57 ) ;
#107 = ADVANCED_BREP_SHAPE_REPRESENTATION ( '321580', ( #281, #284, #82 ), #121 ) ;
#108 = DIRECTION ( 'NONE',  ( 1.000000000000000000, 0.0000000000000000000, 0.0000000000000000000 ) ) ;
#109 = ORIENTED_EDGE ( 'NONE', *, *, #160, .F. ) ;
#110 = CC_DESIGN_PERSON_AND_ORGANIZATION_ASSIGNMENT ( #67, #187, ( #11 ) ) ;
#111 = EDGE_LOOP ( 'NONE', ( #16 ) ) ;
#112 = AXIS2_PLACEMENT_3D ( 'NONE', #78, #9, #259 ) ;
#113 = PERSON_AND_ORGANIZATION ( #170, #200 ) ;
#114 = DIRECTION ( 'NONE',  ( -3.491481338843133355E-15, 1.224646799147353207E-16, -1.000000000000000000 ) ) ;
#115 = DATE_TIME_ROLE ( 'classification_date' ) ;
#116 = FACE_OUTER_BOUND ( 'NONE', #88, .T. ) ;
#117 = PERSON_AND_ORGANIZATION_ROLE ( 'creator' ) ;
#118 = DIRECTION ( 'NONE',  ( -3.491481338843133355E-15, 1.224646799147353207E-16, -1.000000000000000000 ) ) ;
#119 = CONICAL_SURFACE ( 'NONE', #199, 1.519999999999994023, 0.7853981633974500554 ) ;
#120 = CALENDAR_DATE ( 2021, 2, 12 ) ;
#121 =( GEOMETRIC_REPRESENTATION_CONTEXT ( 3 ) GLOBAL_UNCERTAINTY_ASSIGNED_CONTEXT ( ( #177 ) ) GLOBAL_UNIT_ASSIGNED_CONTEXT ( ( #152, #99, #244 ) ) REPRESENTATION_CONTEXT ( 'NONE', 'WORKASPACE' ) );
#122 = PLANE ( 'NONE',  #23 ) ;
#123 = DIRECTION ( 'NONE',  ( -3.491481338843133355E-15, 1.224646799147353207E-16, -1.000000000000000000 ) ) ;
#124 = FACE_OUTER_BOUND ( 'NONE', #224, .T. ) ;
#125 = AXIS2_PLACEMENT_3D ( 'NONE', #254, #118, #98 ) ;
#126 = LOCAL_TIME ( 10, 35, 46.00000000000000000, #131 ) ;
#127 = DIRECTION ( 'NONE',  ( -3.491481338843133355E-15, 1.224646799147353207E-16, -1.000000000000000000 ) ) ;
#128 = FACE_OUTER_BOUND ( 'NONE', #60, .T. ) ;
#129 = CIRCLE ( 'NONE', #62, 1.769999999999994911 ) ;
#130 = COORDINATED_UNIVERSAL_TIME_OFFSET ( 1, 0, .AHEAD. ) ;
#131 = COORDINATED_UNIVERSAL_TIME_OFFSET ( 1, 0, .AHEAD. ) ;
#132 = CIRCLE ( 'NONE', #155, 1.499999999999992895 ) ;
#133 = EDGE_LOOP ( 'NONE', ( #239 ) ) ;
#134 = ORIENTED_EDGE ( 'NONE', *, *, #149, .F. ) ;
#135 = CARTESIAN_POINT ( 'NONE',  ( 8.728703347107835360E-16, 1.769999999999994911, 0.2500000000000000555 ) ) ;
#136 = ORIENTED_EDGE ( 'NONE', *, *, #251, .F. ) ;
#137 = FACE_OUTER_BOUND ( 'NONE', #207, .T. ) ;
#138 = ADVANCED_FACE ( 'NONE', ( #212 ), #280, .F. ) ;
#139 = EDGE_LOOP ( 'NONE', ( #5 ) ) ;
#140 = DIRECTION ( 'NONE',  ( 0.0000000000000000000, 1.000000000000000000, 0.0000000000000000000 ) ) ;
#141 = COORDINATED_UNIVERSAL_TIME_OFFSET ( 1, 0, .AHEAD. ) ;
#142 = CARTESIAN_POINT ( 'NONE',  ( 3.491481338843133355E-14, 1.327287407655738345E-32, 10.00000000000000000 ) ) ;
#143 = SHAPE_DEFINITION_REPRESENTATION ( #240, #107 ) ;
#144 = CARTESIAN_POINT ( 'NONE',  ( 2.444036937190193601E-13, -8.572527594031472993E-15, 70.00000000000000000 ) ) ;
#145 = DIRECTION ( 'NONE',  ( 0.0000000000000000000, 1.000000000000000000, 0.0000000000000000000 ) ) ;
#146 = DIRECTION ( 'NONE',  ( -4.275831445896958607E-31, -1.000000000000000000, -1.224646799147353207E-16 ) ) ;
#147 = AXIS2_PLACEMENT_3D ( 'NONE', #91, #173, #252 ) ;
#148 = VERTEX_POINT ( 'NONE', #4 ) ;
#149 = EDGE_CURVE ( 'NONE', #106, #106, #1, .T. ) ;
#150 = CIRCLE ( 'NONE', #125, 1.500000000000001110 ) ;
#151 = APPROVAL ( #253, 'UNSPECIFIED' ) ;
#152 =( LENGTH_UNIT ( ) NAMED_UNIT ( * ) SI_UNIT ( .MILLI., .METRE. ) );
#153 = CARTESIAN_POINT ( 'NONE',  ( 3.491481338843133355E-14, 1.769999999999993578, 10.00000000000000000 ) ) ;
#154 = FACE_OUTER_BOUND ( 'NONE', #196, .T. ) ;
#155 = AXIS2_PLACEMENT_3D ( 'NONE', #210, #191, #44 ) ;
#156 = FACE_OUTER_BOUND ( 'NONE', #159, .T. ) ;
#157 = FACE_BOUND ( 'NONE', #204, .T. ) ;
#158 = ADVANCED_FACE ( 'NONE', ( #124, #228 ), #119, .T. ) ;
#159 = EDGE_LOOP ( 'NONE', ( #202 ) ) ;
#160 = EDGE_CURVE ( 'NONE', #182, #182, #163, .T. ) ;
#161 = APPROVAL_STATUS ( 'not_yet_approved' ) ;
#162 = ORIENTED_EDGE ( 'NONE', *, *, #235, .F. ) ;
#163 = CIRCLE ( 'NONE', #283, 1.500000000000001110 ) ;
#164 = AXIS2_PLACEMENT_3D ( 'NONE', #144, #47, #169 ) ;
#165 = CC_DESIGN_DATE_AND_TIME_ASSIGNMENT ( #294, #115, ( #11 ) ) ;
#166 = COORDINATED_UNIVERSAL_TIME_OFFSET ( 1, 0, .AHEAD. ) ;
#167 = DIRECTION ( 'NONE',  ( 4.275831445896958607E-31, 1.000000000000000000, 1.224646799147353207E-16 ) ) ;
#168 = APPROVAL_DATE_TIME ( #19, #104 ) ;
#169 = DIRECTION ( 'NONE',  ( 0.0000000000000000000, 1.000000000000000000, 0.0000000000000000000 ) ) ;
#170 = PERSON ( 'UNSPECIFIED', 'UNSPECIFIED', 'UNSPECIFIED', ('UNSPECIFIED'), ('UNSPECIFIED'), ('UNSPECIFIED') ) ;
#171 = CALENDAR_DATE ( 2021, 2, 12 ) ;
#172 = PRODUCT_DEFINITION ( 'UNKNOWN', '', #295, #97 ) ;
#173 = DIRECTION ( 'NONE',  ( -3.491481338843133355E-15, 1.224646799147353207E-16, -1.000000000000000000 ) ) ;
#174 = LOCAL_TIME ( 10, 35, 46.00000000000000000, #130 ) ;
#175 = DIRECTION ( 'NONE',  ( 4.352384055112409823E-31, 1.000000000000000000, 1.225087200548596075E-16 ) ) ;
#176 = CARTESIAN_POINT ( 'NONE',  ( 3.491481338843133355E-14, -1.224646799147353256E-15, 10.00000000000000000 ) ) ;
#177 = UNCERTAINTY_MEASURE_WITH_UNIT (LENGTH_MEASURE( 1.000000000000000082E-05 ), #152, 'distance_accuracy_value', 'NONE');
#178 = PERSON_AND_ORGANIZATION ( #170, #200 ) ;
#179 = AXIS2_PLACEMENT_3D ( 'NONE', #296, #24, #145 ) ;
#180 = CC_DESIGN_SECURITY_CLASSIFICATION ( #11, ( #295 ) ) ;
#181 = VERTEX_POINT ( 'NONE', #303 ) ;
#182 = VERTEX_POINT ( 'NONE', #51 ) ;
#183 = CARTESIAN_POINT ( 'NONE',  ( 2.444036937190193601E-13, -8.572527594031472993E-15, 70.00000000000000000 ) ) ;
#184 = CARTESIAN_POINT ( 'NONE',  ( 2.444036937190193601E-13, 1.199999999999992628, 70.00000000000000000 ) ) ;
#185 = AXIS2_PLACEMENT_3D ( 'NONE', #66, #278, #167 ) ;
#186 = DIRECTION ( 'NONE',  ( -3.491481338843133355E-15, 1.224646799147353207E-16, -1.000000000000000000 ) ) ;
#187 = PERSON_AND_ORGANIZATION_ROLE ( 'classification_officer' ) ;
#188 = CARTESIAN_POINT ( 'NONE',  ( 0.0000000000000000000, 0.0000000000000000000, 0.0000000000000000000 ) ) ;
#189 = DIRECTION ( 'NONE',  ( -4.275831445896958607E-31, -1.000000000000000000, -1.224646799147353207E-16 ) ) ;
#190 = CONICAL_SURFACE ( 'NONE', #112, 1.200000000000001510, 0.7853981633974566057 ) ;
#191 = DIRECTION ( 'NONE',  ( -3.491481338843133355E-15, 1.224646799147353207E-16, -1.000000000000000000 ) ) ;
#192 = DIRECTION ( 'NONE',  ( -3.491481338843133355E-15, 1.224646799147353207E-16, -1.000000000000000000 ) ) ;
#193 = CARTESIAN_POINT ( 'NONE',  ( 2.444036937190193601E-13, -8.572527594031472993E-15, 70.00000000000000000 ) ) ;
#194 = DIRECTION ( 'NONE',  ( 3.491481338843133355E-15, -1.224646799147353207E-16, 1.000000000000000000 ) ) ;
#195 = PERSON_AND_ORGANIZATION ( #170, #200 ) ;
#196 = EDGE_LOOP ( 'NONE', ( #134 ) ) ;
#197 = APPROVAL_PERSON_ORGANIZATION ( #209, #104, #59 ) ;
#198 = APPROVAL_ROLE ( '' ) ;
#199 = AXIS2_PLACEMENT_3D ( 'NONE', #21, #257, #146 ) ;
#200 = ORGANIZATION ( 'UNSPECIFIED', 'UNSPECIFIED', '' ) ;
#201 = VERTEX_POINT ( 'NONE', #100 ) ;
#202 = ORIENTED_EDGE ( 'NONE', *, *, #233, .T. ) ;
#203 = CC_DESIGN_PERSON_AND_ORGANIZATION_ASSIGNMENT ( #52, #30, ( #172 ) ) ;
#204 = EDGE_LOOP ( 'NONE', ( #12 ) ) ;
#205 = ORIENTED_EDGE ( 'NONE', *, *, #235, .T. ) ;
#206 = APPROVAL_PERSON_ORGANIZATION ( #271, #151, #8 ) ;
#207 = EDGE_LOOP ( 'NONE', ( #272 ) ) ;
#208 = EDGE_LOOP ( 'NONE', ( #162 ) ) ;
#209 = PERSON_AND_ORGANIZATION ( #170, #200 ) ;
#210 = CARTESIAN_POINT ( 'NONE',  ( 3.654761761802116696E-14, -1.281917862038498348E-15, 10.46765371804359823 ) ) ;
#211 = CARTESIAN_POINT ( 'NONE',  ( 2.444036937190193601E-13, 8.998558695971026591E-33, 70.00000000000000000 ) ) ;
#212 = FACE_OUTER_BOUND ( 'NONE', #139, .T. ) ;
#213 = ADVANCED_FACE ( 'NONE', ( #234 ), #122, .F. ) ;
#214 = PLANE ( 'NONE',  #3 ) ;
#215 = CC_DESIGN_PERSON_AND_ORGANIZATION_ASSIGNMENT ( #92, #85, ( #295 ) ) ;
#216 = PLANE ( 'NONE',  #25 ) ;
#217 = VERTEX_POINT ( 'NONE', #153 ) ;
#218 = AXIS2_PLACEMENT_3D ( 'NONE', #75, #220, #286 ) ;
#219 = ADVANCED_FACE ( 'NONE', ( #45 ), #214, .T. ) ;
#220 = DIRECTION ( 'NONE',  ( -3.491481338843133355E-15, 1.224646799147353207E-16, -1.000000000000000000 ) ) ;
#221 = AXIS2_PLACEMENT_3D ( 'NONE', #250, #114, #58 ) ;
#222 = ORIENTED_EDGE ( 'NONE', *, *, #29, .F. ) ;
#223 = ORIENTED_EDGE ( 'NONE', *, *, #102, .T. ) ;
#224 = EDGE_LOOP ( 'NONE', ( #223 ) ) ;
#225 = AXIS2_PLACEMENT_3D ( 'NONE', #183, #84, #53 ) ;
#226 = EDGE_LOOP ( 'NONE', ( #249 ) ) ;
#227 = EDGE_LOOP ( 'NONE', ( #205 ) ) ;
#228 = FACE_BOUND ( 'NONE', #208, .T. ) ;
#229 = DATE_AND_TIME ( #40, #65 ) ;
#230 = FACE_BOUND ( 'NONE', #55, .T. ) ;
#231 = CIRCLE ( 'NONE', #262, 1.769999999999994911 ) ;
#232 = DIRECTION ( 'NONE',  ( -3.491481338843133355E-15, 1.224646799147353207E-16, -1.000000000000000000 ) ) ;
#233 = EDGE_CURVE ( 'NONE', #217, #217, #129, .T. ) ;
#234 = FACE_OUTER_BOUND ( 'NONE', #86, .T. ) ;
#235 = EDGE_CURVE ( 'NONE', #267, #267, #237, .T. ) ;
#236 = DIRECTION ( 'NONE',  ( -3.491481338843133355E-15, 1.224646799147353207E-16, -1.000000000000000000 ) ) ;
#237 = CIRCLE ( 'NONE', #185, 1.519999999999994023 ) ;
#238 = DIRECTION ( 'NONE',  ( 0.0000000000000000000, 0.0000000000000000000, 1.000000000000000000 ) ) ;
#239 = ORIENTED_EDGE ( 'NONE', *, *, #160, .T. ) ;
#240 = PRODUCT_DEFINITION_SHAPE ( 'NONE', 'NONE',  #172 ) ;
#241 = APPROVAL_PERSON_ORGANIZATION ( #178, #15, #198 ) ;
#242 = EDGE_CURVE ( 'NONE', #181, #181, #105, .T. ) ;
#243 = APPLICATION_PROTOCOL_DEFINITION ( 'international standard', 'config_control_design', 1994, #28 ) ;
#244 =( NAMED_UNIT ( * ) SI_UNIT ( $, .STERADIAN. ) SOLID_ANGLE_UNIT ( ) );
#245 = CARTESIAN_POINT ( 'NONE',  ( 3.491481338843133355E-14, -1.224646799147353256E-15, 10.00000000000000000 ) ) ;
#246 = AXIS2_PLACEMENT_3D ( 'NONE', #22, #123, #42 ) ;
#247 = DIRECTION ( 'NONE',  ( 4.275831445896958607E-31, 1.000000000000000000, 1.224646799147353207E-16 ) ) ;
#248 = CYLINDRICAL_SURFACE ( 'NONE', #279, 1.769999999999994911 ) ;
#249 = ORIENTED_EDGE ( 'NONE', *, *, #29, .T. ) ;
#250 = CARTESIAN_POINT ( 'NONE',  ( 0.0000000000000000000, 0.0000000000000000000, 0.0000000000000000000 ) ) ;
#251 = EDGE_CURVE ( 'NONE', #268, #268, #132, .T. ) ;
#252 = DIRECTION ( 'NONE',  ( 0.0000000000000000000, 1.000000000000000000, 0.0000000000000000000 ) ) ;
#253 = APPROVAL_STATUS ( 'not_yet_approved' ) ;
#254 = CARTESIAN_POINT ( 'NONE',  ( 2.433562493173664138E-13, -8.535788190057053710E-15, 69.70000000000001705 ) ) ;
#255 = FACE_OUTER_BOUND ( 'NONE', #7, .T. ) ;
#256 = AXIS2_PLACEMENT_3D ( 'NONE', #193, #232, #74 ) ;
#257 = DIRECTION ( 'NONE',  ( 3.491481338843133355E-15, -1.224646799147353207E-16, 1.000000000000000000 ) ) ;
#258 = ADVANCED_FACE ( 'NONE', ( #128, #260 ), #34, .T. ) ;
#259 = DIRECTION ( 'NONE',  ( 0.0000000000000000000, 1.000000000000000000, 0.0000000000000000000 ) ) ;
#260 = FACE_OUTER_BOUND ( 'NONE', #133, .T. ) ;
#261 = AXIS2_PLACEMENT_3D ( 'NONE', #176, #127, #140 ) ;
#262 = AXIS2_PLACEMENT_3D ( 'NONE', #39, #299, #175 ) ;
#263 = APPROVAL_STATUS ( 'not_yet_approved' ) ;
#264 = CC_DESIGN_APPROVAL ( #104, ( #11 ) ) ;
#265 = CARTESIAN_POINT ( 'NONE',  ( 3.654761761802116696E-14, 1.499999999999991562, 10.46765371804359823 ) ) ;
#266 = FACE_OUTER_BOUND ( 'NONE', #111, .T. ) ;
#267 = VERTEX_POINT ( 'NONE', #54 ) ;
#268 = VERTEX_POINT ( 'NONE', #265 ) ;
#269 = CC_DESIGN_PERSON_AND_ORGANIZATION_ASSIGNMENT ( #195, #282, ( #288 ) ) ;
#270 = EDGE_LOOP ( 'NONE', ( #293 ) ) ;
#271 = PERSON_AND_ORGANIZATION ( #170, #200 ) ;
#272 = ORIENTED_EDGE ( 'NONE', *, *, #242, .F. ) ;
#273 = DIRECTION ( 'NONE',  ( 0.0000000000000000000, 1.000000000000000000, 0.0000000000000000000 ) ) ;
#274 = COORDINATED_UNIVERSAL_TIME_OFFSET ( 1, 0, .AHEAD. ) ;
#275 = CIRCLE ( 'NONE', #225, 1.200000000000001510 ) ;
#276 = DIRECTION ( 'NONE',  ( 0.0000000000000000000, 1.000000000000000000, 0.0000000000000000000 ) ) ;
#277 = DIRECTION ( 'NONE',  ( -3.491481338843133355E-15, 1.224646799147353207E-16, -1.000000000000000000 ) ) ;
#278 = DIRECTION ( 'NONE',  ( -3.491481338843133355E-15, 1.224646799147353207E-16, -1.000000000000000000 ) ) ;
#279 = AXIS2_PLACEMENT_3D ( 'NONE', #188, #186, #247 ) ;
#280 = PLANE ( 'NONE',  #256 ) ;
#281 = MANIFOLD_SOLID_BREP ( 'Corps-Déplacer/Copier1[1]', #50 ) ;
#282 = PERSON_AND_ORGANIZATION_ROLE ( 'design_owner' ) ;
#283 = AXIS2_PLACEMENT_3D ( 'NONE', #20, #277, #18 ) ;
#284 = MANIFOLD_SOLID_BREP ( 'Corps-Déplacer/Copier1[2]', #81 ) ;
#285 = APPROVAL_DATE_TIME ( #103, #15 ) ;
#286 = DIRECTION ( 'NONE',  ( 4.275831445896958607E-31, 1.000000000000000000, 1.224646799147353454E-16 ) ) ;
#287 = ORIENTED_EDGE ( 'NONE', *, *, #83, .T. ) ;
#288 = PRODUCT ( '321580', '321580', '', ( #49 ) ) ;
#289 = EDGE_LOOP ( 'NONE', ( #61 ) ) ;
#290 = DIRECTION ( 'NONE',  ( -3.491481338843133355E-15, 1.224646799147353207E-16, -1.000000000000000000 ) ) ;
#291 = DATE_AND_TIME ( #120, #126 ) ;
#292 = ORIENTED_EDGE ( 'NONE', *, *, #242, .T. ) ;
#293 = ORIENTED_EDGE ( 'NONE', *, *, #233, .F. ) ;
#294 = DATE_AND_TIME ( #171, #37 ) ;
#295 = PRODUCT_DEFINITION_FORMATION_WITH_SPECIFIED_SOURCE ( 'ANY', '', #288, .NOT_KNOWN. ) ;
#296 = CARTESIAN_POINT ( 'NONE',  ( 2.444036937190193601E-13, -8.572527594031472993E-15, 70.00000000000000000 ) ) ;
#297 = CARTESIAN_POINT ( 'NONE',  ( -3.249631898881675684E-31, 1.139817434823007376E-32, -9.307315673519847742E-17 ) ) ;
#298 = CC_DESIGN_DATE_AND_TIME_ASSIGNMENT ( #291, #69, ( #172 ) ) ;
#299 = DIRECTION ( 'NONE',  ( -3.491481338843133355E-15, 1.224646799147353207E-16, -1.000000000000000000 ) ) ;
#300 = PRODUCT_RELATED_PRODUCT_CATEGORY ( 'detail', '', ( #288 ) ) ;
#301 = CARTESIAN_POINT ( 'NONE',  ( 3.491481338843133355E-14, -1.224646799147353256E-15, 10.00000000000000000 ) ) ;
#302 = DIRECTION ( 'NONE',  ( 4.275831445896958607E-31, 1.000000000000000000, 1.224646799147353207E-16 ) ) ;
#303 = CARTESIAN_POINT ( 'NONE',  ( 3.654761761802116696E-14, 1.499999999999991562, 10.46765371804359823 ) ) ;
ENDSEC;
END-ISO-10303-21;
