ISO-10303-21;
HEADER;
FILE_DESCRIPTION (( 'STEP AP203' ),
    '1' );
FILE_NAME ('321579.step',
    '2021-12-02T09:35:45',
    ( '' ),
    ( '' ),
    'SwSTEP 2.0',
    'SolidWorks 2019',
    '' );
FILE_SCHEMA (( 'CONFIG_CONTROL_DESIGN' ));
ENDSEC;

DATA;
#1 = DIRECTION ( 'NONE',  ( -3.491481338843133355E-15, 1.224646799147353207E-16, -1.000000000000000000 ) ) ;
#2 = PLANE ( 'NONE',  #92 ) ;
#3 = LOCAL_TIME ( 10, 35, 45.00000000000000000, #109 ) ;
#4 = EDGE_CURVE ( 'NONE', #153, #153, #27, .T. ) ;
#5 = DIRECTION ( 'NONE',  ( -3.491481338843133355E-15, 1.224646799147353207E-16, -1.000000000000000000 ) ) ;
#6 = CARTESIAN_POINT ( 'NONE',  ( 3.491481338843133355E-14, 1.323538008199083674E-32, 10.00000000000000000 ) ) ;
#7 = CARTESIAN_POINT ( 'NONE',  ( 2.444036937190193601E-13, -8.572527594031472993E-15, 70.00000000000000000 ) ) ;
#8 = LOCAL_TIME ( 10, 35, 45.00000000000000000, #44 ) ;
#9 = APPROVAL ( #18, 'UNSPECIFIED' ) ;
#10 = CYLINDRICAL_SURFACE ( 'NONE', #289, 1.499999999999996891 ) ;
#11 = CC_DESIGN_APPROVAL ( #9, ( #162 ) ) ;
#12 =( LENGTH_UNIT ( ) NAMED_UNIT ( * ) SI_UNIT ( .MILLI., .METRE. ) );
#13 = DIRECTION ( 'NONE',  ( -3.491481338843133355E-15, 1.224646799147353207E-16, -1.000000000000000000 ) ) ;
#14 = PERSON_AND_ORGANIZATION ( #243, #36 ) ;
#15 = EDGE_LOOP ( 'NONE', ( #297 ) ) ;
#16 = AXIS2_PLACEMENT_3D ( 'NONE', #149, #202, #146 ) ;
#17 = CALENDAR_DATE ( 2021, 2, 12 ) ;
#18 = APPROVAL_STATUS ( 'not_yet_approved' ) ;
#19 = DIRECTION ( 'NONE',  ( -3.491481338843133355E-15, 1.224646799147353207E-16, -1.000000000000000000 ) ) ;
#20 = APPLICATION_CONTEXT ( 'configuration controlled 3d designs of mechanical parts and assemblies' ) ;
#21 = DESIGN_CONTEXT ( 'detailed design', #70, 'design' ) ;
#22 = CC_DESIGN_PERSON_AND_ORGANIZATION_ASSIGNMENT ( #14, #42, ( #162 ) ) ;
#23 = CIRCLE ( 'NONE', #16, 1.499999999999992895 ) ;
#24 = ADVANCED_BREP_SHAPE_REPRESENTATION ( '321579', ( #175, #85, #301 ), #254 ) ;
#25 = DIRECTION ( 'NONE',  ( 0.0000000000000000000, 1.000000000000000000, 0.0000000000000000000 ) ) ;
#26 = CARTESIAN_POINT ( 'NONE',  ( 2.433562493173664138E-13, -8.535788190057053710E-15, 69.70000000000001705 ) ) ;
#27 = CIRCLE ( 'NONE', #143, 1.200000000000001510 ) ;
#28 = CC_DESIGN_PERSON_AND_ORGANIZATION_ASSIGNMENT ( #208, #39, ( #293 ) ) ;
#29 = CARTESIAN_POINT ( 'NONE',  ( 2.444036937190193601E-13, -8.572527594031472993E-15, 70.00000000000000000 ) ) ;
#30 = CARTESIAN_POINT ( 'NONE',  ( 3.651738050265839191E-14, -1.280857286799773501E-15, 10.45899346400575602 ) ) ;
#31 = CARTESIAN_POINT ( 'NONE',  ( -3.238942320266933765E-31, 1.136068035366352841E-32, -9.276699503541165828E-17 ) ) ;
#32 =( NAMED_UNIT ( * ) SI_UNIT ( $, .STERADIAN. ) SOLID_ANGLE_UNIT ( ) );
#33 = FACE_OUTER_BOUND ( 'NONE', #69, .T. ) ;
#34 = DIRECTION ( 'NONE',  ( 0.0000000000000000000, 0.0000000000000000000, 1.000000000000000000 ) ) ;
#35 = CONICAL_SURFACE ( 'NONE', #124, 1.764999999999995017, 0.5235987755982999259 ) ;
#36 = ORGANIZATION ( 'UNSPECIFIED', 'UNSPECIFIED', '' ) ;
#37 = FACE_OUTER_BOUND ( 'NONE', #259, .T. ) ;
#38 = EDGE_CURVE ( 'NONE', #102, #102, #233, .T. ) ;
#39 = PERSON_AND_ORGANIZATION_ROLE ( 'creator' ) ;
#40 = EDGE_LOOP ( 'NONE', ( #224 ) ) ;
#41 = LOCAL_TIME ( 10, 35, 45.00000000000000000, #179 ) ;
#42 = PERSON_AND_ORGANIZATION_ROLE ( 'classification_officer' ) ;
#43 = ORIENTED_EDGE ( 'NONE', *, *, #270, .T. ) ;
#44 = COORDINATED_UNIVERSAL_TIME_OFFSET ( 1, 0, .AHEAD. ) ;
#45 = EDGE_LOOP ( 'NONE', ( #131 ) ) ;
#46 = AXIS2_PLACEMENT_3D ( 'NONE', #123, #53, #170 ) ;
#47 = DIRECTION ( 'NONE',  ( 4.275831445896958607E-31, 1.000000000000000000, 1.224646799147353207E-16 ) ) ;
#48 = FACE_OUTER_BOUND ( 'NONE', #207, .T. ) ;
#49 = FACE_BOUND ( 'NONE', #89, .T. ) ;
#50 = AXIS2_PLACEMENT_3D ( 'NONE', #30, #266, #25 ) ;
#51 = CC_DESIGN_PERSON_AND_ORGANIZATION_ASSIGNMENT ( #68, #93, ( #121 ) ) ;
#52 = DIRECTION ( 'NONE',  ( 0.0000000000000000000, 1.000000000000000000, 0.0000000000000000000 ) ) ;
#53 = DIRECTION ( 'NONE',  ( 3.491481338843133355E-15, -1.224646799147353207E-16, 1.000000000000000000 ) ) ;
#54 = CARTESIAN_POINT ( 'NONE',  ( 2.433562493173664138E-13, 1.499999999999992673, 69.70000000000001705 ) ) ;
#55 = VERTEX_POINT ( 'NONE', #198 ) ;
#56 = AXIS2_PLACEMENT_3D ( 'NONE', #117, #285, #213 ) ;
#57 = ADVANCED_FACE ( 'NONE', ( #302, #187 ), #79, .T. ) ;
#58 = CARTESIAN_POINT ( 'NONE',  ( 8.728703347107835360E-16, 1.764999999999995017, 0.2500000000000000555 ) ) ;
#59 = CARTESIAN_POINT ( 'NONE',  ( 2.444036937190193601E-13, -8.572527594031472993E-15, 70.00000000000000000 ) ) ;
#60 = DIRECTION ( 'NONE',  ( 0.0000000000000000000, 1.000000000000000000, 0.0000000000000000000 ) ) ;
#61 = CC_DESIGN_DATE_AND_TIME_ASSIGNMENT ( #71, #88, ( #121 ) ) ;
#62 = AXIS2_PLACEMENT_3D ( 'NONE', #242, #263, #264 ) ;
#63 = APPROVAL_STATUS ( 'not_yet_approved' ) ;
#64 = EDGE_LOOP ( 'NONE', ( #262 ) ) ;
#65 = APPROVAL_DATE_TIME ( #112, #9 ) ;
#66 = ORIENTED_EDGE ( 'NONE', *, *, #260, .F. ) ;
#67 = CC_DESIGN_APPROVAL ( #115, ( #293 ) ) ;
#68 = PERSON_AND_ORGANIZATION ( #243, #36 ) ;
#69 = EDGE_LOOP ( 'NONE', ( #156 ) ) ;
#70 = APPLICATION_CONTEXT ( 'configuration controlled 3d designs of mechanical parts and assemblies' ) ;
#71 = DATE_AND_TIME ( #17, #173 ) ;
#72 = EDGE_LOOP ( 'NONE', ( #135 ) ) ;
#73 = ORIENTED_EDGE ( 'NONE', *, *, #238, .F. ) ;
#74 = AXIS2_PLACEMENT_3D ( 'NONE', #29, #120, #214 ) ;
#75 = FACE_BOUND ( 'NONE', #64, .T. ) ;
#76 = FACE_BOUND ( 'NONE', #157, .T. ) ;
#77 = APPROVAL ( #63, 'UNSPECIFIED' ) ;
#78 = CARTESIAN_POINT ( 'NONE',  ( 3.491481338843133355E-14, -1.224646799147353256E-15, 10.00000000000000000 ) ) ;
#79 = CONICAL_SURFACE ( 'NONE', #46, 1.514999999999994129, 0.7853981633974500554 ) ;
#80 = DIRECTION ( 'NONE',  ( 4.275831445896958607E-31, 1.000000000000000000, 1.224646799147353207E-16 ) ) ;
#81 = CARTESIAN_POINT ( 'NONE',  ( -6.477884640533867530E-31, 2.272136070732705682E-32, -1.855339900708233166E-16 ) ) ;
#82 = VERTEX_POINT ( 'NONE', #201 ) ;
#83 = DIRECTION ( 'NONE',  ( -3.491481338843133355E-15, 1.224646799147353207E-16, -1.000000000000000000 ) ) ;
#84 = AXIS2_PLACEMENT_3D ( 'NONE', #26, #1, #52 ) ;
#85 = MANIFOLD_SOLID_BREP ( 'Corps-Déplacer/Copier1[2]', #119 ) ;
#86 = CARTESIAN_POINT ( 'NONE',  ( 0.0000000000000000000, 0.0000000000000000000, 0.0000000000000000000 ) ) ;
#87 = CIRCLE ( 'NONE', #190, 1.200000000000001510 ) ;
#88 = DATE_TIME_ROLE ( 'creation_date' ) ;
#89 = EDGE_LOOP ( 'NONE', ( #206 ) ) ;
#90 = SECURITY_CLASSIFICATION_LEVEL ( 'unclassified' ) ;
#91 = ORIENTED_EDGE ( 'NONE', *, *, #238, .T. ) ;
#92 = AXIS2_PLACEMENT_3D ( 'NONE', #6, #241, #197 ) ;
#93 = PERSON_AND_ORGANIZATION_ROLE ( 'creator' ) ;
#94 = ORIENTED_EDGE ( 'NONE', *, *, #260, .T. ) ;
#95 = UNCERTAINTY_MEASURE_WITH_UNIT (LENGTH_MEASURE( 1.000000000000000082E-05 ), #12, 'distance_accuracy_value', 'NONE');
#96 = ORIENTED_EDGE ( 'NONE', *, *, #178, .F. ) ;
#97 = PLANE ( 'NONE',  #196 ) ;
#98 = CYLINDRICAL_SURFACE ( 'NONE', #128, 1.764999999999995017 ) ;
#99 = FACE_OUTER_BOUND ( 'NONE', #227, .T. ) ;
#100 = DIRECTION ( 'NONE',  ( -3.491481338843133355E-15, 1.224646799147353207E-16, -1.000000000000000000 ) ) ;
#101 = DIRECTION ( 'NONE',  ( 0.0000000000000000000, 1.000000000000000000, 0.0000000000000000000 ) ) ;
#102 = VERTEX_POINT ( 'NONE', #245 ) ;
#103 = EDGE_CURVE ( 'NONE', #248, #248, #150, .T. ) ;
#104 = CYLINDRICAL_SURFACE ( 'NONE', #226, 1.499999999999996891 ) ;
#105 = DIRECTION ( 'NONE',  ( -3.491481338843133355E-15, 1.224646799147353207E-16, -1.000000000000000000 ) ) ;
#106 = EDGE_LOOP ( 'NONE', ( #277 ) ) ;
#107 = CIRCLE ( 'NONE', #129, 1.764999999999995017 ) ;
#108 = CIRCLE ( 'NONE', #84, 1.500000000000001110 ) ;
#109 = COORDINATED_UNIVERSAL_TIME_OFFSET ( 1, 0, .AHEAD. ) ;
#110 = EDGE_LOOP ( 'NONE', ( #160 ) ) ;
#111 = PRODUCT ( '321579', '321579', '', ( #279 ) ) ;
#112 = DATE_AND_TIME ( #225, #3 ) ;
#113 = PRODUCT_DEFINITION_SHAPE ( 'NONE', 'NONE',  #121 ) ;
#114 = CARTESIAN_POINT ( 'NONE',  ( 2.444036937190193601E-13, -8.572527594031472993E-15, 70.00000000000000000 ) ) ;
#115 = APPROVAL ( #161, 'UNSPECIFIED' ) ;
#116 = PERSON_AND_ORGANIZATION ( #243, #36 ) ;
#117 = CARTESIAN_POINT ( 'NONE',  ( 2.444036937190193601E-13, 8.998558695971026591E-33, 70.00000000000000000 ) ) ;
#118 = CARTESIAN_POINT ( 'NONE',  ( 2.444036937190193601E-13, -8.572527594031472993E-15, 70.00000000000000000 ) ) ;
#119 = CLOSED_SHELL ( 'NONE', ( #244, #234, #57, #168, #298, #163, #294 ) ) ;
#120 = DIRECTION ( 'NONE',  ( -3.491481338843133355E-15, 1.224646799147353207E-16, -1.000000000000000000 ) ) ;
#121 = PRODUCT_DEFINITION ( 'UNKNOWN', '', #293, #21 ) ;
#122 = FACE_OUTER_BOUND ( 'NONE', #110, .T. ) ;
#123 = CARTESIAN_POINT ( 'NONE',  ( -6.477884640533867530E-31, 2.272136070732705682E-32, -1.855339900708233166E-16 ) ) ;
#124 = AXIS2_PLACEMENT_3D ( 'NONE', #78, #189, #283 ) ;
#125 = FACE_OUTER_BOUND ( 'NONE', #40, .T. ) ;
#126 = DIRECTION ( 'NONE',  ( 4.275831445896958607E-31, 1.000000000000000000, 1.224646799147353454E-16 ) ) ;
#127 = CARTESIAN_POINT ( 'NONE',  ( 2.444036937190193601E-13, 1.199999999999992628, 70.00000000000000000 ) ) ;
#128 = AXIS2_PLACEMENT_3D ( 'NONE', #192, #5, #80 ) ;
#129 = AXIS2_PLACEMENT_3D ( 'NONE', #265, #13, #60 ) ;
#130 = CARTESIAN_POINT ( 'NONE',  ( 3.491481338843133355E-14, 1.764999999999993685, 10.00000000000000000 ) ) ;
#131 = ORIENTED_EDGE ( 'NONE', *, *, #38, .F. ) ;
#132 = APPLICATION_PROTOCOL_DEFINITION ( 'international standard', 'config_control_design', 1994, #70 ) ;
#133 = DIRECTION ( 'NONE',  ( 0.0000000000000000000, 1.000000000000000000, 0.0000000000000000000 ) ) ;
#134 = CALENDAR_DATE ( 2021, 2, 12 ) ;
#135 = ORIENTED_EDGE ( 'NONE', *, *, #141, .T. ) ;
#136 = DATE_TIME_ROLE ( 'classification_date' ) ;
#137 = EDGE_LOOP ( 'NONE', ( #183 ) ) ;
#138 = CIRCLE ( 'NONE', #62, 1.764999999999995017 ) ;
#139 = FACE_OUTER_BOUND ( 'NONE', #205, .T. ) ;
#140 = DIRECTION ( 'NONE',  ( 0.0000000000000000000, 1.000000000000000000, 0.0000000000000000000 ) ) ;
#141 = EDGE_CURVE ( 'NONE', #288, #288, #108, .T. ) ;
#142 = DIRECTION ( 'NONE',  ( -3.491481338843133355E-15, 1.224646799147353207E-16, -1.000000000000000000 ) ) ;
#143 = AXIS2_PLACEMENT_3D ( 'NONE', #114, #255, #133 ) ;
#144 = FACE_OUTER_BOUND ( 'NONE', #45, .T. ) ;
#145 = FACE_BOUND ( 'NONE', #257, .T. ) ;
#146 = DIRECTION ( 'NONE',  ( 0.0000000000000000000, 1.000000000000000000, 0.0000000000000000000 ) ) ;
#147 = AXIS2_PLACEMENT_3D ( 'NONE', #237, #286, #235 ) ;
#148 = AXIS2_PLACEMENT_3D ( 'NONE', #59, #83, #151 ) ;
#149 = CARTESIAN_POINT ( 'NONE',  ( 3.651738050265839191E-14, -1.280857286799773501E-15, 10.45899346400575602 ) ) ;
#150 = CIRCLE ( 'NONE', #147, 1.764999999999995017 ) ;
#151 = DIRECTION ( 'NONE',  ( 4.275831445896958607E-31, 1.000000000000000000, 1.224646799147353207E-16 ) ) ;
#152 = VERTEX_POINT ( 'NONE', #222 ) ;
#153 = VERTEX_POINT ( 'NONE', #127 ) ;
#154 = PERSON_AND_ORGANIZATION_ROLE ( 'design_supplier' ) ;
#155 = CALENDAR_DATE ( 2021, 2, 12 ) ;
#156 = ORIENTED_EDGE ( 'NONE', *, *, #270, .F. ) ;
#157 = EDGE_LOOP ( 'NONE', ( #180 ) ) ;
#158 = AXIS2_PLACEMENT_3D ( 'NONE', #215, #100, #287 ) ;
#159 = APPROVAL_DATE_TIME ( #258, #115 ) ;
#160 = ORIENTED_EDGE ( 'NONE', *, *, #141, .F. ) ;
#161 = APPROVAL_STATUS ( 'not_yet_approved' ) ;
#162 = SECURITY_CLASSIFICATION ( '', '', #90 ) ;
#163 = ADVANCED_FACE ( 'NONE', ( #144, #75 ), #252, .T. ) ;
#164 = FACE_OUTER_BOUND ( 'NONE', #278, .T. ) ;
#165 = FACE_OUTER_BOUND ( 'NONE', #296, .T. ) ;
#166 = AXIS2_PLACEMENT_3D ( 'NONE', #81, #284, #193 ) ;
#167 = LOCAL_TIME ( 10, 35, 45.00000000000000000, #250 ) ;
#168 = ADVANCED_FACE ( 'NONE', ( #48 ), #97, .T. ) ;
#169 = DIRECTION ( 'NONE',  ( -3.491481338843133355E-15, 1.224646799147353207E-16, -1.000000000000000000 ) ) ;
#170 = DIRECTION ( 'NONE',  ( -4.275831445896958607E-31, -1.000000000000000000, -1.224646799147353454E-16 ) ) ;
#171 = VERTEX_POINT ( 'NONE', #291 ) ;
#172 = CLOSED_SHELL ( 'NONE', ( #199, #251, #275, #247, #194 ) ) ;
#173 = LOCAL_TIME ( 10, 35, 45.00000000000000000, #253 ) ;
#174 = PLANE ( 'NONE',  #148 ) ;
#175 = MANIFOLD_SOLID_BREP ( 'Corps-Déplacer/Copier1[1]', #172 ) ;
#176 = DATE_AND_TIME ( #223, #8 ) ;
#177 = APPROVAL_PERSON_ORGANIZATION ( #186, #115, #273 ) ;
#178 = EDGE_CURVE ( 'NONE', #219, #219, #138, .T. ) ;
#179 = COORDINATED_UNIVERSAL_TIME_OFFSET ( 1, 0, .AHEAD. ) ;
#180 = ORIENTED_EDGE ( 'NONE', *, *, #221, .T. ) ;
#181 = APPROVAL_ROLE ( '' ) ;
#182 = EDGE_CURVE ( 'NONE', #82, #82, #87, .T. ) ;
#183 = ORIENTED_EDGE ( 'NONE', *, *, #38, .T. ) ;
#184 = CIRCLE ( 'NONE', #50, 1.499999999999992895 ) ;
#185 = CC_DESIGN_APPROVAL ( #77, ( #121 ) ) ;
#186 = PERSON_AND_ORGANIZATION ( #243, #36 ) ;
#187 = FACE_BOUND ( 'NONE', #188, .T. ) ;
#188 = EDGE_LOOP ( 'NONE', ( #73 ) ) ;
#189 = DIRECTION ( 'NONE',  ( -3.491481338843133355E-15, 1.224646799147353207E-16, -1.000000000000000000 ) ) ;
#190 = AXIS2_PLACEMENT_3D ( 'NONE', #7, #142, #101 ) ;
#191 = CC_DESIGN_SECURITY_CLASSIFICATION ( #162, ( #293 ) ) ;
#192 = CARTESIAN_POINT ( 'NONE',  ( 0.0000000000000000000, 0.0000000000000000000, 0.0000000000000000000 ) ) ;
#193 = DIRECTION ( 'NONE',  ( 4.275831445896958607E-31, 1.000000000000000000, 1.224646799147353454E-16 ) ) ;
#194 = ADVANCED_FACE ( 'NONE', ( #195 ), #239, .F. ) ;
#195 = FACE_OUTER_BOUND ( 'NONE', #106, .T. ) ;
#196 = AXIS2_PLACEMENT_3D ( 'NONE', #31, #216, #47 ) ;
#197 = DIRECTION ( 'NONE',  ( -4.275831445896958607E-31, -1.000000000000000000, -1.224646799147353207E-16 ) ) ;
#198 = CARTESIAN_POINT ( 'NONE',  ( 3.651738050265839191E-14, 1.499999999999991562, 10.45899346400575602 ) ) ;
#199 = ADVANCED_FACE ( 'NONE', ( #212 ), #2, .F. ) ;
#200 = APPROVAL_PERSON_ORGANIZATION ( #116, #77, #181 ) ;
#201 = CARTESIAN_POINT ( 'NONE',  ( 2.444036937190193601E-13, 1.199999999999992628, 70.00000000000000000 ) ) ;
#202 = DIRECTION ( 'NONE',  ( -3.491481338843133355E-15, 1.224646799147353207E-16, -1.000000000000000000 ) ) ;
#203 = VERTEX_POINT ( 'NONE', #220 ) ;
#204 = CC_DESIGN_DATE_AND_TIME_ASSIGNMENT ( #176, #136, ( #162 ) ) ;
#205 = EDGE_LOOP ( 'NONE', ( #282 ) ) ;
#206 = ORIENTED_EDGE ( 'NONE', *, *, #182, .T. ) ;
#207 = EDGE_LOOP ( 'NONE', ( #91 ) ) ;
#208 = PERSON_AND_ORGANIZATION ( #243, #36 ) ;
#209 = CARTESIAN_POINT ( 'NONE',  ( 2.433562493173664138E-13, -8.535788190057053710E-15, 69.70000000000001705 ) ) ;
#210 = AXIS2_PLACEMENT_3D ( 'NONE', #209, #19, #231 ) ;
#211 = PERSON_AND_ORGANIZATION ( #243, #36 ) ;
#212 = FACE_OUTER_BOUND ( 'NONE', #280, .T. ) ;
#213 = DIRECTION ( 'NONE',  ( 4.275831445896958607E-31, 1.000000000000000000, 1.224646799147353207E-16 ) ) ;
#214 = DIRECTION ( 'NONE',  ( 0.0000000000000000000, 1.000000000000000000, 0.0000000000000000000 ) ) ;
#215 = CARTESIAN_POINT ( 'NONE',  ( 3.491481338843133355E-14, -1.224646799147353256E-15, 10.00000000000000000 ) ) ;
#216 = DIRECTION ( 'NONE',  ( -3.491481338843133355E-15, 1.224646799147353207E-16, -1.000000000000000000 ) ) ;
#217 = FACE_OUTER_BOUND ( 'NONE', #72, .T. ) ;
#218 = CARTESIAN_POINT ( 'NONE',  ( 0.0000000000000000000, 0.0000000000000000000, 0.0000000000000000000 ) ) ;
#219 = VERTEX_POINT ( 'NONE', #130 ) ;
#220 = CARTESIAN_POINT ( 'NONE',  ( 3.491481338843133355E-14, 1.764999999999993685, 10.00000000000000000 ) ) ;
#221 = EDGE_CURVE ( 'NONE', #55, #55, #184, .T. ) ;
#222 = CARTESIAN_POINT ( 'NONE',  ( 0.0000000000000000000, 1.514999999999994129, 0.0000000000000000000 ) ) ;
#223 = CALENDAR_DATE ( 2021, 2, 12 ) ;
#224 = ORIENTED_EDGE ( 'NONE', *, *, #221, .F. ) ;
#225 = CALENDAR_DATE ( 2021, 2, 12 ) ;
#226 = AXIS2_PLACEMENT_3D ( 'NONE', #218, #271, #272 ) ;
#227 = EDGE_LOOP ( 'NONE', ( #94 ) ) ;
#228 = CC_DESIGN_PERSON_AND_ORGANIZATION_ASSIGNMENT ( #300, #303, ( #111 ) ) ;
#229 = ORIENTED_EDGE ( 'NONE', *, *, #178, .T. ) ;
#230 = PERSON_AND_ORGANIZATION ( #243, #36 ) ;
#231 = DIRECTION ( 'NONE',  ( 0.0000000000000000000, 1.000000000000000000, 0.0000000000000000000 ) ) ;
#232 = APPROVAL_DATE_TIME ( #295, #77 ) ;
#233 = CIRCLE ( 'NONE', #210, 1.500000000000001110 ) ;
#234 = ADVANCED_FACE ( 'NONE', ( #99, #139 ), #98, .T. ) ;
#235 = DIRECTION ( 'NONE',  ( 4.364713754985249573E-31, 1.000000000000000000, 1.228557702533153022E-16 ) ) ;
#236 = CC_DESIGN_PERSON_AND_ORGANIZATION_ASSIGNMENT ( #211, #154, ( #293 ) ) ;
#237 = CARTESIAN_POINT ( 'NONE',  ( 8.728703347107827472E-16, -3.061616997868381169E-17, 0.2499999999999998335 ) ) ;
#238 = EDGE_CURVE ( 'NONE', #152, #152, #299, .T. ) ;
#239 = PLANE ( 'NONE',  #56 ) ;
#240 = APPROVAL_PERSON_ORGANIZATION ( #230, #9, #276 ) ;
#241 = DIRECTION ( 'NONE',  ( 3.491481338843133355E-15, -1.224646799147353207E-16, 1.000000000000000000 ) ) ;
#242 = CARTESIAN_POINT ( 'NONE',  ( 3.491481338843133355E-14, -1.224646799147353256E-15, 10.00000000000000000 ) ) ;
#243 = PERSON ( 'UNSPECIFIED', 'UNSPECIFIED', 'UNSPECIFIED', ('UNSPECIFIED'), ('UNSPECIFIED'), ('UNSPECIFIED') ) ;
#244 = ADVANCED_FACE ( 'NONE', ( #76, #164 ), #35, .T. ) ;
#245 = CARTESIAN_POINT ( 'NONE',  ( 2.433562493173664138E-13, 1.499999999999992673, 69.70000000000001705 ) ) ;
#246 = APPLICATION_PROTOCOL_DEFINITION ( 'international standard', 'config_control_design', 1994, #20 ) ;
#247 = ADVANCED_FACE ( 'NONE', ( #122, #49 ), #261, .T. ) ;
#248 = VERTEX_POINT ( 'NONE', #58 ) ;
#249 = SHAPE_DEFINITION_REPRESENTATION ( #113, #24 ) ;
#250 = COORDINATED_UNIVERSAL_TIME_OFFSET ( 1, 0, .AHEAD. ) ;
#251 = ADVANCED_FACE ( 'NONE', ( #145, #165 ), #268, .T. ) ;
#252 = CONICAL_SURFACE ( 'NONE', #292, 1.200000000000001510, 0.7853981633974566057 ) ;
#253 = COORDINATED_UNIVERSAL_TIME_OFFSET ( 1, 0, .AHEAD. ) ;
#254 =( GEOMETRIC_REPRESENTATION_CONTEXT ( 3 ) GLOBAL_UNCERTAINTY_ASSIGNED_CONTEXT ( ( #95 ) ) GLOBAL_UNIT_ASSIGNED_CONTEXT ( ( #12, #267, #32 ) ) REPRESENTATION_CONTEXT ( 'NONE', 'WORKASPACE' ) );
#255 = DIRECTION ( 'NONE',  ( -3.491481338843133355E-15, 1.224646799147353207E-16, -1.000000000000000000 ) ) ;
#256 = DIRECTION ( 'NONE',  ( 1.000000000000000000, 0.0000000000000000000, 0.0000000000000000000 ) ) ;
#257 = EDGE_LOOP ( 'NONE', ( #43 ) ) ;
#258 = DATE_AND_TIME ( #134, #41 ) ;
#259 = EDGE_LOOP ( 'NONE', ( #274 ) ) ;
#260 = EDGE_CURVE ( 'NONE', #203, #203, #107, .T. ) ;
#261 = CONICAL_SURFACE ( 'NONE', #74, 1.200000000000001510, 0.7853981633974566057 ) ;
#262 = ORIENTED_EDGE ( 'NONE', *, *, #4, .T. ) ;
#263 = DIRECTION ( 'NONE',  ( -3.491481338843133355E-15, 1.224646799147353207E-16, -1.000000000000000000 ) ) ;
#264 = DIRECTION ( 'NONE',  ( 0.0000000000000000000, 1.000000000000000000, 0.0000000000000000000 ) ) ;
#265 = CARTESIAN_POINT ( 'NONE',  ( 3.491481338843133355E-14, -1.224646799147353256E-15, 10.00000000000000000 ) ) ;
#266 = DIRECTION ( 'NONE',  ( -3.491481338843133355E-15, 1.224646799147353207E-16, -1.000000000000000000 ) ) ;
#267 =( NAMED_UNIT ( * ) PLANE_ANGLE_UNIT ( ) SI_UNIT ( $, .RADIAN. ) );
#268 = CONICAL_SURFACE ( 'NONE', #158, 1.764999999999995017, 0.5235987755982999259 ) ;
#269 = CARTESIAN_POINT ( 'NONE',  ( 0.0000000000000000000, 0.0000000000000000000, 0.0000000000000000000 ) ) ;
#270 = EDGE_CURVE ( 'NONE', #171, #171, #23, .T. ) ;
#271 = DIRECTION ( 'NONE',  ( -3.491481338843133355E-15, 1.224646799147353207E-16, -1.000000000000000000 ) ) ;
#272 = DIRECTION ( 'NONE',  ( 4.275831445896958607E-31, 1.000000000000000000, 1.224646799147353454E-16 ) ) ;
#273 = APPROVAL_ROLE ( '' ) ;
#274 = ORIENTED_EDGE ( 'NONE', *, *, #4, .F. ) ;
#275 = ADVANCED_FACE ( 'NONE', ( #33, #217 ), #104, .T. ) ;
#276 = APPROVAL_ROLE ( '' ) ;
#277 = ORIENTED_EDGE ( 'NONE', *, *, #182, .F. ) ;
#278 = EDGE_LOOP ( 'NONE', ( #66 ) ) ;
#279 = MECHANICAL_CONTEXT ( 'NONE', #20, 'mechanical' ) ;
#280 = EDGE_LOOP ( 'NONE', ( #229 ) ) ;
#281 = PRODUCT_RELATED_PRODUCT_CATEGORY ( 'detail', '', ( #111 ) ) ;
#282 = ORIENTED_EDGE ( 'NONE', *, *, #103, .F. ) ;
#283 = DIRECTION ( 'NONE',  ( 0.0000000000000000000, 1.000000000000000000, 0.0000000000000000000 ) ) ;
#284 = DIRECTION ( 'NONE',  ( -3.491481338843133355E-15, 1.224646799147353207E-16, -1.000000000000000000 ) ) ;
#285 = DIRECTION ( 'NONE',  ( -3.491481338843133355E-15, 1.224646799147353207E-16, -1.000000000000000000 ) ) ;
#286 = DIRECTION ( 'NONE',  ( -3.491481338843133355E-15, 1.224646799147353207E-16, -1.000000000000000000 ) ) ;
#287 = DIRECTION ( 'NONE',  ( 0.0000000000000000000, 1.000000000000000000, 0.0000000000000000000 ) ) ;
#288 = VERTEX_POINT ( 'NONE', #54 ) ;
#289 = AXIS2_PLACEMENT_3D ( 'NONE', #86, #105, #126 ) ;
#290 = FACE_OUTER_BOUND ( 'NONE', #137, .T. ) ;
#291 = CARTESIAN_POINT ( 'NONE',  ( 3.651738050265839191E-14, 1.499999999999991562, 10.45899346400575602 ) ) ;
#292 = AXIS2_PLACEMENT_3D ( 'NONE', #118, #169, #140 ) ;
#293 = PRODUCT_DEFINITION_FORMATION_WITH_SPECIFIED_SOURCE ( 'ANY', '', #111, .NOT_KNOWN. ) ;
#294 = ADVANCED_FACE ( 'NONE', ( #125, #290 ), #10, .T. ) ;
#295 = DATE_AND_TIME ( #155, #167 ) ;
#296 = EDGE_LOOP ( 'NONE', ( #96 ) ) ;
#297 = ORIENTED_EDGE ( 'NONE', *, *, #103, .T. ) ;
#298 = ADVANCED_FACE ( 'NONE', ( #37 ), #174, .F. ) ;
#299 = CIRCLE ( 'NONE', #166, 1.514999999999994129 ) ;
#300 = PERSON_AND_ORGANIZATION ( #243, #36 ) ;
#301 = AXIS2_PLACEMENT_3D ( 'NONE', #269, #34, #256 ) ;
#302 = FACE_OUTER_BOUND ( 'NONE', #15, .T. ) ;
#303 = PERSON_AND_ORGANIZATION_ROLE ( 'design_owner' ) ;
ENDSEC;
END-ISO-10303-21;
