ISO-10303-21;
HEADER;
FILE_DESCRIPTION (( 'STEP AP203' ),
    '1' );
FILE_NAME ('321578.step',
    '2021-12-02T09:35:45',
    ( '' ),
    ( '' ),
    'SwSTEP 2.0',
    'SolidWorks 2019',
    '' );
FILE_SCHEMA (( 'CONFIG_CONTROL_DESIGN' ));
ENDSEC;

DATA;
#1 =( NAMED_UNIT ( * ) SI_UNIT ( $, .STERADIAN. ) SOLID_ANGLE_UNIT ( ) );
#2 = AXIS2_PLACEMENT_3D ( 'NONE', #12, #271, #248 ) ;
#3 = APPROVAL_ROLE ( '' ) ;
#4 = EDGE_LOOP ( 'NONE', ( #114 ) ) ;
#5 = APPROVAL_DATE_TIME ( #225, #51 ) ;
#6 = APPROVAL_STATUS ( 'not_yet_approved' ) ;
#7 = EDGE_LOOP ( 'NONE', ( #55 ) ) ;
#8 = AXIS2_PLACEMENT_3D ( 'NONE', #125, #237, #71 ) ;
#9 = LOCAL_TIME ( 10, 35, 45.00000000000000000, #245 ) ;
#10 = APPROVAL_DATE_TIME ( #52, #95 ) ;
#11 = EDGE_LOOP ( 'NONE', ( #226 ) ) ;
#12 = CARTESIAN_POINT ( 'NONE',  ( 2.444036937190193601E-13, -8.572527594031472993E-15, 70.00000000000000000 ) ) ;
#13 = FACE_OUTER_BOUND ( 'NONE', #205, .T. ) ;
#14 = EDGE_LOOP ( 'NONE', ( #215 ) ) ;
#15 = AXIS2_PLACEMENT_3D ( 'NONE', #298, #168, #117 ) ;
#16 = CARTESIAN_POINT ( 'NONE',  ( 0.0000000000000000000, 0.0000000000000000000, 0.0000000000000000000 ) ) ;
#17 = FACE_OUTER_BOUND ( 'NONE', #141, .T. ) ;
#18 = DIRECTION ( 'NONE',  ( 4.275831445896958607E-31, 1.000000000000000000, 1.224646799147353207E-16 ) ) ;
#19 = EDGE_CURVE ( 'NONE', #282, #282, #288, .T. ) ;
#20 = VERTEX_POINT ( 'NONE', #72 ) ;
#21 = DIRECTION ( 'NONE',  ( -3.491481338843133355E-15, 1.224646799147353207E-16, -1.000000000000000000 ) ) ;
#22 = FACE_BOUND ( 'NONE', #162, .T. ) ;
#23 = FACE_OUTER_BOUND ( 'NONE', #7, .T. ) ;
#24 = AXIS2_PLACEMENT_3D ( 'NONE', #233, #62, #91 ) ;
#25 = DESIGN_CONTEXT ( 'detailed design', #67, 'design' ) ;
#26 = FACE_OUTER_BOUND ( 'NONE', #183, .T. ) ;
#27 = CALENDAR_DATE ( 2021, 2, 12 ) ;
#28 = PERSON_AND_ORGANIZATION ( #118, #283 ) ;
#29 = ORIENTED_EDGE ( 'NONE', *, *, #303, .T. ) ;
#30 = CALENDAR_DATE ( 2021, 2, 12 ) ;
#31 = APPLICATION_CONTEXT ( 'configuration controlled 3d designs of mechanical parts and assemblies' ) ;
#32 = DATE_TIME_ROLE ( 'creation_date' ) ;
#33 = CC_DESIGN_PERSON_AND_ORGANIZATION_ASSIGNMENT ( #204, #284, ( #199 ) ) ;
#34 = ORIENTED_EDGE ( 'NONE', *, *, #135, .T. ) ;
#35 = AXIS2_PLACEMENT_3D ( 'NONE', #236, #128, #202 ) ;
#36 = EDGE_CURVE ( 'NONE', #20, #20, #165, .T. ) ;
#37 = EDGE_LOOP ( 'NONE', ( #34 ) ) ;
#38 = EDGE_CURVE ( 'NONE', #300, #300, #297, .T. ) ;
#39 = EDGE_LOOP ( 'NONE', ( #111 ) ) ;
#40 = CLOSED_SHELL ( 'NONE', ( #191, #187, #129, #109, #131 ) ) ;
#41 = DIRECTION ( 'NONE',  ( -3.491481338843133355E-15, 1.224646799147353207E-16, -1.000000000000000000 ) ) ;
#42 = PRODUCT_DEFINITION_SHAPE ( 'NONE', 'NONE',  #157 ) ;
#43 = FACE_OUTER_BOUND ( 'NONE', #11, .T. ) ;
#44 = DIRECTION ( 'NONE',  ( 4.275831445896958607E-31, 1.000000000000000000, 1.224646799147353454E-16 ) ) ;
#45 = APPROVAL_PERSON_ORGANIZATION ( #28, #95, #56 ) ;
#46 = VERTEX_POINT ( 'NONE', #255 ) ;
#47 = CC_DESIGN_SECURITY_CLASSIFICATION ( #100, ( #199 ) ) ;
#48 = CARTESIAN_POINT ( 'NONE',  ( -8.552847072295026068E-47, 1.509999999999994014, 0.0000000000000000000 ) ) ;
#49 = PLANE ( 'NONE',  #249 ) ;
#50 = CARTESIAN_POINT ( 'NONE',  ( 2.444036937190193601E-13, 1.199999999999992628, 70.00000000000000000 ) ) ;
#51 = APPROVAL ( #83, 'UNSPECIFIED' ) ;
#52 = DATE_AND_TIME ( #260, #93 ) ;
#53 = PERSON_AND_ORGANIZATION_ROLE ( 'creator' ) ;
#54 = CIRCLE ( 'NONE', #262, 1.499999999999992895 ) ;
#55 = ORIENTED_EDGE ( 'NONE', *, *, #135, .F. ) ;
#56 = APPROVAL_ROLE ( '' ) ;
#57 = ADVANCED_FACE ( 'NONE', ( #43, #252 ), #203, .T. ) ;
#58 = ORIENTED_EDGE ( 'NONE', *, *, #36, .T. ) ;
#59 = AXIS2_PLACEMENT_3D ( 'NONE', #167, #231, #122 ) ;
#60 = EDGE_CURVE ( 'NONE', #201, #201, #170, .T. ) ;
#61 = CC_DESIGN_APPROVAL ( #243, ( #199 ) ) ;
#62 = DIRECTION ( 'NONE',  ( -3.491481338843133355E-15, 1.224646799147353207E-16, -1.000000000000000000 ) ) ;
#63 = FACE_OUTER_BOUND ( 'NONE', #265, .T. ) ;
#64 = FACE_OUTER_BOUND ( 'NONE', #14, .T. ) ;
#65 = ADVANCED_FACE ( 'NONE', ( #275, #17 ), #70, .T. ) ;
#66 = DIRECTION ( 'NONE',  ( -3.491481338843133355E-15, 1.224646799147353207E-16, -1.000000000000000000 ) ) ;
#67 = APPLICATION_CONTEXT ( 'configuration controlled 3d designs of mechanical parts and assemblies' ) ;
#68 = DIRECTION ( 'NONE',  ( 0.0000000000000000000, 1.000000000000000000, 0.0000000000000000000 ) ) ;
#69 = CARTESIAN_POINT ( 'NONE',  ( 8.728703347107827472E-16, -3.061616997868381169E-17, 0.2499999999999998335 ) ) ;
#70 = CONICAL_SURFACE ( 'NONE', #59, 1.759999999999994902, 0.5235987755983002589 ) ;
#71 = DIRECTION ( 'NONE',  ( 4.275831445896958607E-31, 1.000000000000000000, 1.224646799147353207E-16 ) ) ;
#72 = CARTESIAN_POINT ( 'NONE',  ( 3.648714338729562318E-14, 1.499999999999991562, 10.45033320996791026 ) ) ;
#73 = DIRECTION ( 'NONE',  ( 0.0000000000000000000, 1.000000000000000000, 0.0000000000000000000 ) ) ;
#74 =( GEOMETRIC_REPRESENTATION_CONTEXT ( 3 ) GLOBAL_UNCERTAINTY_ASSIGNED_CONTEXT ( ( #102 ) ) GLOBAL_UNIT_ASSIGNED_CONTEXT ( ( #299, #137, #1 ) ) REPRESENTATION_CONTEXT ( 'NONE', 'WORKASPACE' ) );
#75 = VERTEX_POINT ( 'NONE', #239 ) ;
#76 = ADVANCED_FACE ( 'NONE', ( #230, #13 ), #193, .T. ) ;
#77 = SECURITY_CLASSIFICATION_LEVEL ( 'unclassified' ) ;
#78 = APPLICATION_PROTOCOL_DEFINITION ( 'international standard', 'config_control_design', 1994, #31 ) ;
#79 = ORIENTED_EDGE ( 'NONE', *, *, #182, .T. ) ;
#80 = DIRECTION ( 'NONE',  ( 0.0000000000000000000, 0.0000000000000000000, 1.000000000000000000 ) ) ;
#81 = CONICAL_SURFACE ( 'NONE', #133, 1.759999999999994902, 0.5235987755983002589 ) ;
#82 = EDGE_LOOP ( 'NONE', ( #267 ) ) ;
#83 = APPROVAL_STATUS ( 'not_yet_approved' ) ;
#84 = CALENDAR_DATE ( 2021, 2, 12 ) ;
#85 = ADVANCED_FACE ( 'NONE', ( #216, #63 ), #296, .T. ) ;
#86 = EDGE_LOOP ( 'NONE', ( #212 ) ) ;
#87 = DIRECTION ( 'NONE',  ( 4.275831445896958607E-31, 1.000000000000000000, 1.224646799147353207E-16 ) ) ;
#88 = AXIS2_PLACEMENT_3D ( 'NONE', #121, #146, #119 ) ;
#89 = CARTESIAN_POINT ( 'NONE',  ( 2.444036937190193601E-13, -8.572527594031472993E-15, 70.00000000000000000 ) ) ;
#90 = CC_DESIGN_DATE_AND_TIME_ASSIGNMENT ( #156, #32, ( #157 ) ) ;
#91 = DIRECTION ( 'NONE',  ( 0.0000000000000000000, 1.000000000000000000, 0.0000000000000000000 ) ) ;
#92 = DIRECTION ( 'NONE',  ( -3.491481338843133355E-15, 1.224646799147353207E-16, -1.000000000000000000 ) ) ;
#93 = LOCAL_TIME ( 10, 35, 45.00000000000000000, #221 ) ;
#94 = DIRECTION ( 'NONE',  ( -3.491481338843133355E-15, 1.224646799147353207E-16, -1.000000000000000000 ) ) ;
#95 = APPROVAL ( #228, 'UNSPECIFIED' ) ;
#96 = PLANE ( 'NONE',  #268 ) ;
#97 = CARTESIAN_POINT ( 'NONE',  ( 2.444036937190193601E-13, -8.572527594031472993E-15, 70.00000000000000000 ) ) ;
#98 = EDGE_CURVE ( 'NONE', #254, #254, #273, .T. ) ;
#99 = DIRECTION ( 'NONE',  ( 0.0000000000000000000, 1.000000000000000000, 0.0000000000000000000 ) ) ;
#100 = SECURITY_CLASSIFICATION ( '', '', #77 ) ;
#101 = PLANE ( 'NONE',  #113 ) ;
#102 = UNCERTAINTY_MEASURE_WITH_UNIT (LENGTH_MEASURE( 1.000000000000000082E-05 ), #299, 'distance_accuracy_value', 'NONE');
#103 = CC_DESIGN_PERSON_AND_ORGANIZATION_ASSIGNMENT ( #106, #112, ( #199 ) ) ;
#104 = CARTESIAN_POINT ( 'NONE',  ( 2.433562493173664138E-13, -8.535788190057053710E-15, 69.70000000000001705 ) ) ;
#105 = AXIS2_PLACEMENT_3D ( 'NONE', #144, #66, #172 ) ;
#106 = PERSON_AND_ORGANIZATION ( #118, #283 ) ;
#107 = ORIENTED_EDGE ( 'NONE', *, *, #143, .T. ) ;
#108 = DATE_AND_TIME ( #27, #115 ) ;
#109 = ADVANCED_FACE ( 'NONE', ( #295, #188 ), #293, .T. ) ;
#110 = SHAPE_DEFINITION_REPRESENTATION ( #42, #235 ) ;
#111 = ORIENTED_EDGE ( 'NONE', *, *, #60, .T. ) ;
#112 = PERSON_AND_ORGANIZATION_ROLE ( 'creator' ) ;
#113 = AXIS2_PLACEMENT_3D ( 'NONE', #155, #302, #153 ) ;
#114 = ORIENTED_EDGE ( 'NONE', *, *, #198, .F. ) ;
#115 = LOCAL_TIME ( 10, 35, 45.00000000000000000, #163 ) ;
#116 = COORDINATED_UNIVERSAL_TIME_OFFSET ( 1, 0, .AHEAD. ) ;
#117 = DIRECTION ( 'NONE',  ( 4.275831445896958607E-31, 1.000000000000000000, 1.224646799147353454E-16 ) ) ;
#118 = PERSON ( 'UNSPECIFIED', 'UNSPECIFIED', 'UNSPECIFIED', ('UNSPECIFIED'), ('UNSPECIFIED'), ('UNSPECIFIED') ) ;
#119 = DIRECTION ( 'NONE',  ( 0.0000000000000000000, 1.000000000000000000, 0.0000000000000000000 ) ) ;
#120 = CARTESIAN_POINT ( 'NONE',  ( 3.648714338729562318E-14, -1.279796711561048654E-15, 10.45033320996791026 ) ) ;
#121 = CARTESIAN_POINT ( 'NONE',  ( 3.491481338843133355E-14, -1.224646799147353256E-15, 10.00000000000000000 ) ) ;
#122 = DIRECTION ( 'NONE',  ( 0.0000000000000000000, 1.000000000000000000, 0.0000000000000000000 ) ) ;
#123 = AXIS2_PLACEMENT_3D ( 'NONE', #264, #80, #246 ) ;
#124 = VERTEX_POINT ( 'NONE', #151 ) ;
#125 = CARTESIAN_POINT ( 'NONE',  ( -6.456505483304381940E-31, 2.264637271819396339E-32, -1.849216666712496043E-16 ) ) ;
#126 = VERTEX_POINT ( 'NONE', #50 ) ;
#127 = AXIS2_PLACEMENT_3D ( 'NONE', #250, #195, #173 ) ;
#128 = DIRECTION ( 'NONE',  ( 3.491481338843133355E-15, -1.224646799147353207E-16, 1.000000000000000000 ) ) ;
#129 = ADVANCED_FACE ( 'NONE', ( #64, #189 ), #270, .T. ) ;
#130 = DIRECTION ( 'NONE',  ( -3.491481338843133355E-15, 1.224646799147353207E-16, -1.000000000000000000 ) ) ;
#131 = ADVANCED_FACE ( 'NONE', ( #214 ), #211, .F. ) ;
#132 = APPROVAL_DATE_TIME ( #108, #243 ) ;
#133 = AXIS2_PLACEMENT_3D ( 'NONE', #256, #21, #238 ) ;
#134 = PERSON_AND_ORGANIZATION ( #118, #283 ) ;
#135 = EDGE_CURVE ( 'NONE', #126, #126, #194, .T. ) ;
#136 = EDGE_LOOP ( 'NONE', ( #29 ) ) ;
#137 =( NAMED_UNIT ( * ) PLANE_ANGLE_UNIT ( ) SI_UNIT ( $, .RADIAN. ) );
#138 = EDGE_LOOP ( 'NONE', ( #232 ) ) ;
#139 = AXIS2_PLACEMENT_3D ( 'NONE', #120, #94, #142 ) ;
#140 = PRODUCT_RELATED_PRODUCT_CATEGORY ( 'detail', '', ( #178 ) ) ;
#141 = EDGE_LOOP ( 'NONE', ( #164 ) ) ;
#142 = DIRECTION ( 'NONE',  ( 0.0000000000000000000, 1.000000000000000000, 0.0000000000000000000 ) ) ;
#143 = EDGE_CURVE ( 'NONE', #75, #75, #184, .T. ) ;
#144 = CARTESIAN_POINT ( 'NONE',  ( 2.444036937190193601E-13, -8.572527594031472993E-15, 70.00000000000000000 ) ) ;
#145 = CC_DESIGN_APPROVAL ( #51, ( #100 ) ) ;
#146 = DIRECTION ( 'NONE',  ( -3.491481338843133355E-15, 1.224646799147353207E-16, -1.000000000000000000 ) ) ;
#147 = CARTESIAN_POINT ( 'NONE',  ( 0.0000000000000000000, 0.0000000000000000000, 0.0000000000000000000 ) ) ;
#148 = VERTEX_POINT ( 'NONE', #48 ) ;
#149 = AXIS2_PLACEMENT_3D ( 'NONE', #69, #301, #179 ) ;
#150 = APPROVAL_PERSON_ORGANIZATION ( #261, #51, #161 ) ;
#151 = CARTESIAN_POINT ( 'NONE',  ( 8.728703347107835360E-16, 1.759999999999994902, 0.2500000000000000555 ) ) ;
#152 = CC_DESIGN_PERSON_AND_ORGANIZATION_ASSIGNMENT ( #185, #53, ( #157 ) ) ;
#153 = DIRECTION ( 'NONE',  ( 4.275831445896958607E-31, 1.000000000000000000, 1.224646799147353207E-16 ) ) ;
#154 = CIRCLE ( 'NONE', #8, 1.509999999999994014 ) ;
#155 = CARTESIAN_POINT ( 'NONE',  ( -3.228252741652190970E-31, 1.132318635909698170E-32, -9.246083333562480217E-17 ) ) ;
#156 = DATE_AND_TIME ( #84, #251 ) ;
#157 = PRODUCT_DEFINITION ( 'UNKNOWN', '', #199, #25 ) ;
#158 = CALENDAR_DATE ( 2021, 2, 12 ) ;
#159 = ADVANCED_FACE ( 'NONE', ( #277 ), #101, .T. ) ;
#160 = AXIS2_PLACEMENT_3D ( 'NONE', #16, #294, #18 ) ;
#161 = APPROVAL_ROLE ( '' ) ;
#162 = EDGE_LOOP ( 'NONE', ( #79 ) ) ;
#163 = COORDINATED_UNIVERSAL_TIME_OFFSET ( 1, 0, .AHEAD. ) ;
#164 = ORIENTED_EDGE ( 'NONE', *, *, #38, .F. ) ;
#165 = CIRCLE ( 'NONE', #139, 1.499999999999992895 ) ;
#166 = ORIENTED_EDGE ( 'NONE', *, *, #303, .F. ) ;
#167 = CARTESIAN_POINT ( 'NONE',  ( 3.491481338843133355E-14, -1.224646799147353256E-15, 10.00000000000000000 ) ) ;
#168 = DIRECTION ( 'NONE',  ( -3.491481338843133355E-15, 1.224646799147353207E-16, -1.000000000000000000 ) ) ;
#169 = DIRECTION ( 'NONE',  ( 0.0000000000000000000, 1.000000000000000000, 0.0000000000000000000 ) ) ;
#170 = CIRCLE ( 'NONE', #24, 1.759999999999994902 ) ;
#171 = CC_DESIGN_APPROVAL ( #95, ( #157 ) ) ;
#172 = DIRECTION ( 'NONE',  ( 0.0000000000000000000, 1.000000000000000000, 0.0000000000000000000 ) ) ;
#173 = DIRECTION ( 'NONE',  ( 0.0000000000000000000, 1.000000000000000000, 0.0000000000000000000 ) ) ;
#174 = MANIFOLD_SOLID_BREP ( 'Corps-Déplacer/Copier1[1]', #40 ) ;
#175 = CARTESIAN_POINT ( 'NONE',  ( 3.491481338843133355E-14, 1.759999999999993570, 10.00000000000000000 ) ) ;
#176 = CLOSED_SHELL ( 'NONE', ( #65, #85, #244, #159, #213, #57, #76 ) ) ;
#177 = CARTESIAN_POINT ( 'NONE',  ( 2.444036937190193601E-13, 1.199999999999992628, 70.00000000000000000 ) ) ;
#178 = PRODUCT ( '321578', '321578', '', ( #266 ) ) ;
#179 = DIRECTION ( 'NONE',  ( 4.377113509971003314E-31, 1.000000000000000000, 1.232047923278985897E-16 ) ) ;
#180 = DIRECTION ( 'NONE',  ( 3.491481338843133355E-15, -1.224646799147353207E-16, 1.000000000000000000 ) ) ;
#181 = CONICAL_SURFACE ( 'NONE', #35, 1.509999999999994014, 0.7853981633974500554 ) ;
#182 = EDGE_CURVE ( 'NONE', #46, #46, #54, .T. ) ;
#183 = EDGE_LOOP ( 'NONE', ( #229 ) ) ;
#184 = CIRCLE ( 'NONE', #258, 1.500000000000001110 ) ;
#185 = PERSON_AND_ORGANIZATION ( #118, #283 ) ;
#186 = ORIENTED_EDGE ( 'NONE', *, *, #19, .T. ) ;
#187 = ADVANCED_FACE ( 'NONE', ( #22, #26 ), #81, .T. ) ;
#188 = FACE_BOUND ( 'NONE', #290, .T. ) ;
#189 = FACE_OUTER_BOUND ( 'NONE', #224, .T. ) ;
#190 = EDGE_LOOP ( 'NONE', ( #287 ) ) ;
#191 = ADVANCED_FACE ( 'NONE', ( #200 ), #49, .F. ) ;
#192 = DIRECTION ( 'NONE',  ( -3.491481338843133355E-15, 1.224646799147353207E-16, -1.000000000000000000 ) ) ;
#193 = CYLINDRICAL_SURFACE ( 'NONE', #278, 1.499999999999996891 ) ;
#194 = CIRCLE ( 'NONE', #105, 1.200000000000001510 ) ;
#195 = DIRECTION ( 'NONE',  ( -3.491481338843133355E-15, 1.224646799147353207E-16, -1.000000000000000000 ) ) ;
#196 = DIRECTION ( 'NONE',  ( -3.491481338843133355E-15, 1.224646799147353207E-16, -1.000000000000000000 ) ) ;
#197 = AXIS2_PLACEMENT_3D ( 'NONE', #292, #274, #87 ) ;
#198 = EDGE_CURVE ( 'NONE', #148, #148, #154, .T. ) ;
#199 = PRODUCT_DEFINITION_FORMATION_WITH_SPECIFIED_SOURCE ( 'ANY', '', #178, .NOT_KNOWN. ) ;
#200 = FACE_OUTER_BOUND ( 'NONE', #39, .T. ) ;
#201 = VERTEX_POINT ( 'NONE', #281 ) ;
#202 = DIRECTION ( 'NONE',  ( -4.275831445896958607E-31, -1.000000000000000000, -1.224646799147353207E-16 ) ) ;
#203 = CONICAL_SURFACE ( 'NONE', #127, 1.200000000000001510, 0.7853981633974566057 ) ;
#204 = PERSON_AND_ORGANIZATION ( #118, #283 ) ;
#205 = EDGE_LOOP ( 'NONE', ( #186 ) ) ;
#206 = PERSON_AND_ORGANIZATION_ROLE ( 'design_owner' ) ;
#207 = APPLICATION_PROTOCOL_DEFINITION ( 'international standard', 'config_control_design', 1994, #67 ) ;
#208 = PERSON_AND_ORGANIZATION_ROLE ( 'classification_officer' ) ;
#209 = EDGE_LOOP ( 'NONE', ( #58 ) ) ;
#210 = CC_DESIGN_PERSON_AND_ORGANIZATION_ASSIGNMENT ( #223, #206, ( #178 ) ) ;
#211 = PLANE ( 'NONE',  #197 ) ;
#212 = ORIENTED_EDGE ( 'NONE', *, *, #198, .T. ) ;
#213 = ADVANCED_FACE ( 'NONE', ( #23 ), #96, .F. ) ;
#214 = FACE_OUTER_BOUND ( 'NONE', #291, .T. ) ;
#215 = ORIENTED_EDGE ( 'NONE', *, *, #182, .F. ) ;
#216 = FACE_OUTER_BOUND ( 'NONE', #138, .T. ) ;
#217 = CC_DESIGN_PERSON_AND_ORGANIZATION_ASSIGNMENT ( #134, #208, ( #100 ) ) ;
#218 = DIRECTION ( 'NONE',  ( 4.275831445896958607E-31, 1.000000000000000000, 1.224646799147353207E-16 ) ) ;
#219 = FACE_OUTER_BOUND ( 'NONE', #136, .T. ) ;
#220 = CARTESIAN_POINT ( 'NONE',  ( 2.433562493173664138E-13, 1.499999999999992673, 69.70000000000001705 ) ) ;
#221 = COORDINATED_UNIVERSAL_TIME_OFFSET ( 1, 0, .AHEAD. ) ;
#222 = APPROVAL_PERSON_ORGANIZATION ( #240, #243, #3 ) ;
#223 = PERSON_AND_ORGANIZATION ( #118, #283 ) ;
#224 = EDGE_LOOP ( 'NONE', ( #107 ) ) ;
#225 = DATE_AND_TIME ( #30, #9 ) ;
#226 = ORIENTED_EDGE ( 'NONE', *, *, #19, .F. ) ;
#227 = CIRCLE ( 'NONE', #149, 1.759999999999994902 ) ;
#228 = APPROVAL_STATUS ( 'not_yet_approved' ) ;
#229 = ORIENTED_EDGE ( 'NONE', *, *, #60, .F. ) ;
#230 = FACE_OUTER_BOUND ( 'NONE', #190, .T. ) ;
#231 = DIRECTION ( 'NONE',  ( -3.491481338843133355E-15, 1.224646799147353207E-16, -1.000000000000000000 ) ) ;
#232 = ORIENTED_EDGE ( 'NONE', *, *, #38, .T. ) ;
#233 = CARTESIAN_POINT ( 'NONE',  ( 3.491481338843133355E-14, -1.224646799147353256E-15, 10.00000000000000000 ) ) ;
#234 = DIRECTION ( 'NONE',  ( -3.491481338843133355E-15, 1.224646799147353207E-16, -1.000000000000000000 ) ) ;
#235 = ADVANCED_BREP_SHAPE_REPRESENTATION ( '321578', ( #174, #253, #123 ), #74 ) ;
#236 = CARTESIAN_POINT ( 'NONE',  ( -6.456505483304381940E-31, 2.264637271819396339E-32, -1.849216666712496043E-16 ) ) ;
#237 = DIRECTION ( 'NONE',  ( -3.491481338843133355E-15, 1.224646799147353207E-16, -1.000000000000000000 ) ) ;
#238 = DIRECTION ( 'NONE',  ( 0.0000000000000000000, 1.000000000000000000, 0.0000000000000000000 ) ) ;
#239 = CARTESIAN_POINT ( 'NONE',  ( 2.433562493173664138E-13, 1.499999999999992673, 69.70000000000001705 ) ) ;
#240 = PERSON_AND_ORGANIZATION ( #118, #283 ) ;
#241 = DATE_TIME_ROLE ( 'classification_date' ) ;
#242 = AXIS2_PLACEMENT_3D ( 'NONE', #247, #41, #169 ) ;
#243 = APPROVAL ( #6, 'UNSPECIFIED' ) ;
#244 = ADVANCED_FACE ( 'NONE', ( #219, #276 ), #181, .T. ) ;
#245 = COORDINATED_UNIVERSAL_TIME_OFFSET ( 1, 0, .AHEAD. ) ;
#246 = DIRECTION ( 'NONE',  ( 1.000000000000000000, 0.0000000000000000000, 0.0000000000000000000 ) ) ;
#247 = CARTESIAN_POINT ( 'NONE',  ( 2.433562493173664138E-13, -8.535788190057053710E-15, 69.70000000000001705 ) ) ;
#248 = DIRECTION ( 'NONE',  ( 0.0000000000000000000, 1.000000000000000000, 0.0000000000000000000 ) ) ;
#249 = AXIS2_PLACEMENT_3D ( 'NONE', #279, #180, #257 ) ;
#250 = CARTESIAN_POINT ( 'NONE',  ( 2.444036937190193601E-13, -8.572527594031472993E-15, 70.00000000000000000 ) ) ;
#251 = LOCAL_TIME ( 10, 35, 45.00000000000000000, #116 ) ;
#252 = FACE_BOUND ( 'NONE', #37, .T. ) ;
#253 = MANIFOLD_SOLID_BREP ( 'Corps-Déplacer/Copier1[2]', #176 ) ;
#254 = VERTEX_POINT ( 'NONE', #177 ) ;
#255 = CARTESIAN_POINT ( 'NONE',  ( 3.648714338729562318E-14, 1.499999999999991562, 10.45033320996791026 ) ) ;
#256 = CARTESIAN_POINT ( 'NONE',  ( 3.491481338843133355E-14, -1.224646799147353256E-15, 10.00000000000000000 ) ) ;
#257 = DIRECTION ( 'NONE',  ( -4.275831445896958607E-31, -1.000000000000000000, -1.224646799147353207E-16 ) ) ;
#258 = AXIS2_PLACEMENT_3D ( 'NONE', #104, #196, #99 ) ;
#259 = CARTESIAN_POINT ( 'NONE',  ( 3.648714338729562318E-14, -1.279796711561048654E-15, 10.45033320996791026 ) ) ;
#260 = CALENDAR_DATE ( 2021, 2, 12 ) ;
#261 = PERSON_AND_ORGANIZATION ( #118, #283 ) ;
#262 = AXIS2_PLACEMENT_3D ( 'NONE', #259, #234, #73 ) ;
#263 = LOCAL_TIME ( 10, 35, 45.00000000000000000, #285 ) ;
#264 = CARTESIAN_POINT ( 'NONE',  ( 0.0000000000000000000, 0.0000000000000000000, 0.0000000000000000000 ) ) ;
#265 = EDGE_LOOP ( 'NONE', ( #166 ) ) ;
#266 = MECHANICAL_CONTEXT ( 'NONE', #31, 'mechanical' ) ;
#267 = ORIENTED_EDGE ( 'NONE', *, *, #143, .F. ) ;
#268 = AXIS2_PLACEMENT_3D ( 'NONE', #97, #130, #218 ) ;
#269 = ORIENTED_EDGE ( 'NONE', *, *, #98, .F. ) ;
#270 = CYLINDRICAL_SURFACE ( 'NONE', #15, 1.499999999999996891 ) ;
#271 = DIRECTION ( 'NONE',  ( -3.491481338843133355E-15, 1.224646799147353207E-16, -1.000000000000000000 ) ) ;
#272 = AXIS2_PLACEMENT_3D ( 'NONE', #89, #92, #68 ) ;
#273 = CIRCLE ( 'NONE', #2, 1.200000000000001510 ) ;
#274 = DIRECTION ( 'NONE',  ( -3.491481338843133355E-15, 1.224646799147353207E-16, -1.000000000000000000 ) ) ;
#275 = FACE_BOUND ( 'NONE', #209, .T. ) ;
#276 = FACE_BOUND ( 'NONE', #4, .T. ) ;
#277 = FACE_OUTER_BOUND ( 'NONE', #86, .T. ) ;
#278 = AXIS2_PLACEMENT_3D ( 'NONE', #147, #192, #44 ) ;
#279 = CARTESIAN_POINT ( 'NONE',  ( 3.491481338843133355E-14, 1.319788608742429002E-32, 10.00000000000000000 ) ) ;
#280 = CC_DESIGN_DATE_AND_TIME_ASSIGNMENT ( #289, #241, ( #100 ) ) ;
#281 = CARTESIAN_POINT ( 'NONE',  ( 3.491481338843133355E-14, 1.759999999999993570, 10.00000000000000000 ) ) ;
#282 = VERTEX_POINT ( 'NONE', #220 ) ;
#283 = ORGANIZATION ( 'UNSPECIFIED', 'UNSPECIFIED', '' ) ;
#284 = PERSON_AND_ORGANIZATION_ROLE ( 'design_supplier' ) ;
#285 = COORDINATED_UNIVERSAL_TIME_OFFSET ( 1, 0, .AHEAD. ) ;
#286 = ORIENTED_EDGE ( 'NONE', *, *, #98, .T. ) ;
#287 = ORIENTED_EDGE ( 'NONE', *, *, #36, .F. ) ;
#288 = CIRCLE ( 'NONE', #242, 1.500000000000001110 ) ;
#289 = DATE_AND_TIME ( #158, #263 ) ;
#290 = EDGE_LOOP ( 'NONE', ( #286 ) ) ;
#291 = EDGE_LOOP ( 'NONE', ( #269 ) ) ;
#292 = CARTESIAN_POINT ( 'NONE',  ( 2.444036937190193601E-13, 8.998558695971026591E-33, 70.00000000000000000 ) ) ;
#293 = CONICAL_SURFACE ( 'NONE', #272, 1.200000000000001510, 0.7853981633974566057 ) ;
#294 = DIRECTION ( 'NONE',  ( -3.491481338843133355E-15, 1.224646799147353207E-16, -1.000000000000000000 ) ) ;
#295 = FACE_OUTER_BOUND ( 'NONE', #82, .T. ) ;
#296 = CYLINDRICAL_SURFACE ( 'NONE', #160, 1.759999999999994902 ) ;
#297 = CIRCLE ( 'NONE', #88, 1.759999999999994902 ) ;
#298 = CARTESIAN_POINT ( 'NONE',  ( 0.0000000000000000000, 0.0000000000000000000, 0.0000000000000000000 ) ) ;
#299 =( LENGTH_UNIT ( ) NAMED_UNIT ( * ) SI_UNIT ( .MILLI., .METRE. ) );
#300 = VERTEX_POINT ( 'NONE', #175 ) ;
#301 = DIRECTION ( 'NONE',  ( -3.491481338843133355E-15, 1.224646799147353207E-16, -1.000000000000000000 ) ) ;
#302 = DIRECTION ( 'NONE',  ( -3.491481338843133355E-15, 1.224646799147353207E-16, -1.000000000000000000 ) ) ;
#303 = EDGE_CURVE ( 'NONE', #124, #124, #227, .T. ) ;
ENDSEC;
END-ISO-10303-21;
