ISO-10303-21;
HEADER;
FILE_DESCRIPTION (( 'STEP AP203' ),
    '1' );
FILE_NAME ('321577.step',
    '2021-12-02T09:35:44',
    ( '' ),
    ( '' ),
    'SwSTEP 2.0',
    'SolidWorks 2019',
    '' );
FILE_SCHEMA (( 'CONFIG_CONTROL_DESIGN' ));
ENDSEC;

DATA;
#1 = PLANE ( 'NONE',  #86 ) ;
#2 = ORIENTED_EDGE ( 'NONE', *, *, #24, .F. ) ;
#3 = DIRECTION ( 'NONE',  ( -3.491481338843133355E-15, 1.224646799147353207E-16, -1.000000000000000000 ) ) ;
#4 = CARTESIAN_POINT ( 'NONE',  ( 2.433562493173664138E-13, -8.535788190057053710E-15, 69.70000000000001705 ) ) ;
#5 = DIRECTION ( 'NONE',  ( 4.275831445896958607E-31, 1.000000000000000000, 1.224646799147353207E-16 ) ) ;
#6 = VERTEX_POINT ( 'NONE', #71 ) ;
#7 = CONICAL_SURFACE ( 'NONE', #181, 1.200000000000001510, 0.7853981633974566057 ) ;
#8 = LOCAL_TIME ( 10, 35, 44.00000000000000000, #242 ) ;
#9 = ADVANCED_FACE ( 'NONE', ( #45, #284 ), #209, .T. ) ;
#10 = CARTESIAN_POINT ( 'NONE',  ( 2.444036937190193601E-13, -8.572527594031472993E-15, 70.00000000000000000 ) ) ;
#11 = DIRECTION ( 'NONE',  ( 0.0000000000000000000, 1.000000000000000000, 0.0000000000000000000 ) ) ;
#12 = CALENDAR_DATE ( 2021, 2, 12 ) ;
#13 = FACE_BOUND ( 'NONE', #303, .T. ) ;
#14 = CIRCLE ( 'NONE', #186, 1.200000000000001510 ) ;
#15 = LOCAL_TIME ( 10, 35, 44.00000000000000000, #222 ) ;
#16 = PERSON_AND_ORGANIZATION ( #256, #22 ) ;
#17 = PERSON_AND_ORGANIZATION ( #256, #22 ) ;
#18 = DIRECTION ( 'NONE',  ( 0.0000000000000000000, 0.0000000000000000000, 1.000000000000000000 ) ) ;
#19 = EDGE_LOOP ( 'NONE', ( #302 ) ) ;
#20 = EDGE_LOOP ( 'NONE', ( #119 ) ) ;
#21 = CIRCLE ( 'NONE', #54, 1.499999999999992895 ) ;
#22 = ORGANIZATION ( 'UNSPECIFIED', 'UNSPECIFIED', '' ) ;
#23 = UNCERTAINTY_MEASURE_WITH_UNIT (LENGTH_MEASURE( 1.000000000000000082E-05 ), #130, 'distance_accuracy_value', 'NONE');
#24 = EDGE_CURVE ( 'NONE', #265, #265, #229, .T. ) ;
#25 = DIRECTION ( 'NONE',  ( -3.491481338843133355E-15, 1.224646799147353207E-16, -1.000000000000000000 ) ) ;
#26 = CARTESIAN_POINT ( 'NONE',  ( -6.435126326074897226E-31, 2.257138472906086996E-32, -1.843093432716759414E-16 ) ) ;
#27 = DIRECTION ( 'NONE',  ( 0.0000000000000000000, 1.000000000000000000, 0.0000000000000000000 ) ) ;
#28 = DIRECTION ( 'NONE',  ( 4.275831445896958607E-31, 1.000000000000000000, 1.224646799147353454E-16 ) ) ;
#29 = DIRECTION ( 'NONE',  ( -3.491481338843133355E-15, 1.224646799147353207E-16, -1.000000000000000000 ) ) ;
#30 = AXIS2_PLACEMENT_3D ( 'NONE', #4, #236, #238 ) ;
#31 = DIRECTION ( 'NONE',  ( -3.491481338843133355E-15, 1.224646799147353207E-16, -1.000000000000000000 ) ) ;
#32 = EDGE_CURVE ( 'NONE', #6, #6, #33, .T. ) ;
#33 = CIRCLE ( 'NONE', #42, 1.504999999999994120 ) ;
#34 = SECURITY_CLASSIFICATION_LEVEL ( 'unclassified' ) ;
#35 = DIRECTION ( 'NONE',  ( -3.491481338843133355E-15, 1.224646799147353207E-16, -1.000000000000000000 ) ) ;
#36 = ORIENTED_EDGE ( 'NONE', *, *, #255, .T. ) ;
#37 = EDGE_LOOP ( 'NONE', ( #206 ) ) ;
#38 = CONICAL_SURFACE ( 'NONE', #207, 1.754999999999995008, 0.5235987755982995928 ) ;
#39 = CALENDAR_DATE ( 2021, 2, 12 ) ;
#40 = FACE_OUTER_BOUND ( 'NONE', #138, .T. ) ;
#41 = DIRECTION ( 'NONE',  ( -3.491481338843133355E-15, 1.224646799147353207E-16, -1.000000000000000000 ) ) ;
#42 = AXIS2_PLACEMENT_3D ( 'NONE', #47, #240, #192 ) ;
#43 = ORIENTED_EDGE ( 'NONE', *, *, #145, .F. ) ;
#44 = DIRECTION ( 'NONE',  ( 3.491481338843133355E-15, -1.224646799147353207E-16, 1.000000000000000000 ) ) ;
#45 = FACE_OUTER_BOUND ( 'NONE', #235, .T. ) ;
#46 = FACE_BOUND ( 'NONE', #261, .T. ) ;
#47 = CARTESIAN_POINT ( 'NONE',  ( -6.435126326074897226E-31, 2.257138472906086996E-32, -1.843093432716759414E-16 ) ) ;
#48 = DIRECTION ( 'NONE',  ( -3.491481338843133355E-15, 1.224646799147353207E-16, -1.000000000000000000 ) ) ;
#49 = AXIS2_PLACEMENT_3D ( 'NONE', #26, #44, #282 ) ;
#50 = APPROVAL_PERSON_ORGANIZATION ( #249, #270, #189 ) ;
#51 = APPROVAL_DATE_TIME ( #177, #208 ) ;
#52 = EDGE_CURVE ( 'NONE', #152, #152, #164, .T. ) ;
#53 = CARTESIAN_POINT ( 'NONE',  ( 2.444036937190193601E-13, 1.199999999999992628, 70.00000000000000000 ) ) ;
#54 = AXIS2_PLACEMENT_3D ( 'NONE', #96, #126, #193 ) ;
#55 = DIRECTION ( 'NONE',  ( 1.000000000000000000, 0.0000000000000000000, 0.0000000000000000000 ) ) ;
#56 = ADVANCED_FACE ( 'NONE', ( #63, #289 ), #165, .T. ) ;
#57 = VERTEX_POINT ( 'NONE', #297 ) ;
#58 = ORIENTED_EDGE ( 'NONE', *, *, #32, .F. ) ;
#59 = LOCAL_TIME ( 10, 35, 44.00000000000000000, #137 ) ;
#60 = CC_DESIGN_PERSON_AND_ORGANIZATION_ASSIGNMENT ( #103, #201, ( #74 ) ) ;
#61 = EDGE_LOOP ( 'NONE', ( #174 ) ) ;
#62 = CC_DESIGN_PERSON_AND_ORGANIZATION_ASSIGNMENT ( #107, #82, ( #90 ) ) ;
#63 = FACE_OUTER_BOUND ( 'NONE', #301, .T. ) ;
#64 = EDGE_LOOP ( 'NONE', ( #115 ) ) ;
#65 = VERTEX_POINT ( 'NONE', #168 ) ;
#66 = CARTESIAN_POINT ( 'NONE',  ( 2.444036937190193601E-13, -8.572527594031472993E-15, 70.00000000000000000 ) ) ;
#67 = PLANE ( 'NONE',  #246 ) ;
#68 = CARTESIAN_POINT ( 'NONE',  ( 3.491481338843133355E-14, 1.754999999999993676, 10.00000000000000000 ) ) ;
#69 = ADVANCED_FACE ( 'NONE', ( #120 ), #70, .F. ) ;
#70 = PLANE ( 'NONE',  #156 ) ;
#71 = CARTESIAN_POINT ( 'NONE',  ( 8.552847072295026068E-47, 1.504999999999994120, 0.0000000000000000000 ) ) ;
#72 =( NAMED_UNIT ( * ) SI_UNIT ( $, .STERADIAN. ) SOLID_ANGLE_UNIT ( ) );
#73 = CONICAL_SURFACE ( 'NONE', #49, 1.504999999999994120, 0.7853981633974500554 ) ;
#74 = PRODUCT_DEFINITION_FORMATION_WITH_SPECIFIED_SOURCE ( 'ANY', '', #77, .NOT_KNOWN. ) ;
#75 = PERSON_AND_ORGANIZATION ( #256, #22 ) ;
#76 = CARTESIAN_POINT ( 'NONE',  ( 3.491481338843133355E-14, -1.224646799147353256E-15, 10.00000000000000000 ) ) ;
#77 = PRODUCT ( '321577', '321577', '', ( #296 ) ) ;
#78 = COORDINATED_UNIVERSAL_TIME_OFFSET ( 1, 0, .AHEAD. ) ;
#79 = PERSON_AND_ORGANIZATION ( #256, #22 ) ;
#80 = APPROVAL_PERSON_ORGANIZATION ( #199, #208, #268 ) ;
#81 = DIRECTION ( 'NONE',  ( 0.0000000000000000000, 1.000000000000000000, 0.0000000000000000000 ) ) ;
#82 = PERSON_AND_ORGANIZATION_ROLE ( 'creator' ) ;
#83 = FACE_OUTER_BOUND ( 'NONE', #37, .T. ) ;
#84 = EDGE_LOOP ( 'NONE', ( #162 ) ) ;
#85 = EDGE_CURVE ( 'NONE', #65, #65, #21, .T. ) ;
#86 = AXIS2_PLACEMENT_3D ( 'NONE', #116, #194, #5 ) ;
#87 = DESIGN_CONTEXT ( 'detailed design', #223, 'design' ) ;
#88 = EDGE_LOOP ( 'NONE', ( #233 ) ) ;
#89 = APPROVAL_STATUS ( 'not_yet_approved' ) ;
#90 = PRODUCT_DEFINITION ( 'UNKNOWN', '', #74, #87 ) ;
#91 = EDGE_LOOP ( 'NONE', ( #36 ) ) ;
#92 = AXIS2_PLACEMENT_3D ( 'NONE', #264, #146, #259 ) ;
#93 = EDGE_LOOP ( 'NONE', ( #43 ) ) ;
#94 = DIRECTION ( 'NONE',  ( 0.0000000000000000000, 1.000000000000000000, 0.0000000000000000000 ) ) ;
#95 = DIRECTION ( 'NONE',  ( -3.491481338843133355E-15, 1.224646799147353207E-16, -1.000000000000000000 ) ) ;
#96 = CARTESIAN_POINT ( 'NONE',  ( 3.645690627193284814E-14, -1.278736136322323807E-15, 10.44167295593006628 ) ) ;
#97 = CARTESIAN_POINT ( 'NONE',  ( 8.728703347107827472E-16, -3.061616997868381169E-17, 0.2499999999999998335 ) ) ;
#98 = AXIS2_PLACEMENT_3D ( 'NONE', #10, #95, #101 ) ;
#99 = CARTESIAN_POINT ( 'NONE',  ( 2.444036937190193601E-13, -8.572527594031472993E-15, 70.00000000000000000 ) ) ;
#100 = FACE_OUTER_BOUND ( 'NONE', #61, .T. ) ;
#101 = DIRECTION ( 'NONE',  ( 0.0000000000000000000, 1.000000000000000000, 0.0000000000000000000 ) ) ;
#102 = DIRECTION ( 'NONE',  ( -3.491481338843133355E-15, 1.224646799147353207E-16, -1.000000000000000000 ) ) ;
#103 = PERSON_AND_ORGANIZATION ( #256, #22 ) ;
#104 = ADVANCED_BREP_SHAPE_REPRESENTATION ( '321577', ( #263, #276, #157 ), #125 ) ;
#105 = CARTESIAN_POINT ( 'NONE',  ( 3.491481338843133355E-14, 1.754999999999993676, 10.00000000000000000 ) ) ;
#106 = AXIS2_PLACEMENT_3D ( 'NONE', #97, #150, #124 ) ;
#107 = PERSON_AND_ORGANIZATION ( #256, #22 ) ;
#108 = PRODUCT_DEFINITION_SHAPE ( 'NONE', 'NONE',  #90 ) ;
#109 = CALENDAR_DATE ( 2021, 2, 12 ) ;
#110 = ADVANCED_FACE ( 'NONE', ( #218 ), #67, .F. ) ;
#111 = APPLICATION_PROTOCOL_DEFINITION ( 'international standard', 'config_control_design', 1994, #223 ) ;
#112 = ADVANCED_FACE ( 'NONE', ( #40, #148 ), #142, .T. ) ;
#113 = ORIENTED_EDGE ( 'NONE', *, *, #52, .T. ) ;
#114 = DATE_TIME_ROLE ( 'classification_date' ) ;
#115 = ORIENTED_EDGE ( 'NONE', *, *, #283, .T. ) ;
#116 = CARTESIAN_POINT ( 'NONE',  ( -3.217563163037448613E-31, 1.128569236453043498E-32, -9.215467163583797071E-17 ) ) ;
#117 = CIRCLE ( 'NONE', #151, 1.754999999999995008 ) ;
#118 = APPROVAL_PERSON_ORGANIZATION ( #17, #183, #220 ) ;
#119 = ORIENTED_EDGE ( 'NONE', *, *, #32, .T. ) ;
#120 = FACE_OUTER_BOUND ( 'NONE', #64, .T. ) ;
#121 = CARTESIAN_POINT ( 'NONE',  ( 2.444036937190193601E-13, 1.199999999999992628, 70.00000000000000000 ) ) ;
#122 = CC_DESIGN_PERSON_AND_ORGANIZATION_ASSIGNMENT ( #16, #176, ( #77 ) ) ;
#123 = DIRECTION ( 'NONE',  ( 4.275831445896958607E-31, 1.000000000000000000, 1.224646799147353454E-16 ) ) ;
#124 = DIRECTION ( 'NONE',  ( 4.389583918831319511E-31, 1.000000000000000000, 1.235558031322515757E-16 ) ) ;
#125 =( GEOMETRIC_REPRESENTATION_CONTEXT ( 3 ) GLOBAL_UNCERTAINTY_ASSIGNED_CONTEXT ( ( #23 ) ) GLOBAL_UNIT_ASSIGNED_CONTEXT ( ( #130, #273, #72 ) ) REPRESENTATION_CONTEXT ( 'NONE', 'WORKASPACE' ) );
#126 = DIRECTION ( 'NONE',  ( -3.491481338843133355E-15, 1.224646799147353207E-16, -1.000000000000000000 ) ) ;
#127 = ADVANCED_FACE ( 'NONE', ( #216 ), #1, .T. ) ;
#128 = DIRECTION ( 'NONE',  ( 0.0000000000000000000, 1.000000000000000000, 0.0000000000000000000 ) ) ;
#129 = DIRECTION ( 'NONE',  ( 0.0000000000000000000, 1.000000000000000000, 0.0000000000000000000 ) ) ;
#130 =( LENGTH_UNIT ( ) NAMED_UNIT ( * ) SI_UNIT ( .MILLI., .METRE. ) );
#131 = DIRECTION ( 'NONE',  ( -3.491481338843133355E-15, 1.224646799147353207E-16, -1.000000000000000000 ) ) ;
#132 = APPROVAL_STATUS ( 'not_yet_approved' ) ;
#133 = ADVANCED_FACE ( 'NONE', ( #190, #143 ), #7, .T. ) ;
#134 = FACE_OUTER_BOUND ( 'NONE', #84, .T. ) ;
#135 = SHAPE_DEFINITION_REPRESENTATION ( #108, #104 ) ;
#136 = LOCAL_TIME ( 10, 35, 44.00000000000000000, #184 ) ;
#137 = COORDINATED_UNIVERSAL_TIME_OFFSET ( 1, 0, .AHEAD. ) ;
#138 = EDGE_LOOP ( 'NONE', ( #253 ) ) ;
#139 = CC_DESIGN_PERSON_AND_ORGANIZATION_ASSIGNMENT ( #79, #244, ( #74 ) ) ;
#140 = EDGE_LOOP ( 'NONE', ( #185 ) ) ;
#141 = CONICAL_SURFACE ( 'NONE', #217, 1.200000000000001510, 0.7853981633974566057 ) ;
#142 = CYLINDRICAL_SURFACE ( 'NONE', #300, 1.754999999999995008 ) ;
#143 = FACE_BOUND ( 'NONE', #91, .T. ) ;
#144 = CONICAL_SURFACE ( 'NONE', #224, 1.754999999999995008, 0.5235987755982995928 ) ;
#145 = EDGE_CURVE ( 'NONE', #285, #285, #117, .T. ) ;
#146 = DIRECTION ( 'NONE',  ( -3.491481338843133355E-15, 1.224646799147353207E-16, -1.000000000000000000 ) ) ;
#147 = CARTESIAN_POINT ( 'NONE',  ( 2.444036937190193601E-13, 8.998558695971026591E-33, 70.00000000000000000 ) ) ;
#148 = FACE_OUTER_BOUND ( 'NONE', #88, .T. ) ;
#149 = CARTESIAN_POINT ( 'NONE',  ( 0.0000000000000000000, 0.0000000000000000000, 0.0000000000000000000 ) ) ;
#150 = DIRECTION ( 'NONE',  ( -3.491481338843133355E-15, 1.224646799147353207E-16, -1.000000000000000000 ) ) ;
#151 = AXIS2_PLACEMENT_3D ( 'NONE', #175, #102, #274 ) ;
#152 = VERTEX_POINT ( 'NONE', #191 ) ;
#153 = APPROVAL_DATE_TIME ( #291, #183 ) ;
#154 = APPROVAL_STATUS ( 'not_yet_approved' ) ;
#155 = CARTESIAN_POINT ( 'NONE',  ( 8.728703347107835360E-16, 1.754999999999995008, 0.2500000000000000555 ) ) ;
#156 = AXIS2_PLACEMENT_3D ( 'NONE', #195, #214, #167 ) ;
#157 = AXIS2_PLACEMENT_3D ( 'NONE', #180, #18, #55 ) ;
#158 = CARTESIAN_POINT ( 'NONE',  ( 3.491481338843133355E-14, -1.224646799147353256E-15, 10.00000000000000000 ) ) ;
#159 = APPLICATION_PROTOCOL_DEFINITION ( 'international standard', 'config_control_design', 1994, #288 ) ;
#160 = FACE_OUTER_BOUND ( 'NONE', #251, .T. ) ;
#161 = CIRCLE ( 'NONE', #106, 1.754999999999995008 ) ;
#162 = ORIENTED_EDGE ( 'NONE', *, *, #52, .F. ) ;
#163 = ADVANCED_FACE ( 'NONE', ( #134, #46 ), #141, .T. ) ;
#164 = CIRCLE ( 'NONE', #30, 1.500000000000001110 ) ;
#165 = CYLINDRICAL_SURFACE ( 'NONE', #202, 1.499999999999996891 ) ;
#166 = CARTESIAN_POINT ( 'NONE',  ( 2.444036937190193601E-13, -8.572527594031472993E-15, 70.00000000000000000 ) ) ;
#167 = DIRECTION ( 'NONE',  ( -4.275831445896958607E-31, -1.000000000000000000, -1.224646799147353207E-16 ) ) ;
#168 = CARTESIAN_POINT ( 'NONE',  ( 3.645690627193284814E-14, 1.499999999999991562, 10.44167295593006628 ) ) ;
#169 = AXIS2_PLACEMENT_3D ( 'NONE', #215, #48, #128 ) ;
#170 = SECURITY_CLASSIFICATION ( '', '', #34 ) ;
#171 = DIRECTION ( 'NONE',  ( -3.491481338843133355E-15, 1.224646799147353207E-16, -1.000000000000000000 ) ) ;
#172 = PLANE ( 'NONE',  #198 ) ;
#173 = ADVANCED_FACE ( 'NONE', ( #197, #294 ), #38, .T. ) ;
#174 = ORIENTED_EDGE ( 'NONE', *, *, #255, .F. ) ;
#175 = CARTESIAN_POINT ( 'NONE',  ( 3.491481338843133355E-14, -1.224646799147353256E-15, 10.00000000000000000 ) ) ;
#176 = PERSON_AND_ORGANIZATION_ROLE ( 'design_owner' ) ;
#177 = DATE_AND_TIME ( #109, #15 ) ;
#178 = DIRECTION ( 'NONE',  ( 0.0000000000000000000, 1.000000000000000000, 0.0000000000000000000 ) ) ;
#179 = EDGE_CURVE ( 'NONE', #262, #262, #210, .T. ) ;
#180 = CARTESIAN_POINT ( 'NONE',  ( 0.0000000000000000000, 0.0000000000000000000, 0.0000000000000000000 ) ) ;
#181 = AXIS2_PLACEMENT_3D ( 'NONE', #99, #35, #129 ) ;
#182 = VERTEX_POINT ( 'NONE', #105 ) ;
#183 = APPROVAL ( #154, 'UNSPECIFIED' ) ;
#184 = COORDINATED_UNIVERSAL_TIME_OFFSET ( 1, 0, .AHEAD. ) ;
#185 = ORIENTED_EDGE ( 'NONE', *, *, #85, .T. ) ;
#186 = AXIS2_PLACEMENT_3D ( 'NONE', #212, #3, #11 ) ;
#187 = CC_DESIGN_SECURITY_CLASSIFICATION ( #170, ( #74 ) ) ;
#188 = EDGE_LOOP ( 'NONE', ( #113 ) ) ;
#189 = APPROVAL_ROLE ( '' ) ;
#190 = FACE_OUTER_BOUND ( 'NONE', #247, .T. ) ;
#191 = CARTESIAN_POINT ( 'NONE',  ( 2.433562493173664138E-13, 1.499999999999992673, 69.70000000000001705 ) ) ;
#192 = DIRECTION ( 'NONE',  ( 4.275831445896958607E-31, 1.000000000000000000, 1.224646799147353207E-16 ) ) ;
#193 = DIRECTION ( 'NONE',  ( 0.0000000000000000000, 1.000000000000000000, 0.0000000000000000000 ) ) ;
#194 = DIRECTION ( 'NONE',  ( -3.491481338843133355E-15, 1.224646799147353207E-16, -1.000000000000000000 ) ) ;
#195 = CARTESIAN_POINT ( 'NONE',  ( 3.491481338843133355E-14, 1.316039209285774331E-32, 10.00000000000000000 ) ) ;
#196 = CARTESIAN_POINT ( 'NONE',  ( 3.491481338843133355E-14, -1.224646799147353256E-15, 10.00000000000000000 ) ) ;
#197 = FACE_BOUND ( 'NONE', #140, .T. ) ;
#198 = AXIS2_PLACEMENT_3D ( 'NONE', #147, #29, #287 ) ;
#199 = PERSON_AND_ORGANIZATION ( #256, #22 ) ;
#200 = DATE_AND_TIME ( #243, #295 ) ;
#201 = PERSON_AND_ORGANIZATION_ROLE ( 'creator' ) ;
#202 = AXIS2_PLACEMENT_3D ( 'NONE', #149, #41, #28 ) ;
#203 = PERSON_AND_ORGANIZATION_ROLE ( 'classification_officer' ) ;
#204 = PRODUCT_RELATED_PRODUCT_CATEGORY ( 'detail', '', ( #77 ) ) ;
#205 = EDGE_LOOP ( 'NONE', ( #58 ) ) ;
#206 = ORIENTED_EDGE ( 'NONE', *, *, #283, .F. ) ;
#207 = AXIS2_PLACEMENT_3D ( 'NONE', #158, #131, #81 ) ;
#208 = APPROVAL ( #132, 'UNSPECIFIED' ) ;
#209 = CYLINDRICAL_SURFACE ( 'NONE', #92, 1.499999999999996891 ) ;
#210 = CIRCLE ( 'NONE', #280, 1.500000000000001110 ) ;
#211 = ORIENTED_EDGE ( 'NONE', *, *, #245, .F. ) ;
#212 = CARTESIAN_POINT ( 'NONE',  ( 2.444036937190193601E-13, -8.572527594031472993E-15, 70.00000000000000000 ) ) ;
#213 = DIRECTION ( 'NONE',  ( -3.491481338843133355E-15, 1.224646799147353207E-16, -1.000000000000000000 ) ) ;
#214 = DIRECTION ( 'NONE',  ( 3.491481338843133355E-15, -1.224646799147353207E-16, 1.000000000000000000 ) ) ;
#215 = CARTESIAN_POINT ( 'NONE',  ( 3.645690627193284814E-14, -1.278736136322323807E-15, 10.44167295593006628 ) ) ;
#216 = FACE_OUTER_BOUND ( 'NONE', #20, .T. ) ;
#217 = AXIS2_PLACEMENT_3D ( 'NONE', #66, #31, #267 ) ;
#218 = FACE_OUTER_BOUND ( 'NONE', #281, .T. ) ;
#219 = FACE_BOUND ( 'NONE', #205, .T. ) ;
#220 = APPROVAL_ROLE ( '' ) ;
#221 = CLOSED_SHELL ( 'NONE', ( #69, #227, #56, #133, #278 ) ) ;
#222 = COORDINATED_UNIVERSAL_TIME_OFFSET ( 1, 0, .AHEAD. ) ;
#223 = APPLICATION_CONTEXT ( 'configuration controlled 3d designs of mechanical parts and assemblies' ) ;
#224 = AXIS2_PLACEMENT_3D ( 'NONE', #76, #269, #178 ) ;
#225 = CIRCLE ( 'NONE', #254, 1.754999999999995008 ) ;
#226 = ORIENTED_EDGE ( 'NONE', *, *, #179, .F. ) ;
#227 = ADVANCED_FACE ( 'NONE', ( #13, #83 ), #144, .T. ) ;
#228 = ORIENTED_EDGE ( 'NONE', *, *, #245, .T. ) ;
#229 = CIRCLE ( 'NONE', #98, 1.200000000000001510 ) ;
#230 = ORIENTED_EDGE ( 'NONE', *, *, #24, .T. ) ;
#231 = CLOSED_SHELL ( 'NONE', ( #173, #112, #234, #127, #110, #163, #9 ) ) ;
#232 = CALENDAR_DATE ( 2021, 2, 12 ) ;
#233 = ORIENTED_EDGE ( 'NONE', *, *, #248, .F. ) ;
#234 = ADVANCED_FACE ( 'NONE', ( #160, #219 ), #73, .T. ) ;
#235 = EDGE_LOOP ( 'NONE', ( #279 ) ) ;
#236 = DIRECTION ( 'NONE',  ( -3.491481338843133355E-15, 1.224646799147353207E-16, -1.000000000000000000 ) ) ;
#237 = CC_DESIGN_APPROVAL ( #208, ( #74 ) ) ;
#238 = DIRECTION ( 'NONE',  ( 0.0000000000000000000, 1.000000000000000000, 0.0000000000000000000 ) ) ;
#239 = CARTESIAN_POINT ( 'NONE',  ( 0.0000000000000000000, 0.0000000000000000000, 0.0000000000000000000 ) ) ;
#240 = DIRECTION ( 'NONE',  ( -3.491481338843133355E-15, 1.224646799147353207E-16, -1.000000000000000000 ) ) ;
#241 = VERTEX_POINT ( 'NONE', #53 ) ;
#242 = COORDINATED_UNIVERSAL_TIME_OFFSET ( 1, 0, .AHEAD. ) ;
#243 = CALENDAR_DATE ( 2021, 2, 12 ) ;
#244 = PERSON_AND_ORGANIZATION_ROLE ( 'design_supplier' ) ;
#245 = EDGE_CURVE ( 'NONE', #57, #57, #293, .T. ) ;
#246 = AXIS2_PLACEMENT_3D ( 'NONE', #166, #171, #257 ) ;
#247 = EDGE_LOOP ( 'NONE', ( #226 ) ) ;
#248 = EDGE_CURVE ( 'NONE', #271, #271, #161, .T. ) ;
#249 = PERSON_AND_ORGANIZATION ( #256, #22 ) ;
#250 = DATE_AND_TIME ( #232, #136 ) ;
#251 = EDGE_LOOP ( 'NONE', ( #299 ) ) ;
#252 = APPROVAL_DATE_TIME ( #277, #270 ) ;
#253 = ORIENTED_EDGE ( 'NONE', *, *, #145, .T. ) ;
#254 = AXIS2_PLACEMENT_3D ( 'NONE', #196, #290, #94 ) ;
#255 = EDGE_CURVE ( 'NONE', #241, #241, #14, .T. ) ;
#256 = PERSON ( 'UNSPECIFIED', 'UNSPECIFIED', 'UNSPECIFIED', ('UNSPECIFIED'), ('UNSPECIFIED'), ('UNSPECIFIED') ) ;
#257 = DIRECTION ( 'NONE',  ( 4.275831445896958607E-31, 1.000000000000000000, 1.224646799147353207E-16 ) ) ;
#258 = CC_DESIGN_PERSON_AND_ORGANIZATION_ASSIGNMENT ( #75, #203, ( #170 ) ) ;
#259 = DIRECTION ( 'NONE',  ( 4.275831445896958607E-31, 1.000000000000000000, 1.224646799147353454E-16 ) ) ;
#260 = CC_DESIGN_APPROVAL ( #183, ( #90 ) ) ;
#261 = EDGE_LOOP ( 'NONE', ( #230 ) ) ;
#262 = VERTEX_POINT ( 'NONE', #275 ) ;
#263 = MANIFOLD_SOLID_BREP ( 'Corps-Déplacer/Copier1[1]', #221 ) ;
#264 = CARTESIAN_POINT ( 'NONE',  ( 0.0000000000000000000, 0.0000000000000000000, 0.0000000000000000000 ) ) ;
#265 = VERTEX_POINT ( 'NONE', #121 ) ;
#266 = CC_DESIGN_DATE_AND_TIME_ASSIGNMENT ( #200, #272, ( #90 ) ) ;
#267 = DIRECTION ( 'NONE',  ( 0.0000000000000000000, 1.000000000000000000, 0.0000000000000000000 ) ) ;
#268 = APPROVAL_ROLE ( '' ) ;
#269 = DIRECTION ( 'NONE',  ( -3.491481338843133355E-15, 1.224646799147353207E-16, -1.000000000000000000 ) ) ;
#270 = APPROVAL ( #89, 'UNSPECIFIED' ) ;
#271 = VERTEX_POINT ( 'NONE', #155 ) ;
#272 = DATE_TIME_ROLE ( 'creation_date' ) ;
#273 =( NAMED_UNIT ( * ) PLANE_ANGLE_UNIT ( ) SI_UNIT ( $, .RADIAN. ) );
#274 = DIRECTION ( 'NONE',  ( 0.0000000000000000000, 1.000000000000000000, 0.0000000000000000000 ) ) ;
#275 = CARTESIAN_POINT ( 'NONE',  ( 2.433562493173664138E-13, 1.499999999999992673, 69.70000000000001705 ) ) ;
#276 = MANIFOLD_SOLID_BREP ( 'Corps-Déplacer/Copier1[2]', #231 ) ;
#277 = DATE_AND_TIME ( #39, #59 ) ;
#278 = ADVANCED_FACE ( 'NONE', ( #100 ), #172, .F. ) ;
#279 = ORIENTED_EDGE ( 'NONE', *, *, #85, .F. ) ;
#280 = AXIS2_PLACEMENT_3D ( 'NONE', #292, #213, #27 ) ;
#281 = EDGE_LOOP ( 'NONE', ( #2 ) ) ;
#282 = DIRECTION ( 'NONE',  ( -4.275831445896958607E-31, -1.000000000000000000, -1.224646799147353207E-16 ) ) ;
#283 = EDGE_CURVE ( 'NONE', #182, #182, #225, .T. ) ;
#284 = FACE_OUTER_BOUND ( 'NONE', #188, .T. ) ;
#285 = VERTEX_POINT ( 'NONE', #68 ) ;
#286 = CC_DESIGN_DATE_AND_TIME_ASSIGNMENT ( #250, #114, ( #170 ) ) ;
#287 = DIRECTION ( 'NONE',  ( 4.275831445896958607E-31, 1.000000000000000000, 1.224646799147353207E-16 ) ) ;
#288 = APPLICATION_CONTEXT ( 'configuration controlled 3d designs of mechanical parts and assemblies' ) ;
#289 = FACE_OUTER_BOUND ( 'NONE', #19, .T. ) ;
#290 = DIRECTION ( 'NONE',  ( -3.491481338843133355E-15, 1.224646799147353207E-16, -1.000000000000000000 ) ) ;
#291 = DATE_AND_TIME ( #12, #8 ) ;
#292 = CARTESIAN_POINT ( 'NONE',  ( 2.433562493173664138E-13, -8.535788190057053710E-15, 69.70000000000001705 ) ) ;
#293 = CIRCLE ( 'NONE', #169, 1.499999999999992895 ) ;
#294 = FACE_OUTER_BOUND ( 'NONE', #93, .T. ) ;
#295 = LOCAL_TIME ( 10, 35, 44.00000000000000000, #78 ) ;
#296 = MECHANICAL_CONTEXT ( 'NONE', #288, 'mechanical' ) ;
#297 = CARTESIAN_POINT ( 'NONE',  ( 3.645690627193284814E-14, 1.499999999999991562, 10.44167295593006628 ) ) ;
#298 = CC_DESIGN_APPROVAL ( #270, ( #170 ) ) ;
#299 = ORIENTED_EDGE ( 'NONE', *, *, #248, .T. ) ;
#300 = AXIS2_PLACEMENT_3D ( 'NONE', #239, #25, #123 ) ;
#301 = EDGE_LOOP ( 'NONE', ( #211 ) ) ;
#302 = ORIENTED_EDGE ( 'NONE', *, *, #179, .T. ) ;
#303 = EDGE_LOOP ( 'NONE', ( #228 ) ) ;
ENDSEC;
END-ISO-10303-21;
