ISO-10303-21;
HEADER;
FILE_DESCRIPTION (( 'STEP AP203' ),
    '1' );
FILE_NAME ('321576.step',
    '2021-12-02T09:35:43',
    ( '' ),
    ( '' ),
    'SwSTEP 2.0',
    'SolidWorks 2019',
    '' );
FILE_SCHEMA (( 'CONFIG_CONTROL_DESIGN' ));
ENDSEC;

DATA;
#1 = AXIS2_PLACEMENT_3D ( 'NONE', #18, #259, #116 ) ;
#2 =( NAMED_UNIT ( * ) SI_UNIT ( $, .STERADIAN. ) SOLID_ANGLE_UNIT ( ) );
#3 = APPLICATION_PROTOCOL_DEFINITION ( 'international standard', 'config_control_design', 1994, #191 ) ;
#4 = APPROVAL_DATE_TIME ( #220, #222 ) ;
#5 = CARTESIAN_POINT ( 'NONE',  ( 0.0000000000000000000, 0.0000000000000000000, 0.0000000000000000000 ) ) ;
#6 = EDGE_CURVE ( 'NONE', #216, #216, #43, .T. ) ;
#7 = ORIENTED_EDGE ( 'NONE', *, *, #291, .F. ) ;
#8 = CARTESIAN_POINT ( 'NONE',  ( 3.642666915657006678E-14, 1.499999999999991562, 10.43301270189222230 ) ) ;
#9 = PRODUCT_DEFINITION_SHAPE ( 'NONE', 'NONE',  #20 ) ;
#10 = CLOSED_SHELL ( 'NONE', ( #138, #45, #54, #62, #288 ) ) ;
#11 = CALENDAR_DATE ( 2021, 2, 12 ) ;
#12 = CIRCLE ( 'NONE', #285, 1.499999999999992895 ) ;
#13 = EDGE_LOOP ( 'NONE', ( #231 ) ) ;
#14 = EDGE_LOOP ( 'NONE', ( #105 ) ) ;
#15 = CARTESIAN_POINT ( 'NONE',  ( -6.413747168845411635E-31, 2.249639673992777380E-32, -1.836970198721022292E-16 ) ) ;
#16 = EDGE_LOOP ( 'NONE', ( #292 ) ) ;
#17 = AXIS2_PLACEMENT_3D ( 'NONE', #257, #166, #97 ) ;
#18 = CARTESIAN_POINT ( 'NONE',  ( 3.491481338843133355E-14, -1.224646799147353256E-15, 10.00000000000000000 ) ) ;
#19 = DIRECTION ( 'NONE',  ( 0.0000000000000000000, 1.000000000000000000, 0.0000000000000000000 ) ) ;
#20 = PRODUCT_DEFINITION ( 'UNKNOWN', '', #37, #272 ) ;
#21 = DIRECTION ( 'NONE',  ( -3.491481338843133355E-15, 1.224646799147353207E-16, -1.000000000000000000 ) ) ;
#22 = EDGE_CURVE ( 'NONE', #78, #78, #36, .T. ) ;
#23 = DIRECTION ( 'NONE',  ( -3.491481338843133355E-15, 1.224646799147353207E-16, -1.000000000000000000 ) ) ;
#24 = PRODUCT_RELATED_PRODUCT_CATEGORY ( 'detail', '', ( #81 ) ) ;
#25 = FACE_OUTER_BOUND ( 'NONE', #155, .T. ) ;
#26 = VERTEX_POINT ( 'NONE', #8 ) ;
#27 = AXIS2_PLACEMENT_3D ( 'NONE', #118, #23, #263 ) ;
#28 = APPROVAL ( #271, 'UNSPECIFIED' ) ;
#29 = DATE_AND_TIME ( #158, #47 ) ;
#30 = EDGE_CURVE ( 'NONE', #26, #26, #113, .T. ) ;
#31 = EDGE_LOOP ( 'NONE', ( #53 ) ) ;
#32 = PERSON_AND_ORGANIZATION_ROLE ( 'design_supplier' ) ;
#33 = ORIENTED_EDGE ( 'NONE', *, *, #243, .F. ) ;
#34 = ADVANCED_FACE ( 'NONE', ( #144, #89 ), #46, .T. ) ;
#35 = CARTESIAN_POINT ( 'NONE',  ( 2.444036937190193601E-13, -8.572527594031472993E-15, 70.00000000000000000 ) ) ;
#36 = CIRCLE ( 'NONE', #186, 1.749999999999994893 ) ;
#37 = PRODUCT_DEFINITION_FORMATION_WITH_SPECIFIED_SOURCE ( 'ANY', '', #81, .NOT_KNOWN. ) ;
#38 = APPROVAL_DATE_TIME ( #135, #296 ) ;
#39 = FACE_BOUND ( 'NONE', #31, .T. ) ;
#40 = FACE_OUTER_BOUND ( 'NONE', #128, .T. ) ;
#41 = DIRECTION ( 'NONE',  ( 0.0000000000000000000, 1.000000000000000000, 0.0000000000000000000 ) ) ;
#42 = CARTESIAN_POINT ( 'NONE',  ( 3.642666915657006678E-14, -1.277675561083598762E-15, 10.43301270189222230 ) ) ;
#43 = CIRCLE ( 'NONE', #175, 1.500000000000001110 ) ;
#44 = DIRECTION ( 'NONE',  ( -3.491481338843133355E-15, 1.224646799147353207E-16, -1.000000000000000000 ) ) ;
#45 = ADVANCED_FACE ( 'NONE', ( #39, #70 ), #230, .T. ) ;
#46 = CONICAL_SURFACE ( 'NONE', #170, 1.749999999999994893, 0.5235987755983001479 ) ;
#47 = LOCAL_TIME ( 10, 35, 43.00000000000000000, #87 ) ;
#48 = DIRECTION ( 'NONE',  ( 1.000000000000000000, 0.0000000000000000000, 0.0000000000000000000 ) ) ;
#49 = PERSON_AND_ORGANIZATION ( #248, #265 ) ;
#50 = CARTESIAN_POINT ( 'NONE',  ( 2.433562493173664138E-13, 1.499999999999992673, 69.70000000000001705 ) ) ;
#51 = CLOSED_SHELL ( 'NONE', ( #34, #278, #96, #297, #258, #251, #283 ) ) ;
#52 = LOCAL_TIME ( 10, 35, 43.00000000000000000, #160 ) ;
#53 = ORIENTED_EDGE ( 'NONE', *, *, #291, .T. ) ;
#54 = ADVANCED_FACE ( 'NONE', ( #93, #215 ), #141, .T. ) ;
#55 = EDGE_LOOP ( 'NONE', ( #171 ) ) ;
#56 = MANIFOLD_SOLID_BREP ( 'Corps-Déplacer/Copier1[1]', #10 ) ;
#57 = UNCERTAINTY_MEASURE_WITH_UNIT (LENGTH_MEASURE( 1.000000000000000082E-05 ), #148, 'distance_accuracy_value', 'NONE');
#58 = DIRECTION ( 'NONE',  ( 4.402125587170838069E-31, 1.000000000000000000, 1.239088197126294515E-16 ) ) ;
#59 = CIRCLE ( 'NONE', #65, 1.499999999999994005 ) ;
#60 = AXIS2_PLACEMENT_3D ( 'NONE', #15, #111, #137 ) ;
#61 = CONICAL_SURFACE ( 'NONE', #17, 1.200000000000001510, 0.7853981633974566057 ) ;
#62 = ADVANCED_FACE ( 'NONE', ( #164, #234 ), #156, .T. ) ;
#63 = DIRECTION ( 'NONE',  ( -3.491481338843133355E-15, 1.224646799147353207E-16, -1.000000000000000000 ) ) ;
#64 = DIRECTION ( 'NONE',  ( -3.491481338843133355E-15, 1.224646799147353207E-16, -1.000000000000000000 ) ) ;
#65 = AXIS2_PLACEMENT_3D ( 'NONE', #94, #21, #255 ) ;
#66 = LOCAL_TIME ( 10, 35, 43.00000000000000000, #276 ) ;
#67 = FACE_OUTER_BOUND ( 'NONE', #290, .T. ) ;
#68 = DIRECTION ( 'NONE',  ( 4.275831445896958607E-31, 1.000000000000000000, 1.224646799147353454E-16 ) ) ;
#69 = CARTESIAN_POINT ( 'NONE',  ( 2.444036937190193601E-13, 8.998558695971026591E-33, 70.00000000000000000 ) ) ;
#70 = FACE_OUTER_BOUND ( 'NONE', #13, .T. ) ;
#71 = CARTESIAN_POINT ( 'NONE',  ( 2.444036937190193601E-13, -8.572527594031472993E-15, 70.00000000000000000 ) ) ;
#72 = CC_DESIGN_PERSON_AND_ORGANIZATION_ASSIGNMENT ( #147, #75, ( #81 ) ) ;
#73 = CARTESIAN_POINT ( 'NONE',  ( 2.444036937190193601E-13, -8.572527594031472993E-15, 70.00000000000000000 ) ) ;
#74 = DIRECTION ( 'NONE',  ( 0.0000000000000000000, 0.0000000000000000000, 1.000000000000000000 ) ) ;
#75 = PERSON_AND_ORGANIZATION_ROLE ( 'design_owner' ) ;
#76 = PERSON_AND_ORGANIZATION ( #248, #265 ) ;
#77 = LOCAL_TIME ( 10, 35, 43.00000000000000000, #200 ) ;
#78 = VERTEX_POINT ( 'NONE', #172 ) ;
#79 = VERTEX_POINT ( 'NONE', #246 ) ;
#80 = EDGE_LOOP ( 'NONE', ( #7 ) ) ;
#81 = PRODUCT ( '321576', '321576', '', ( #245 ) ) ;
#82 = SECURITY_CLASSIFICATION ( '', '', #295 ) ;
#83 = EDGE_LOOP ( 'NONE', ( #154 ) ) ;
#84 = CC_DESIGN_PERSON_AND_ORGANIZATION_ASSIGNMENT ( #49, #134, ( #82 ) ) ;
#85 = APPROVAL_DATE_TIME ( #180, #28 ) ;
#86 = AXIS2_PLACEMENT_3D ( 'NONE', #142, #143, #303 ) ;
#87 = COORDINATED_UNIVERSAL_TIME_OFFSET ( 1, 0, .AHEAD. ) ;
#88 = APPROVAL_ROLE ( '' ) ;
#89 = FACE_OUTER_BOUND ( 'NONE', #159, .T. ) ;
#90 = CARTESIAN_POINT ( 'NONE',  ( 2.444036937190193601E-13, -8.572527594031472993E-15, 70.00000000000000000 ) ) ;
#91 = EDGE_CURVE ( 'NONE', #244, #244, #241, .T. ) ;
#92 = DIRECTION ( 'NONE',  ( 0.0000000000000000000, 1.000000000000000000, 0.0000000000000000000 ) ) ;
#93 = FACE_OUTER_BOUND ( 'NONE', #80, .T. ) ;
#94 = CARTESIAN_POINT ( 'NONE',  ( -6.413747168845411635E-31, 2.249639673992777380E-32, -1.836970198721022292E-16 ) ) ;
#95 = DIRECTION ( 'NONE',  ( -4.275831445896958607E-31, -1.000000000000000000, -1.224646799147353207E-16 ) ) ;
#96 = ADVANCED_FACE ( 'NONE', ( #256, #206 ), #126, .T. ) ;
#97 = DIRECTION ( 'NONE',  ( 0.0000000000000000000, 1.000000000000000000, 0.0000000000000000000 ) ) ;
#98 = SHAPE_DEFINITION_REPRESENTATION ( #9, #122 ) ;
#99 = ORIENTED_EDGE ( 'NONE', *, *, #208, .F. ) ;
#100 = CC_DESIGN_DATE_AND_TIME_ASSIGNMENT ( #29, #294, ( #82 ) ) ;
#101 = PERSON_AND_ORGANIZATION ( #248, #265 ) ;
#102 = CIRCLE ( 'NONE', #227, 1.200000000000001510 ) ;
#103 = ORIENTED_EDGE ( 'NONE', *, *, #30, .F. ) ;
#104 = PERSON_AND_ORGANIZATION ( #248, #265 ) ;
#105 = ORIENTED_EDGE ( 'NONE', *, *, #208, .T. ) ;
#106 = APPROVAL_STATUS ( 'not_yet_approved' ) ;
#107 = ORIENTED_EDGE ( 'NONE', *, *, #6, .T. ) ;
#108 = AXIS2_PLACEMENT_3D ( 'NONE', #260, #119, #95 ) ;
#109 = EDGE_LOOP ( 'NONE', ( #103 ) ) ;
#110 = EDGE_LOOP ( 'NONE', ( #229 ) ) ;
#111 = DIRECTION ( 'NONE',  ( 3.491481338843133355E-15, -1.224646799147353207E-16, 1.000000000000000000 ) ) ;
#112 = EDGE_LOOP ( 'NONE', ( #151 ) ) ;
#113 = CIRCLE ( 'NONE', #224, 1.499999999999992895 ) ;
#114 = CYLINDRICAL_SURFACE ( 'NONE', #262, 1.749999999999994893 ) ;
#115 = EDGE_CURVE ( 'NONE', #173, #173, #197, .T. ) ;
#116 = DIRECTION ( 'NONE',  ( 0.0000000000000000000, 1.000000000000000000, 0.0000000000000000000 ) ) ;
#117 = PLANE ( 'NONE',  #205 ) ;
#118 = CARTESIAN_POINT ( 'NONE',  ( 2.433562493173664138E-13, -8.535788190057053710E-15, 69.70000000000001705 ) ) ;
#119 = DIRECTION ( 'NONE',  ( 3.491481338843133355E-15, -1.224646799147353207E-16, 1.000000000000000000 ) ) ;
#120 = DIRECTION ( 'NONE',  ( -3.491481338843133355E-15, 1.224646799147353207E-16, -1.000000000000000000 ) ) ;
#121 = CARTESIAN_POINT ( 'NONE',  ( -3.206873584422705818E-31, 1.124819836996388690E-32, -9.184850993605111460E-17 ) ) ;
#122 = ADVANCED_BREP_SHAPE_REPRESENTATION ( '321576', ( #56, #153, #247 ), #203 ) ;
#123 = CARTESIAN_POINT ( 'NONE',  ( 3.491481338843133355E-14, 1.749999999999993561, 10.00000000000000000 ) ) ;
#124 = AXIS2_PLACEMENT_3D ( 'NONE', #73, #64, #92 ) ;
#125 = APPLICATION_PROTOCOL_DEFINITION ( 'international standard', 'config_control_design', 1994, #221 ) ;
#126 = CONICAL_SURFACE ( 'NONE', #60, 1.499999999999994005, 0.7853981633974500554 ) ;
#127 = APPROVAL_PERSON_ORGANIZATION ( #104, #222, #129 ) ;
#128 = EDGE_LOOP ( 'NONE', ( #99 ) ) ;
#129 = APPROVAL_ROLE ( '' ) ;
#130 = EDGE_CURVE ( 'NONE', #79, #79, #59, .T. ) ;
#131 = EDGE_LOOP ( 'NONE', ( #201 ) ) ;
#132 = APPROVAL_ROLE ( '' ) ;
#133 = ORIENTED_EDGE ( 'NONE', *, *, #22, .T. ) ;
#134 = PERSON_AND_ORGANIZATION_ROLE ( 'classification_officer' ) ;
#135 = DATE_AND_TIME ( #174, #66 ) ;
#136 = ORIENTED_EDGE ( 'NONE', *, *, #22, .F. ) ;
#137 = DIRECTION ( 'NONE',  ( -4.275831445896958607E-31, -1.000000000000000000, -1.224646799147353207E-16 ) ) ;
#138 = ADVANCED_FACE ( 'NONE', ( #207 ), #162, .F. ) ;
#139 = DIRECTION ( 'NONE',  ( 4.275831445896958607E-31, 1.000000000000000000, 1.224646799147352961E-16 ) ) ;
#140 = CC_DESIGN_PERSON_AND_ORGANIZATION_ASSIGNMENT ( #76, #269, ( #37 ) ) ;
#141 = CYLINDRICAL_SURFACE ( 'NONE', #167, 1.499999999999996891 ) ;
#142 = CARTESIAN_POINT ( 'NONE',  ( 3.491481338843133355E-14, -1.224646799147353256E-15, 10.00000000000000000 ) ) ;
#143 = DIRECTION ( 'NONE',  ( -3.491481338843133355E-15, 1.224646799147353207E-16, -1.000000000000000000 ) ) ;
#144 = FACE_BOUND ( 'NONE', #110, .T. ) ;
#145 = DIRECTION ( 'NONE',  ( -3.491481338843133355E-15, 1.224646799147353207E-16, -1.000000000000000000 ) ) ;
#146 = CARTESIAN_POINT ( 'NONE',  ( 2.444036937190193601E-13, 1.199999999999992628, 70.00000000000000000 ) ) ;
#147 = PERSON_AND_ORGANIZATION ( #248, #265 ) ;
#148 =( LENGTH_UNIT ( ) NAMED_UNIT ( * ) SI_UNIT ( .MILLI., .METRE. ) );
#149 = ORIENTED_EDGE ( 'NONE', *, *, #130, .F. ) ;
#150 =( NAMED_UNIT ( * ) PLANE_ANGLE_UNIT ( ) SI_UNIT ( $, .RADIAN. ) );
#151 = ORIENTED_EDGE ( 'NONE', *, *, #228, .T. ) ;
#152 = DIRECTION ( 'NONE',  ( 0.0000000000000000000, 1.000000000000000000, 0.0000000000000000000 ) ) ;
#153 = MANIFOLD_SOLID_BREP ( 'Corps-Déplacer/Copier1[2]', #51 ) ;
#154 = ORIENTED_EDGE ( 'NONE', *, *, #6, .F. ) ;
#155 = EDGE_LOOP ( 'NONE', ( #226 ) ) ;
#156 = CONICAL_SURFACE ( 'NONE', #279, 1.200000000000001510, 0.7853981633974566057 ) ;
#157 = CC_DESIGN_APPROVAL ( #28, ( #82 ) ) ;
#158 = CALENDAR_DATE ( 2021, 2, 12 ) ;
#159 = EDGE_LOOP ( 'NONE', ( #250 ) ) ;
#160 = COORDINATED_UNIVERSAL_TIME_OFFSET ( 1, 0, .AHEAD. ) ;
#161 = DIRECTION ( 'NONE',  ( 0.0000000000000000000, 1.000000000000000000, 0.0000000000000000000 ) ) ;
#162 = PLANE ( 'NONE',  #108 ) ;
#163 = FACE_OUTER_BOUND ( 'NONE', #16, .T. ) ;
#164 = FACE_OUTER_BOUND ( 'NONE', #199, .T. ) ;
#165 = DIRECTION ( 'NONE',  ( 4.275831445896958607E-31, 1.000000000000000000, 1.224646799147353207E-16 ) ) ;
#166 = DIRECTION ( 'NONE',  ( -3.491481338843133355E-15, 1.224646799147353207E-16, -1.000000000000000000 ) ) ;
#167 = AXIS2_PLACEMENT_3D ( 'NONE', #189, #281, #68 ) ;
#168 = PERSON_AND_ORGANIZATION ( #248, #265 ) ;
#169 = CALENDAR_DATE ( 2021, 2, 12 ) ;
#170 = AXIS2_PLACEMENT_3D ( 'NONE', #213, #120, #41 ) ;
#171 = ORIENTED_EDGE ( 'NONE', *, *, #91, .T. ) ;
#172 = CARTESIAN_POINT ( 'NONE',  ( 8.728703347107835360E-16, 1.749999999999994893, 0.2500000000000000555 ) ) ;
#173 = VERTEX_POINT ( 'NONE', #146 ) ;
#174 = CALENDAR_DATE ( 2021, 2, 12 ) ;
#175 = AXIS2_PLACEMENT_3D ( 'NONE', #204, #270, #152 ) ;
#176 = LOCAL_TIME ( 10, 35, 43.00000000000000000, #287 ) ;
#177 = EDGE_LOOP ( 'NONE', ( #133 ) ) ;
#178 = EDGE_LOOP ( 'NONE', ( #182 ) ) ;
#179 = CC_DESIGN_PERSON_AND_ORGANIZATION_ASSIGNMENT ( #202, #32, ( #37 ) ) ;
#180 = DATE_AND_TIME ( #11, #52 ) ;
#181 = AXIS2_PLACEMENT_3D ( 'NONE', #209, #280, #190 ) ;
#182 = ORIENTED_EDGE ( 'NONE', *, *, #243, .T. ) ;
#183 = DIRECTION ( 'NONE',  ( 0.0000000000000000000, 1.000000000000000000, 0.0000000000000000000 ) ) ;
#184 = DIRECTION ( 'NONE',  ( -3.491481338843133355E-15, 1.224646799147353207E-16, -1.000000000000000000 ) ) ;
#185 = DIRECTION ( 'NONE',  ( 0.0000000000000000000, 1.000000000000000000, 0.0000000000000000000 ) ) ;
#186 = AXIS2_PLACEMENT_3D ( 'NONE', #249, #273, #58 ) ;
#187 = FACE_OUTER_BOUND ( 'NONE', #112, .T. ) ;
#188 = AXIS2_PLACEMENT_3D ( 'NONE', #121, #192, #284 ) ;
#189 = CARTESIAN_POINT ( 'NONE',  ( 0.0000000000000000000, 0.0000000000000000000, 0.0000000000000000000 ) ) ;
#190 = DIRECTION ( 'NONE',  ( 4.275831445896958607E-31, 1.000000000000000000, 1.224646799147353454E-16 ) ) ;
#191 = APPLICATION_CONTEXT ( 'configuration controlled 3d designs of mechanical parts and assemblies' ) ;
#192 = DIRECTION ( 'NONE',  ( -3.491481338843133355E-15, 1.224646799147353207E-16, -1.000000000000000000 ) ) ;
#193 = DIRECTION ( 'NONE',  ( 4.275831445896958607E-31, 1.000000000000000000, 1.224646799147353207E-16 ) ) ;
#194 = EDGE_LOOP ( 'NONE', ( #149 ) ) ;
#195 = EDGE_LOOP ( 'NONE', ( #136 ) ) ;
#196 = CALENDAR_DATE ( 2021, 2, 12 ) ;
#197 = CIRCLE ( 'NONE', #124, 1.200000000000001510 ) ;
#198 = APPROVAL_STATUS ( 'not_yet_approved' ) ;
#199 = EDGE_LOOP ( 'NONE', ( #33 ) ) ;
#200 = COORDINATED_UNIVERSAL_TIME_OFFSET ( 1, 0, .AHEAD. ) ;
#201 = ORIENTED_EDGE ( 'NONE', *, *, #115, .T. ) ;
#202 = PERSON_AND_ORGANIZATION ( #248, #265 ) ;
#203 =( GEOMETRIC_REPRESENTATION_CONTEXT ( 3 ) GLOBAL_UNCERTAINTY_ASSIGNED_CONTEXT ( ( #57 ) ) GLOBAL_UNIT_ASSIGNED_CONTEXT ( ( #148, #150, #2 ) ) REPRESENTATION_CONTEXT ( 'NONE', 'WORKASPACE' ) );
#204 = CARTESIAN_POINT ( 'NONE',  ( 2.433562493173664138E-13, -8.535788190057053710E-15, 69.70000000000001705 ) ) ;
#205 = AXIS2_PLACEMENT_3D ( 'NONE', #90, #211, #193 ) ;
#206 = FACE_BOUND ( 'NONE', #194, .T. ) ;
#207 = FACE_OUTER_BOUND ( 'NONE', #55, .T. ) ;
#208 = EDGE_CURVE ( 'NONE', #225, #225, #102, .T. ) ;
#209 = CARTESIAN_POINT ( 'NONE',  ( 0.0000000000000000000, 0.0000000000000000000, 0.0000000000000000000 ) ) ;
#210 = DIRECTION ( 'NONE',  ( -3.491481338843133355E-15, 1.224646799147353207E-16, -1.000000000000000000 ) ) ;
#211 = DIRECTION ( 'NONE',  ( -3.491481338843133355E-15, 1.224646799147353207E-16, -1.000000000000000000 ) ) ;
#212 = AXIS2_PLACEMENT_3D ( 'NONE', #69, #282, #165 ) ;
#213 = CARTESIAN_POINT ( 'NONE',  ( 3.491481338843133355E-14, -1.224646799147353256E-15, 10.00000000000000000 ) ) ;
#214 = DIRECTION ( 'NONE',  ( -3.491481338843133355E-15, 1.224646799147353207E-16, -1.000000000000000000 ) ) ;
#215 = FACE_OUTER_BOUND ( 'NONE', #178, .T. ) ;
#216 = VERTEX_POINT ( 'NONE', #286 ) ;
#217 = CARTESIAN_POINT ( 'NONE',  ( 2.444036937190193601E-13, 1.199999999999992628, 70.00000000000000000 ) ) ;
#218 = AXIS2_PLACEMENT_3D ( 'NONE', #277, #63, #161 ) ;
#219 = PERSON_AND_ORGANIZATION ( #248, #265 ) ;
#220 = DATE_AND_TIME ( #169, #176 ) ;
#221 = APPLICATION_CONTEXT ( 'configuration controlled 3d designs of mechanical parts and assemblies' ) ;
#222 = APPROVAL ( #198, 'UNSPECIFIED' ) ;
#223 = VERTEX_POINT ( 'NONE', #240 ) ;
#224 = AXIS2_PLACEMENT_3D ( 'NONE', #253, #210, #185 ) ;
#225 = VERTEX_POINT ( 'NONE', #217 ) ;
#226 = ORIENTED_EDGE ( 'NONE', *, *, #130, .T. ) ;
#227 = AXIS2_PLACEMENT_3D ( 'NONE', #35, #145, #19 ) ;
#228 = EDGE_CURVE ( 'NONE', #267, #267, #274, .T. ) ;
#229 = ORIENTED_EDGE ( 'NONE', *, *, #30, .T. ) ;
#230 = CONICAL_SURFACE ( 'NONE', #1, 1.749999999999994893, 0.5235987755983001479 ) ;
#231 = ORIENTED_EDGE ( 'NONE', *, *, #91, .F. ) ;
#232 = FACE_OUTER_BOUND ( 'NONE', #109, .T. ) ;
#233 = FACE_OUTER_BOUND ( 'NONE', #83, .T. ) ;
#234 = FACE_BOUND ( 'NONE', #131, .T. ) ;
#235 = APPROVAL_PERSON_ORGANIZATION ( #168, #296, #132 ) ;
#236 = DIRECTION ( 'NONE',  ( 0.0000000000000000000, 1.000000000000000000, 0.0000000000000000000 ) ) ;
#237 = CC_DESIGN_APPROVAL ( #296, ( #37 ) ) ;
#238 = FACE_BOUND ( 'NONE', #14, .T. ) ;
#239 = PERSON_AND_ORGANIZATION_ROLE ( 'creator' ) ;
#240 = CARTESIAN_POINT ( 'NONE',  ( 3.642666915657006678E-14, 1.499999999999991562, 10.43301270189222230 ) ) ;
#241 = CIRCLE ( 'NONE', #218, 1.749999999999994893 ) ;
#242 = CIRCLE ( 'NONE', #27, 1.500000000000001110 ) ;
#243 = EDGE_CURVE ( 'NONE', #266, #266, #242, .T. ) ;
#244 = VERTEX_POINT ( 'NONE', #123 ) ;
#245 = MECHANICAL_CONTEXT ( 'NONE', #191, 'mechanical' ) ;
#246 = CARTESIAN_POINT ( 'NONE',  ( 0.0000000000000000000, 1.499999999999994005, 0.0000000000000000000 ) ) ;
#247 = AXIS2_PLACEMENT_3D ( 'NONE', #5, #74, #48 ) ;
#248 = PERSON ( 'UNSPECIFIED', 'UNSPECIFIED', 'UNSPECIFIED', ('UNSPECIFIED'), ('UNSPECIFIED'), ('UNSPECIFIED') ) ;
#249 = CARTESIAN_POINT ( 'NONE',  ( 8.728703347107827472E-16, -3.061616997868381169E-17, 0.2499999999999998335 ) ) ;
#250 = ORIENTED_EDGE ( 'NONE', *, *, #228, .F. ) ;
#251 = ADVANCED_FACE ( 'NONE', ( #233, #238 ), #61, .T. ) ;
#252 = CC_DESIGN_SECURITY_CLASSIFICATION ( #82, ( #37 ) ) ;
#253 = CARTESIAN_POINT ( 'NONE',  ( 3.642666915657006678E-14, -1.277675561083598762E-15, 10.43301270189222230 ) ) ;
#254 = CC_DESIGN_DATE_AND_TIME_ASSIGNMENT ( #293, #289, ( #20 ) ) ;
#255 = DIRECTION ( 'NONE',  ( 4.275831445896958607E-31, 1.000000000000000000, 1.224646799147353207E-16 ) ) ;
#256 = FACE_OUTER_BOUND ( 'NONE', #177, .T. ) ;
#257 = CARTESIAN_POINT ( 'NONE',  ( 2.444036937190193601E-13, -8.572527594031472993E-15, 70.00000000000000000 ) ) ;
#258 = ADVANCED_FACE ( 'NONE', ( #40 ), #117, .F. ) ;
#259 = DIRECTION ( 'NONE',  ( -3.491481338843133355E-15, 1.224646799147353207E-16, -1.000000000000000000 ) ) ;
#260 = CARTESIAN_POINT ( 'NONE',  ( 3.491481338843133355E-14, 1.312289809829119659E-32, 10.00000000000000000 ) ) ;
#261 = PLANE ( 'NONE',  #212 ) ;
#262 = AXIS2_PLACEMENT_3D ( 'NONE', #298, #184, #139 ) ;
#263 = DIRECTION ( 'NONE',  ( 0.0000000000000000000, 1.000000000000000000, 0.0000000000000000000 ) ) ;
#264 = CARTESIAN_POINT ( 'NONE',  ( 3.491481338843133355E-14, 1.749999999999993561, 10.00000000000000000 ) ) ;
#265 = ORGANIZATION ( 'UNSPECIFIED', 'UNSPECIFIED', '' ) ;
#266 = VERTEX_POINT ( 'NONE', #50 ) ;
#267 = VERTEX_POINT ( 'NONE', #264 ) ;
#268 = CC_DESIGN_APPROVAL ( #222, ( #20 ) ) ;
#269 = PERSON_AND_ORGANIZATION_ROLE ( 'creator' ) ;
#270 = DIRECTION ( 'NONE',  ( -3.491481338843133355E-15, 1.224646799147353207E-16, -1.000000000000000000 ) ) ;
#271 = APPROVAL_STATUS ( 'not_yet_approved' ) ;
#272 = DESIGN_CONTEXT ( 'detailed design', #221, 'design' ) ;
#273 = DIRECTION ( 'NONE',  ( -3.491481338843133355E-15, 1.224646799147353207E-16, -1.000000000000000000 ) ) ;
#274 = CIRCLE ( 'NONE', #86, 1.749999999999994893 ) ;
#275 = CC_DESIGN_PERSON_AND_ORGANIZATION_ASSIGNMENT ( #101, #239, ( #20 ) ) ;
#276 = COORDINATED_UNIVERSAL_TIME_OFFSET ( 1, 0, .AHEAD. ) ;
#277 = CARTESIAN_POINT ( 'NONE',  ( 3.491481338843133355E-14, -1.224646799147353256E-15, 10.00000000000000000 ) ) ;
#278 = ADVANCED_FACE ( 'NONE', ( #187, #299 ), #114, .T. ) ;
#279 = AXIS2_PLACEMENT_3D ( 'NONE', #71, #44, #183 ) ;
#280 = DIRECTION ( 'NONE',  ( -3.491481338843133355E-15, 1.224646799147353207E-16, -1.000000000000000000 ) ) ;
#281 = DIRECTION ( 'NONE',  ( -3.491481338843133355E-15, 1.224646799147353207E-16, -1.000000000000000000 ) ) ;
#282 = DIRECTION ( 'NONE',  ( -3.491481338843133355E-15, 1.224646799147353207E-16, -1.000000000000000000 ) ) ;
#283 = ADVANCED_FACE ( 'NONE', ( #232, #67 ), #301, .T. ) ;
#284 = DIRECTION ( 'NONE',  ( 4.275831445896958607E-31, 1.000000000000000000, 1.224646799147353207E-16 ) ) ;
#285 = AXIS2_PLACEMENT_3D ( 'NONE', #42, #214, #236 ) ;
#286 = CARTESIAN_POINT ( 'NONE',  ( 2.433562493173664138E-13, 1.499999999999992673, 69.70000000000001705 ) ) ;
#287 = COORDINATED_UNIVERSAL_TIME_OFFSET ( 1, 0, .AHEAD. ) ;
#288 = ADVANCED_FACE ( 'NONE', ( #163 ), #261, .F. ) ;
#289 = DATE_TIME_ROLE ( 'creation_date' ) ;
#290 = EDGE_LOOP ( 'NONE', ( #107 ) ) ;
#291 = EDGE_CURVE ( 'NONE', #223, #223, #12, .T. ) ;
#292 = ORIENTED_EDGE ( 'NONE', *, *, #115, .F. ) ;
#293 = DATE_AND_TIME ( #196, #77 ) ;
#294 = DATE_TIME_ROLE ( 'classification_date' ) ;
#295 = SECURITY_CLASSIFICATION_LEVEL ( 'unclassified' ) ;
#296 = APPROVAL ( #106, 'UNSPECIFIED' ) ;
#297 = ADVANCED_FACE ( 'NONE', ( #25 ), #302, .T. ) ;
#298 = CARTESIAN_POINT ( 'NONE',  ( 0.0000000000000000000, 0.0000000000000000000, 0.0000000000000000000 ) ) ;
#299 = FACE_OUTER_BOUND ( 'NONE', #195, .T. ) ;
#300 = APPROVAL_PERSON_ORGANIZATION ( #219, #28, #88 ) ;
#301 = CYLINDRICAL_SURFACE ( 'NONE', #181, 1.499999999999996891 ) ;
#302 = PLANE ( 'NONE',  #188 ) ;
#303 = DIRECTION ( 'NONE',  ( 0.0000000000000000000, 1.000000000000000000, 0.0000000000000000000 ) ) ;
ENDSEC;
END-ISO-10303-21;
