ISO-10303-21;
HEADER;
FILE_DESCRIPTION (( 'STEP AP203' ),
    '1' );
FILE_NAME ('321575.step',
    '2021-12-02T09:35:43',
    ( '' ),
    ( '' ),
    'SwSTEP 2.0',
    'SolidWorks 2019',
    '' );
FILE_SCHEMA (( 'CONFIG_CONTROL_DESIGN' ));
ENDSEC;

DATA;
#1 = VERTEX_POINT ( 'NONE', #195 ) ;
#2 = DIRECTION ( 'NONE',  ( -3.491481338843133355E-15, 1.224646799147353207E-16, -1.000000000000000000 ) ) ;
#3 = SHAPE_DEFINITION_REPRESENTATION ( #25, #135 ) ;
#4 = VERTEX_POINT ( 'NONE', #197 ) ;
#5 = ORIENTED_EDGE ( 'NONE', *, *, #91, .T. ) ;
#6 = CIRCLE ( 'NONE', #118, 1.499999999999992895 ) ;
#7 = FACE_OUTER_BOUND ( 'NONE', #15, .T. ) ;
#8 = DATE_AND_TIME ( #193, #210 ) ;
#9 = CC_DESIGN_PERSON_AND_ORGANIZATION_ASSIGNMENT ( #127, #223, ( #41 ) ) ;
#10 = APPROVAL_STATUS ( 'not_yet_approved' ) ;
#11 = EDGE_LOOP ( 'NONE', ( #133 ) ) ;
#12 = PERSON_AND_ORGANIZATION_ROLE ( 'creator' ) ;
#13 = AXIS2_PLACEMENT_3D ( 'NONE', #288, #114, #86 ) ;
#14 = DIRECTION ( 'NONE',  ( -3.491481338843133355E-15, 1.224646799147353207E-16, -1.000000000000000000 ) ) ;
#15 = EDGE_LOOP ( 'NONE', ( #278 ) ) ;
#16 = EDGE_CURVE ( 'NONE', #1, #1, #131, .T. ) ;
#17 = CYLINDRICAL_SURFACE ( 'NONE', #292, 1.499999999999996891 ) ;
#18 = DIRECTION ( 'NONE',  ( -3.491481338843133355E-15, 1.224646799147353207E-16, -1.000000000000000000 ) ) ;
#19 = DIRECTION ( 'NONE',  ( -3.491481338843133355E-15, 1.224646799147353207E-16, -1.000000000000000000 ) ) ;
#20 = CLOSED_SHELL ( 'NONE', ( #240, #203, #180, #168, #302, #140, #29 ) ) ;
#21 = LOCAL_TIME ( 10, 35, 43.00000000000000000, #47 ) ;
#22 = DIRECTION ( 'NONE',  ( 4.275831445896958607E-31, 1.000000000000000000, 1.224646799147353454E-16 ) ) ;
#23 = DIRECTION ( 'NONE',  ( -3.491481338843133355E-15, 1.224646799147353207E-16, -1.000000000000000000 ) ) ;
#24 = COORDINATED_UNIVERSAL_TIME_OFFSET ( 1, 0, .AHEAD. ) ;
#25 = PRODUCT_DEFINITION_SHAPE ( 'NONE', 'NONE',  #101 ) ;
#26 = DATE_AND_TIME ( #162, #65 ) ;
#27 = EDGE_CURVE ( 'NONE', #104, #104, #103, .T. ) ;
#28 = PERSON_AND_ORGANIZATION ( #231, #196 ) ;
#29 = ADVANCED_FACE ( 'NONE', ( #113, #294 ), #34, .T. ) ;
#30 = EDGE_LOOP ( 'NONE', ( #242 ) ) ;
#31 = ORIENTED_EDGE ( 'NONE', *, *, #33, .F. ) ;
#32 = DIRECTION ( 'NONE',  ( 0.0000000000000000000, 1.000000000000000000, 0.0000000000000000000 ) ) ;
#33 = EDGE_CURVE ( 'NONE', #169, #169, #123, .T. ) ;
#34 = CYLINDRICAL_SURFACE ( 'NONE', #284, 1.499999999999996891 ) ;
#35 = SECURITY_CLASSIFICATION ( '', '', #108 ) ;
#36 = APPROVAL ( #10, 'UNSPECIFIED' ) ;
#37 = DIRECTION ( 'NONE',  ( 4.414739127535223431E-31, 1.000000000000000000, 1.242638593106598804E-16 ) ) ;
#38 = CARTESIAN_POINT ( 'NONE',  ( 0.0000000000000000000, 0.0000000000000000000, 0.0000000000000000000 ) ) ;
#39 = CARTESIAN_POINT ( 'NONE',  ( 2.433562493173664138E-13, -8.535788190057053710E-15, 69.70000000000001705 ) ) ;
#40 = FACE_BOUND ( 'NONE', #228, .T. ) ;
#41 = PRODUCT_DEFINITION_FORMATION_WITH_SPECIFIED_SOURCE ( 'ANY', '', #213, .NOT_KNOWN. ) ;
#42 = CC_DESIGN_PERSON_AND_ORGANIZATION_ASSIGNMENT ( #49, #265, ( #213 ) ) ;
#43 = CARTESIAN_POINT ( 'NONE',  ( 2.444036937190193601E-13, 1.199999999999992628, 70.00000000000000000 ) ) ;
#44 = CARTESIAN_POINT ( 'NONE',  ( 2.444036937190193601E-13, -8.572527594031472993E-15, 70.00000000000000000 ) ) ;
#45 = FACE_OUTER_BOUND ( 'NONE', #247, .T. ) ;
#46 = CIRCLE ( 'NONE', #299, 1.500000000000001110 ) ;
#47 = COORDINATED_UNIVERSAL_TIME_OFFSET ( 1, 0, .AHEAD. ) ;
#48 = MANIFOLD_SOLID_BREP ( 'Corps-Déplacer/Copier1[2]', #20 ) ;
#49 = PERSON_AND_ORGANIZATION ( #231, #196 ) ;
#50 = EDGE_CURVE ( 'NONE', #122, #122, #250, .T. ) ;
#51 = DIRECTION ( 'NONE',  ( 4.275831445896958607E-31, 1.000000000000000000, 1.224646799147353207E-16 ) ) ;
#52 = ORIENTED_EDGE ( 'NONE', *, *, #33, .T. ) ;
#53 = APPROVAL_ROLE ( '' ) ;
#54 = ORIENTED_EDGE ( 'NONE', *, *, #83, .F. ) ;
#55 = MANIFOLD_SOLID_BREP ( 'Corps-Déplacer/Copier1[1]', #225 ) ;
#56 = EDGE_LOOP ( 'NONE', ( #5 ) ) ;
#57 = APPROVAL ( #262, 'UNSPECIFIED' ) ;
#58 = EDGE_LOOP ( 'NONE', ( #266 ) ) ;
#59 = CARTESIAN_POINT ( 'NONE',  ( 2.444036937190193601E-13, -8.572527594031472993E-15, 70.00000000000000000 ) ) ;
#60 = FACE_OUTER_BOUND ( 'NONE', #78, .T. ) ;
#61 = CC_DESIGN_APPROVAL ( #36, ( #35 ) ) ;
#62 = DIRECTION ( 'NONE',  ( 3.491481338843133355E-15, -1.224646799147353207E-16, 1.000000000000000000 ) ) ;
#63 = CARTESIAN_POINT ( 'NONE',  ( -6.392368011615928673E-31, 2.242140875079468585E-32, -1.830846964725285909E-16 ) ) ;
#64 = CARTESIAN_POINT ( 'NONE',  ( 0.0000000000000000000, 0.0000000000000000000, 0.0000000000000000000 ) ) ;
#65 = LOCAL_TIME ( 10, 35, 43.00000000000000000, #132 ) ;
#66 = CC_DESIGN_PERSON_AND_ORGANIZATION_ASSIGNMENT ( #28, #199, ( #41 ) ) ;
#67 = ADVANCED_FACE ( 'NONE', ( #60, #187 ), #17, .T. ) ;
#68 = CARTESIAN_POINT ( 'NONE',  ( 3.491481338843133355E-14, 1.308540410372464988E-32, 10.00000000000000000 ) ) ;
#69 = EDGE_LOOP ( 'NONE', ( #268 ) ) ;
#70 = CARTESIAN_POINT ( 'NONE',  ( 8.728703347107835360E-16, 1.744999999999995000, 0.2500000000000000555 ) ) ;
#71 = DATE_AND_TIME ( #152, #256 ) ;
#72 = APPROVAL_STATUS ( 'not_yet_approved' ) ;
#73 = CONICAL_SURFACE ( 'NONE', #190, 1.494999999999994111, 0.7853981633974500554 ) ;
#74 =( LENGTH_UNIT ( ) NAMED_UNIT ( * ) SI_UNIT ( .MILLI., .METRE. ) );
#75 = AXIS2_PLACEMENT_3D ( 'NONE', #185, #119, #115 ) ;
#76 = DATE_AND_TIME ( #156, #21 ) ;
#77 = FACE_BOUND ( 'NONE', #58, .T. ) ;
#78 = EDGE_LOOP ( 'NONE', ( #178 ) ) ;
#79 = APPROVAL_DATE_TIME ( #71, #57 ) ;
#80 = AXIS2_PLACEMENT_3D ( 'NONE', #171, #146, #173 ) ;
#81 = ORIENTED_EDGE ( 'NONE', *, *, #249, .F. ) ;
#82 = DESIGN_CONTEXT ( 'detailed design', #158, 'design' ) ;
#83 = EDGE_CURVE ( 'NONE', #243, #243, #230, .T. ) ;
#84 = ORIENTED_EDGE ( 'NONE', *, *, #91, .F. ) ;
#85 = DATE_TIME_ROLE ( 'creation_date' ) ;
#86 = DIRECTION ( 'NONE',  ( 0.0000000000000000000, 1.000000000000000000, 0.0000000000000000000 ) ) ;
#87 = EDGE_LOOP ( 'NONE', ( #281 ) ) ;
#88 = APPROVAL_ROLE ( '' ) ;
#89 = DIRECTION ( 'NONE',  ( 4.275831445896958607E-31, 1.000000000000000000, 1.224646799147353454E-16 ) ) ;
#90 = COORDINATED_UNIVERSAL_TIME_OFFSET ( 1, 0, .AHEAD. ) ;
#91 = EDGE_CURVE ( 'NONE', #126, #126, #46, .T. ) ;
#92 = CARTESIAN_POINT ( 'NONE',  ( 3.491481338843133355E-14, -1.224646799147353256E-15, 10.00000000000000000 ) ) ;
#93 = CC_DESIGN_PERSON_AND_ORGANIZATION_ASSIGNMENT ( #218, #287, ( #35 ) ) ;
#94 = FACE_BOUND ( 'NONE', #174, .T. ) ;
#95 = ADVANCED_FACE ( 'NONE', ( #142, #94 ), #160, .T. ) ;
#96 = AXIS2_PLACEMENT_3D ( 'NONE', #251, #14, #32 ) ;
#97 = APPROVAL_PERSON_ORGANIZATION ( #179, #57, #285 ) ;
#98 = AXIS2_PLACEMENT_3D ( 'NONE', #68, #62, #208 ) ;
#99 = CARTESIAN_POINT ( 'NONE',  ( 2.444036937190193601E-13, -8.572527594031472993E-15, 70.00000000000000000 ) ) ;
#100 = DIRECTION ( 'NONE',  ( 3.491481338843133355E-15, -1.224646799147353207E-16, 1.000000000000000000 ) ) ;
#101 = PRODUCT_DEFINITION ( 'UNKNOWN', '', #41, #82 ) ;
#102 = DIRECTION ( 'NONE',  ( 4.275831445896958607E-31, 1.000000000000000000, 1.224646799147353207E-16 ) ) ;
#103 = CIRCLE ( 'NONE', #96, 1.744999999999995000 ) ;
#104 = VERTEX_POINT ( 'NONE', #220 ) ;
#105 = APPROVAL_DATE_TIME ( #76, #36 ) ;
#106 = CARTESIAN_POINT ( 'NONE',  ( 2.433562493173664138E-13, 1.499999999999992673, 69.70000000000001705 ) ) ;
#107 = FACE_OUTER_BOUND ( 'NONE', #191, .T. ) ;
#108 = SECURITY_CLASSIFICATION_LEVEL ( 'unclassified' ) ;
#109 = FACE_OUTER_BOUND ( 'NONE', #224, .T. ) ;
#110 = CARTESIAN_POINT ( 'NONE',  ( 0.0000000000000000000, 1.494999999999994111, 0.0000000000000000000 ) ) ;
#111 = DIRECTION ( 'NONE',  ( 1.000000000000000000, 0.0000000000000000000, 0.0000000000000000000 ) ) ;
#112 = AXIS2_PLACEMENT_3D ( 'NONE', #273, #117, #102 ) ;
#113 = FACE_OUTER_BOUND ( 'NONE', #11, .T. ) ;
#114 = DIRECTION ( 'NONE',  ( -3.491481338843133355E-15, 1.224646799147353207E-16, -1.000000000000000000 ) ) ;
#115 = DIRECTION ( 'NONE',  ( 0.0000000000000000000, 1.000000000000000000, 0.0000000000000000000 ) ) ;
#116 = DIRECTION ( 'NONE',  ( -3.491481338843133355E-15, 1.224646799147353207E-16, -1.000000000000000000 ) ) ;
#117 = DIRECTION ( 'NONE',  ( -3.491481338843133355E-15, 1.224646799147353207E-16, -1.000000000000000000 ) ) ;
#118 = AXIS2_PLACEMENT_3D ( 'NONE', #120, #300, #253 ) ;
#119 = DIRECTION ( 'NONE',  ( -3.491481338843133355E-15, 1.224646799147353207E-16, -1.000000000000000000 ) ) ;
#120 = CARTESIAN_POINT ( 'NONE',  ( 3.639643204120729805E-14, -1.276614985844874113E-15, 10.42435244785437831 ) ) ;
#121 = ADVANCED_FACE ( 'NONE', ( #212 ), #164, .F. ) ;
#122 = VERTEX_POINT ( 'NONE', #70 ) ;
#123 = CIRCLE ( 'NONE', #186, 1.200000000000001510 ) ;
#124 = CARTESIAN_POINT ( 'NONE',  ( 3.491481338843133355E-14, 1.744999999999993667, 10.00000000000000000 ) ) ;
#125 = EDGE_CURVE ( 'NONE', #151, #151, #239, .T. ) ;
#126 = VERTEX_POINT ( 'NONE', #170 ) ;
#127 = PERSON_AND_ORGANIZATION ( #231, #196 ) ;
#128 = DIRECTION ( 'NONE',  ( 4.275831445896958607E-31, 1.000000000000000000, 1.224646799147353207E-16 ) ) ;
#129 = COORDINATED_UNIVERSAL_TIME_OFFSET ( 1, 0, .AHEAD. ) ;
#130 = MECHANICAL_CONTEXT ( 'NONE', #214, 'mechanical' ) ;
#131 = CIRCLE ( 'NONE', #13, 1.499999999999992895 ) ;
#132 = COORDINATED_UNIVERSAL_TIME_OFFSET ( 1, 0, .AHEAD. ) ;
#133 = ORIENTED_EDGE ( 'NONE', *, *, #16, .F. ) ;
#134 = ORIENTED_EDGE ( 'NONE', *, *, #50, .F. ) ;
#135 = ADVANCED_BREP_SHAPE_REPRESENTATION ( '321575', ( #55, #48, #289 ), #172 ) ;
#136 = DIRECTION ( 'NONE',  ( 0.0000000000000000000, 0.0000000000000000000, 1.000000000000000000 ) ) ;
#137 = CC_DESIGN_APPROVAL ( #57, ( #41 ) ) ;
#138 = DIRECTION ( 'NONE',  ( 0.0000000000000000000, 1.000000000000000000, 0.0000000000000000000 ) ) ;
#139 = CARTESIAN_POINT ( 'NONE',  ( 2.444036937190193601E-13, -8.572527594031472993E-15, 70.00000000000000000 ) ) ;
#140 = ADVANCED_FACE ( 'NONE', ( #296, #40 ), #143, .T. ) ;
#141 = DIRECTION ( 'NONE',  ( 0.0000000000000000000, 1.000000000000000000, 0.0000000000000000000 ) ) ;
#142 = FACE_OUTER_BOUND ( 'NONE', #229, .T. ) ;
#143 = CONICAL_SURFACE ( 'NONE', #269, 1.200000000000001510, 0.7853981633974566057 ) ;
#144 = DIRECTION ( 'NONE',  ( -3.491481338843133355E-15, 1.224646799147353207E-16, -1.000000000000000000 ) ) ;
#145 = EDGE_CURVE ( 'NONE', #4, #4, #6, .T. ) ;
#146 = DIRECTION ( 'NONE',  ( -3.491481338843133355E-15, 1.224646799147353207E-16, -1.000000000000000000 ) ) ;
#147 = AXIS2_PLACEMENT_3D ( 'NONE', #257, #166, #255 ) ;
#148 = EDGE_CURVE ( 'NONE', #238, #238, #272, .T. ) ;
#149 = CARTESIAN_POINT ( 'NONE',  ( 2.433562493173664138E-13, -8.535788190057053710E-15, 69.70000000000001705 ) ) ;
#150 =( NAMED_UNIT ( * ) SI_UNIT ( $, .STERADIAN. ) SOLID_ANGLE_UNIT ( ) );
#151 = VERTEX_POINT ( 'NONE', #110 ) ;
#152 = CALENDAR_DATE ( 2021, 2, 12 ) ;
#153 = APPROVAL_PERSON_ORGANIZATION ( #264, #36, #53 ) ;
#154 = UNCERTAINTY_MEASURE_WITH_UNIT (LENGTH_MEASURE( 1.000000000000000082E-05 ), #74, 'distance_accuracy_value', 'NONE');
#155 = AXIS2_PLACEMENT_3D ( 'NONE', #209, #252, #37 ) ;
#156 = CALENDAR_DATE ( 2021, 2, 12 ) ;
#157 = ORIENTED_EDGE ( 'NONE', *, *, #83, .T. ) ;
#158 = APPLICATION_CONTEXT ( 'configuration controlled 3d designs of mechanical parts and assemblies' ) ;
#159 = CONICAL_SURFACE ( 'NONE', #283, 1.744999999999995000, 0.5235987755982995928 ) ;
#160 = CONICAL_SURFACE ( 'NONE', #184, 1.200000000000001510, 0.7853981633974566057 ) ;
#161 = ORIENTED_EDGE ( 'NONE', *, *, #125, .F. ) ;
#162 = CALENDAR_DATE ( 2021, 2, 12 ) ;
#163 = CALENDAR_DATE ( 2021, 2, 12 ) ;
#164 = PLANE ( 'NONE',  #98 ) ;
#165 = DIRECTION ( 'NONE',  ( 0.0000000000000000000, 1.000000000000000000, 0.0000000000000000000 ) ) ;
#166 = DIRECTION ( 'NONE',  ( -3.491481338843133355E-15, 1.224646799147353207E-16, -1.000000000000000000 ) ) ;
#167 = FACE_OUTER_BOUND ( 'NONE', #270, .T. ) ;
#168 = ADVANCED_FACE ( 'NONE', ( #297 ), #303, .T. ) ;
#169 = VERTEX_POINT ( 'NONE', #43 ) ;
#170 = CARTESIAN_POINT ( 'NONE',  ( 2.433562493173664138E-13, 1.499999999999992673, 69.70000000000001705 ) ) ;
#171 = CARTESIAN_POINT ( 'NONE',  ( 0.0000000000000000000, 0.0000000000000000000, 0.0000000000000000000 ) ) ;
#172 =( GEOMETRIC_REPRESENTATION_CONTEXT ( 3 ) GLOBAL_UNCERTAINTY_ASSIGNED_CONTEXT ( ( #154 ) ) GLOBAL_UNIT_ASSIGNED_CONTEXT ( ( #74, #280, #150 ) ) REPRESENTATION_CONTEXT ( 'NONE', 'WORKASPACE' ) );
#173 = DIRECTION ( 'NONE',  ( 4.275831445896959482E-31, 1.000000000000000000, 1.224646799147353207E-16 ) ) ;
#174 = EDGE_LOOP ( 'NONE', ( #157 ) ) ;
#175 = ADVANCED_FACE ( 'NONE', ( #211, #189 ), #176, .T. ) ;
#176 = CONICAL_SURFACE ( 'NONE', #147, 1.744999999999995000, 0.5235987755982995928 ) ;
#177 = EDGE_LOOP ( 'NONE', ( #161 ) ) ;
#178 = ORIENTED_EDGE ( 'NONE', *, *, #145, .F. ) ;
#179 = PERSON_AND_ORGANIZATION ( #231, #196 ) ;
#180 = ADVANCED_FACE ( 'NONE', ( #167, #235 ), #73, .T. ) ;
#181 = AXIS2_PLACEMENT_3D ( 'NONE', #192, #2, #128 ) ;
#182 = DIRECTION ( 'NONE',  ( -3.491481338843133355E-15, 1.224646799147353207E-16, -1.000000000000000000 ) ) ;
#183 = PLANE ( 'NONE',  #181 ) ;
#184 = AXIS2_PLACEMENT_3D ( 'NONE', #139, #233, #236 ) ;
#185 = CARTESIAN_POINT ( 'NONE',  ( 2.444036937190193601E-13, -8.572527594031472993E-15, 70.00000000000000000 ) ) ;
#186 = AXIS2_PLACEMENT_3D ( 'NONE', #59, #144, #274 ) ;
#187 = FACE_OUTER_BOUND ( 'NONE', #56, .T. ) ;
#188 = DIRECTION ( 'NONE',  ( -4.275831445896959482E-31, -1.000000000000000000, -1.224646799147353207E-16 ) ) ;
#189 = FACE_OUTER_BOUND ( 'NONE', #245, .T. ) ;
#190 = AXIS2_PLACEMENT_3D ( 'NONE', #301, #100, #188 ) ;
#191 = EDGE_LOOP ( 'NONE', ( #260 ) ) ;
#192 = CARTESIAN_POINT ( 'NONE',  ( 2.444036937190193601E-13, 8.998558695971026591E-33, 70.00000000000000000 ) ) ;
#193 = CALENDAR_DATE ( 2021, 2, 12 ) ;
#194 = CARTESIAN_POINT ( 'NONE',  ( 2.444036937190193601E-13, 1.199999999999992628, 70.00000000000000000 ) ) ;
#195 = CARTESIAN_POINT ( 'NONE',  ( 3.639643204120729805E-14, 1.499999999999991562, 10.42435244785437831 ) ) ;
#196 = ORGANIZATION ( 'UNSPECIFIED', 'UNSPECIFIED', '' ) ;
#197 = CARTESIAN_POINT ( 'NONE',  ( 3.639643204120729805E-14, 1.499999999999991562, 10.42435244785437831 ) ) ;
#198 = APPLICATION_PROTOCOL_DEFINITION ( 'international standard', 'config_control_design', 1994, #214 ) ;
#199 = PERSON_AND_ORGANIZATION_ROLE ( 'creator' ) ;
#200 = ADVANCED_FACE ( 'NONE', ( #276 ), #183, .F. ) ;
#201 = ORIENTED_EDGE ( 'NONE', *, *, #145, .T. ) ;
#202 = APPLICATION_PROTOCOL_DEFINITION ( 'international standard', 'config_control_design', 1994, #158 ) ;
#203 = ADVANCED_FACE ( 'NONE', ( #107, #45 ), #258, .T. ) ;
#204 = ORIENTED_EDGE ( 'NONE', *, *, #148, .F. ) ;
#205 = EDGE_LOOP ( 'NONE', ( #54 ) ) ;
#206 = CC_DESIGN_SECURITY_CLASSIFICATION ( #35, ( #41 ) ) ;
#207 = CARTESIAN_POINT ( 'NONE',  ( 0.0000000000000000000, 0.0000000000000000000, 0.0000000000000000000 ) ) ;
#208 = DIRECTION ( 'NONE',  ( -4.275831445896958607E-31, -1.000000000000000000, -1.224646799147353207E-16 ) ) ;
#209 = CARTESIAN_POINT ( 'NONE',  ( 8.728703347107827472E-16, -3.061616997868381169E-17, 0.2499999999999998335 ) ) ;
#210 = LOCAL_TIME ( 10, 35, 43.00000000000000000, #129 ) ;
#211 = FACE_BOUND ( 'NONE', #246, .T. ) ;
#212 = FACE_OUTER_BOUND ( 'NONE', #30, .T. ) ;
#213 = PRODUCT ( '321575', '321575', '', ( #130 ) ) ;
#214 = APPLICATION_CONTEXT ( 'configuration controlled 3d designs of mechanical parts and assemblies' ) ;
#215 = DIRECTION ( 'NONE',  ( -3.491481338843133355E-15, 1.224646799147353207E-16, -1.000000000000000000 ) ) ;
#216 = DIRECTION ( 'NONE',  ( -3.491481338843133355E-15, 1.224646799147353207E-16, -1.000000000000000000 ) ) ;
#217 = VERTEX_POINT ( 'NONE', #106 ) ;
#218 = PERSON_AND_ORGANIZATION ( #231, #196 ) ;
#219 = PERSON_AND_ORGANIZATION ( #231, #196 ) ;
#220 = CARTESIAN_POINT ( 'NONE',  ( 3.491481338843133355E-14, 1.744999999999993667, 10.00000000000000000 ) ) ;
#221 = AXIS2_PLACEMENT_3D ( 'NONE', #92, #116, #141 ) ;
#222 = DIRECTION ( 'NONE',  ( 0.0000000000000000000, 1.000000000000000000, 0.0000000000000000000 ) ) ;
#223 = PERSON_AND_ORGANIZATION_ROLE ( 'design_supplier' ) ;
#224 = EDGE_LOOP ( 'NONE', ( #31 ) ) ;
#225 = CLOSED_SHELL ( 'NONE', ( #121, #175, #67, #95, #200 ) ) ;
#226 = LOCAL_TIME ( 10, 35, 43.00000000000000000, #90 ) ;
#227 = CC_DESIGN_PERSON_AND_ORGANIZATION_ASSIGNMENT ( #219, #12, ( #101 ) ) ;
#228 = EDGE_LOOP ( 'NONE', ( #52 ) ) ;
#229 = EDGE_LOOP ( 'NONE', ( #84 ) ) ;
#230 = CIRCLE ( 'NONE', #75, 1.200000000000001510 ) ;
#231 = PERSON ( 'UNSPECIFIED', 'UNSPECIFIED', 'UNSPECIFIED', ('UNSPECIFIED'), ('UNSPECIFIED'), ('UNSPECIFIED') ) ;
#232 = DIRECTION ( 'NONE',  ( 4.275831445896959482E-31, 1.000000000000000000, 1.224646799147353207E-16 ) ) ;
#233 = DIRECTION ( 'NONE',  ( -3.491481338843133355E-15, 1.224646799147353207E-16, -1.000000000000000000 ) ) ;
#234 = AXIS2_PLACEMENT_3D ( 'NONE', #44, #241, #51 ) ;
#235 = FACE_BOUND ( 'NONE', #177, .T. ) ;
#236 = DIRECTION ( 'NONE',  ( 0.0000000000000000000, 1.000000000000000000, 0.0000000000000000000 ) ) ;
#237 = EDGE_LOOP ( 'NONE', ( #81 ) ) ;
#238 = VERTEX_POINT ( 'NONE', #124 ) ;
#239 = CIRCLE ( 'NONE', #259, 1.494999999999994111 ) ;
#240 = ADVANCED_FACE ( 'NONE', ( #77, #7 ), #159, .T. ) ;
#241 = DIRECTION ( 'NONE',  ( -3.491481338843133355E-15, 1.224646799147353207E-16, -1.000000000000000000 ) ) ;
#242 = ORIENTED_EDGE ( 'NONE', *, *, #148, .T. ) ;
#243 = VERTEX_POINT ( 'NONE', #194 ) ;
#244 = AXIS2_PLACEMENT_3D ( 'NONE', #149, #23, #222 ) ;
#245 = EDGE_LOOP ( 'NONE', ( #204 ) ) ;
#246 = EDGE_LOOP ( 'NONE', ( #201 ) ) ;
#247 = EDGE_LOOP ( 'NONE', ( #134 ) ) ;
#248 = CC_DESIGN_APPROVAL ( #275, ( #101 ) ) ;
#249 = EDGE_CURVE ( 'NONE', #217, #217, #295, .T. ) ;
#250 = CIRCLE ( 'NONE', #155, 1.744999999999995000 ) ;
#251 = CARTESIAN_POINT ( 'NONE',  ( 3.491481338843133355E-14, -1.224646799147353256E-15, 10.00000000000000000 ) ) ;
#252 = DIRECTION ( 'NONE',  ( -3.491481338843133355E-15, 1.224646799147353207E-16, -1.000000000000000000 ) ) ;
#253 = DIRECTION ( 'NONE',  ( 0.0000000000000000000, 1.000000000000000000, 0.0000000000000000000 ) ) ;
#254 = CC_DESIGN_DATE_AND_TIME_ASSIGNMENT ( #267, #85, ( #101 ) ) ;
#255 = DIRECTION ( 'NONE',  ( 0.0000000000000000000, 1.000000000000000000, 0.0000000000000000000 ) ) ;
#256 = LOCAL_TIME ( 10, 35, 43.00000000000000000, #24 ) ;
#257 = CARTESIAN_POINT ( 'NONE',  ( 3.491481338843133355E-14, -1.224646799147353256E-15, 10.00000000000000000 ) ) ;
#258 = CYLINDRICAL_SURFACE ( 'NONE', #80, 1.744999999999995000 ) ;
#259 = AXIS2_PLACEMENT_3D ( 'NONE', #63, #19, #232 ) ;
#260 = ORIENTED_EDGE ( 'NONE', *, *, #27, .T. ) ;
#261 = DIRECTION ( 'NONE',  ( 0.0000000000000000000, 1.000000000000000000, 0.0000000000000000000 ) ) ;
#262 = APPROVAL_STATUS ( 'not_yet_approved' ) ;
#263 = CARTESIAN_POINT ( 'NONE',  ( 3.491481338843133355E-14, -1.224646799147353256E-15, 10.00000000000000000 ) ) ;
#264 = PERSON_AND_ORGANIZATION ( #231, #196 ) ;
#265 = PERSON_AND_ORGANIZATION_ROLE ( 'design_owner' ) ;
#266 = ORIENTED_EDGE ( 'NONE', *, *, #16, .T. ) ;
#267 = DATE_AND_TIME ( #163, #226 ) ;
#268 = ORIENTED_EDGE ( 'NONE', *, *, #125, .T. ) ;
#269 = AXIS2_PLACEMENT_3D ( 'NONE', #99, #18, #165 ) ;
#270 = EDGE_LOOP ( 'NONE', ( #293 ) ) ;
#271 = CC_DESIGN_DATE_AND_TIME_ASSIGNMENT ( #8, #282, ( #35 ) ) ;
#272 = CIRCLE ( 'NONE', #221, 1.744999999999995000 ) ;
#273 = CARTESIAN_POINT ( 'NONE',  ( -3.196184005807964336E-31, 1.121070437539734292E-32, -9.154234823626429546E-17 ) ) ;
#274 = DIRECTION ( 'NONE',  ( 0.0000000000000000000, 1.000000000000000000, 0.0000000000000000000 ) ) ;
#275 = APPROVAL ( #72, 'UNSPECIFIED' ) ;
#276 = FACE_OUTER_BOUND ( 'NONE', #205, .T. ) ;
#277 = DIRECTION ( 'NONE',  ( -3.491481338843133355E-15, 1.224646799147353207E-16, -1.000000000000000000 ) ) ;
#278 = ORIENTED_EDGE ( 'NONE', *, *, #27, .F. ) ;
#279 = PLANE ( 'NONE',  #234 ) ;
#280 =( NAMED_UNIT ( * ) PLANE_ANGLE_UNIT ( ) SI_UNIT ( $, .RADIAN. ) );
#281 = ORIENTED_EDGE ( 'NONE', *, *, #249, .T. ) ;
#282 = DATE_TIME_ROLE ( 'classification_date' ) ;
#283 = AXIS2_PLACEMENT_3D ( 'NONE', #263, #216, #261 ) ;
#284 = AXIS2_PLACEMENT_3D ( 'NONE', #207, #182, #89 ) ;
#285 = APPROVAL_ROLE ( '' ) ;
#286 = PRODUCT_RELATED_PRODUCT_CATEGORY ( 'detail', '', ( #213 ) ) ;
#287 = PERSON_AND_ORGANIZATION_ROLE ( 'classification_officer' ) ;
#288 = CARTESIAN_POINT ( 'NONE',  ( 3.639643204120729805E-14, -1.276614985844874113E-15, 10.42435244785437831 ) ) ;
#289 = AXIS2_PLACEMENT_3D ( 'NONE', #38, #136, #111 ) ;
#290 = APPROVAL_DATE_TIME ( #26, #275 ) ;
#291 = PERSON_AND_ORGANIZATION ( #231, #196 ) ;
#292 = AXIS2_PLACEMENT_3D ( 'NONE', #64, #215, #22 ) ;
#293 = ORIENTED_EDGE ( 'NONE', *, *, #50, .T. ) ;
#294 = FACE_OUTER_BOUND ( 'NONE', #87, .T. ) ;
#295 = CIRCLE ( 'NONE', #244, 1.500000000000001110 ) ;
#296 = FACE_OUTER_BOUND ( 'NONE', #237, .T. ) ;
#297 = FACE_OUTER_BOUND ( 'NONE', #69, .T. ) ;
#298 = APPROVAL_PERSON_ORGANIZATION ( #291, #275, #88 ) ;
#299 = AXIS2_PLACEMENT_3D ( 'NONE', #39, #277, #138 ) ;
#300 = DIRECTION ( 'NONE',  ( -3.491481338843133355E-15, 1.224646799147353207E-16, -1.000000000000000000 ) ) ;
#301 = CARTESIAN_POINT ( 'NONE',  ( -6.392368011615928673E-31, 2.242140875079468585E-32, -1.830846964725285909E-16 ) ) ;
#302 = ADVANCED_FACE ( 'NONE', ( #109 ), #279, .F. ) ;
#303 = PLANE ( 'NONE',  #112 ) ;
ENDSEC;
END-ISO-10303-21;
