ISO-10303-21;
HEADER;
FILE_DESCRIPTION (( 'STEP AP203' ),
    '1' );
FILE_NAME ('321574.step',
    '2021-12-02T09:35:42',
    ( '' ),
    ( '' ),
    'SwSTEP 2.0',
    'SolidWorks 2019',
    '' );
FILE_SCHEMA (( 'CONFIG_CONTROL_DESIGN' ));
ENDSEC;

DATA;
#1 = AXIS2_PLACEMENT_3D ( 'NONE', #131, #85, #267 ) ;
#2 = AXIS2_PLACEMENT_3D ( 'NONE', #147, #252, #117 ) ;
#3 = DIRECTION ( 'NONE',  ( 0.0000000000000000000, 0.0000000000000000000, 1.000000000000000000 ) ) ;
#4 = PERSON_AND_ORGANIZATION ( #169, #162 ) ;
#5 = APPLICATION_PROTOCOL_DEFINITION ( 'international standard', 'config_control_design', 1994, #49 ) ;
#6 = CC_DESIGN_DATE_AND_TIME_ASSIGNMENT ( #201, #288, ( #232 ) ) ;
#7 = FACE_BOUND ( 'NONE', #129, .T. ) ;
#8 = FACE_OUTER_BOUND ( 'NONE', #242, .T. ) ;
#9 = PERSON_AND_ORGANIZATION_ROLE ( 'classification_officer' ) ;
#10 = CC_DESIGN_PERSON_AND_ORGANIZATION_ASSIGNMENT ( #75, #55, ( #232 ) ) ;
#11 = UNCERTAINTY_MEASURE_WITH_UNIT (LENGTH_MEASURE( 1.000000000000000082E-05 ), #240, 'distance_accuracy_value', 'NONE');
#12 = EDGE_LOOP ( 'NONE', ( #284 ) ) ;
#13 = EDGE_LOOP ( 'NONE', ( #292 ) ) ;
#14 = AXIS2_PLACEMENT_3D ( 'NONE', #136, #199, #224 ) ;
#15 = DIRECTION ( 'NONE',  ( 4.275831445896958607E-31, 1.000000000000000000, 1.224646799147353207E-16 ) ) ;
#16 = PERSON_AND_ORGANIZATION ( #169, #162 ) ;
#17 = LOCAL_TIME ( 10, 35, 42.00000000000000000, #155 ) ;
#18 = CARTESIAN_POINT ( 'NONE',  ( 3.491481338843133355E-14, 1.304791010915810590E-32, 10.00000000000000000 ) ) ;
#19 = FACE_OUTER_BOUND ( 'NONE', #58, .T. ) ;
#20 = ORIENTED_EDGE ( 'NONE', *, *, #95, .T. ) ;
#21 = CC_DESIGN_SECURITY_CLASSIFICATION ( #237, ( #170 ) ) ;
#22 = FACE_OUTER_BOUND ( 'NONE', #90, .T. ) ;
#23 = EDGE_CURVE ( 'NONE', #72, #72, #260, .T. ) ;
#24 = ORIENTED_EDGE ( 'NONE', *, *, #95, .F. ) ;
#25 = CYLINDRICAL_SURFACE ( 'NONE', #2, 1.739999999999995106 ) ;
#26 = EDGE_CURVE ( 'NONE', #257, #257, #181, .T. ) ;
#27 = DIRECTION ( 'NONE',  ( 1.000000000000000000, 0.0000000000000000000, 0.0000000000000000000 ) ) ;
#28 = LOCAL_TIME ( 10, 35, 42.00000000000000000, #286 ) ;
#29 = CALENDAR_DATE ( 2021, 2, 12 ) ;
#30 = DATE_AND_TIME ( #217, #28 ) ;
#31 = APPROVAL ( #164, 'UNSPECIFIED' ) ;
#32 = CARTESIAN_POINT ( 'NONE',  ( 2.433562493173664138E-13, 1.499999999999992673, 69.70000000000001705 ) ) ;
#33 = COORDINATED_UNIVERSAL_TIME_OFFSET ( 1, 0, .AHEAD. ) ;
#34 = CARTESIAN_POINT ( 'NONE',  ( 2.444036937190193601E-13, -8.572527594031472993E-15, 70.00000000000000000 ) ) ;
#35 = DIRECTION ( 'NONE',  ( 0.0000000000000000000, 1.000000000000000000, 0.0000000000000000000 ) ) ;
#36 = LOCAL_TIME ( 10, 35, 42.00000000000000000, #271 ) ;
#37 = PLANE ( 'NONE',  #68 ) ;
#38 = CLOSED_SHELL ( 'NONE', ( #277, #180, #256, #51, #66, #116, #210 ) ) ;
#39 = DIRECTION ( 'NONE',  ( 0.0000000000000000000, 1.000000000000000000, 0.0000000000000000000 ) ) ;
#40 = EDGE_CURVE ( 'NONE', #173, #173, #212, .T. ) ;
#41 = ORIENTED_EDGE ( 'NONE', *, *, #83, .T. ) ;
#42 = ORIENTED_EDGE ( 'NONE', *, *, #26, .F. ) ;
#43 = ORIENTED_EDGE ( 'NONE', *, *, #111, .T. ) ;
#44 = CARTESIAN_POINT ( 'NONE',  ( 3.491481338843133355E-14, -1.224646799147353256E-15, 10.00000000000000000 ) ) ;
#45 = ORIENTED_EDGE ( 'NONE', *, *, #251, .F. ) ;
#46 = AXIS2_PLACEMENT_3D ( 'NONE', #254, #144, #230 ) ;
#47 = APPROVAL_DATE_TIME ( #140, #172 ) ;
#48 = EDGE_CURVE ( 'NONE', #123, #123, #287, .T. ) ;
#49 = APPLICATION_CONTEXT ( 'configuration controlled 3d designs of mechanical parts and assemblies' ) ;
#50 = DIRECTION ( 'NONE',  ( 4.275831445896958607E-31, 1.000000000000000000, 1.224646799147353454E-16 ) ) ;
#51 = ADVANCED_FACE ( 'NONE', ( #160 ), #37, .T. ) ;
#52 = CARTESIAN_POINT ( 'NONE',  ( 3.491481338843133355E-14, 1.739999999999993774, 10.00000000000000000 ) ) ;
#53 = CARTESIAN_POINT ( 'NONE',  ( 8.728703347107835360E-16, 1.739999999999995106, 0.2500000000000000555 ) ) ;
#54 = ADVANCED_FACE ( 'NONE', ( #188 ), #159, .F. ) ;
#55 = PERSON_AND_ORGANIZATION_ROLE ( 'creator' ) ;
#56 = CARTESIAN_POINT ( 'NONE',  ( 3.491481338843133355E-14, -1.224646799147353256E-15, 10.00000000000000000 ) ) ;
#57 = AXIS2_PLACEMENT_3D ( 'NONE', #34, #285, #127 ) ;
#58 = EDGE_LOOP ( 'NONE', ( #268 ) ) ;
#59 = ORIENTED_EDGE ( 'NONE', *, *, #119, .T. ) ;
#60 = CARTESIAN_POINT ( 'NONE',  ( 3.491481338843133355E-14, -1.224646799147353256E-15, 10.00000000000000000 ) ) ;
#61 = EDGE_LOOP ( 'NONE', ( #112 ) ) ;
#62 = CIRCLE ( 'NONE', #222, 1.499999999999992895 ) ;
#63 = ORIENTED_EDGE ( 'NONE', *, *, #23, .T. ) ;
#64 = CARTESIAN_POINT ( 'NONE',  ( -6.370988854386443083E-31, 2.234642076166159242E-32, -1.824723730729549033E-16 ) ) ;
#65 = FACE_OUTER_BOUND ( 'NONE', #61, .T. ) ;
#66 = ADVANCED_FACE ( 'NONE', ( #205 ), #221, .F. ) ;
#67 = MANIFOLD_SOLID_BREP ( 'Corps-Déplacer/Copier1[2]', #38 ) ;
#68 = AXIS2_PLACEMENT_3D ( 'NONE', #114, #133, #223 ) ;
#69 = APPROVAL_PERSON_ORGANIZATION ( #134, #31, #86 ) ;
#70 = DIRECTION ( 'NONE',  ( -3.491481338843133355E-15, 1.224646799147353207E-16, -1.000000000000000000 ) ) ;
#71 = DIRECTION ( 'NONE',  ( 0.0000000000000000000, 1.000000000000000000, 0.0000000000000000000 ) ) ;
#72 = VERTEX_POINT ( 'NONE', #194 ) ;
#73 = PERSON_AND_ORGANIZATION ( #169, #162 ) ;
#74 = APPROVAL_STATUS ( 'not_yet_approved' ) ;
#75 = PERSON_AND_ORGANIZATION ( #169, #162 ) ;
#76 = AXIS2_PLACEMENT_3D ( 'NONE', #96, #192, #71 ) ;
#77 = CARTESIAN_POINT ( 'NONE',  ( 3.636619492584452301E-14, 1.499999999999991562, 10.41569219381653255 ) ) ;
#78 = DIRECTION ( 'NONE',  ( -3.491481338843133355E-15, 1.224646799147353207E-16, -1.000000000000000000 ) ) ;
#79 = DESIGN_CONTEXT ( 'detailed design', #49, 'design' ) ;
#80 = ORIENTED_EDGE ( 'NONE', *, *, #126, .F. ) ;
#81 = CARTESIAN_POINT ( 'NONE',  ( 3.636619492584452301E-14, -1.275554410606149068E-15, 10.41569219381653255 ) ) ;
#82 = PERSON_AND_ORGANIZATION_ROLE ( 'design_supplier' ) ;
#83 = EDGE_CURVE ( 'NONE', #281, #281, #273, .T. ) ;
#84 = EDGE_LOOP ( 'NONE', ( #43 ) ) ;
#85 = DIRECTION ( 'NONE',  ( -3.491481338843133355E-15, 1.224646799147353207E-16, -1.000000000000000000 ) ) ;
#86 = APPROVAL_ROLE ( '' ) ;
#87 = DIRECTION ( 'NONE',  ( -3.491481338843133355E-15, 1.224646799147353207E-16, -1.000000000000000000 ) ) ;
#88 = APPROVAL_DATE_TIME ( #30, #31 ) ;
#89 = PRODUCT ( '321574', '321574', '', ( #255 ) ) ;
#90 = EDGE_LOOP ( 'NONE', ( #158 ) ) ;
#91 = DIRECTION ( 'NONE',  ( 0.0000000000000000000, 1.000000000000000000, 0.0000000000000000000 ) ) ;
#92 = AXIS2_PLACEMENT_3D ( 'NONE', #143, #302, #229 ) ;
#93 = EDGE_LOOP ( 'NONE', ( #135 ) ) ;
#94 = EDGE_LOOP ( 'NONE', ( #138 ) ) ;
#95 = EDGE_CURVE ( 'NONE', #151, #151, #62, .T. ) ;
#96 = CARTESIAN_POINT ( 'NONE',  ( 3.491481338843133355E-14, -1.224646799147353256E-15, 10.00000000000000000 ) ) ;
#97 = CLOSED_SHELL ( 'NONE', ( #54, #228, #219, #141, #153 ) ) ;
#98 = CONICAL_SURFACE ( 'NONE', #109, 1.489999999999994218, 0.7853981633974500554 ) ;
#99 = PRODUCT_RELATED_PRODUCT_CATEGORY ( 'detail', '', ( #89 ) ) ;
#100 = APPLICATION_PROTOCOL_DEFINITION ( 'international standard', 'config_control_design', 1994, #128 ) ;
#101 = VERTEX_POINT ( 'NONE', #32 ) ;
#102 = SHAPE_DEFINITION_REPRESENTATION ( #137, #241 ) ;
#103 = CARTESIAN_POINT ( 'NONE',  ( -6.370988854386443083E-31, 2.234642076166159242E-32, -1.824723730729549033E-16 ) ) ;
#104 = CIRCLE ( 'NONE', #227, 1.739999999999995106 ) ;
#105 =( NAMED_UNIT ( * ) PLANE_ANGLE_UNIT ( ) SI_UNIT ( $, .RADIAN. ) );
#106 = CALENDAR_DATE ( 2021, 2, 12 ) ;
#107 = DIRECTION ( 'NONE',  ( -3.491481338843133355E-15, 1.224646799147353207E-16, -1.000000000000000000 ) ) ;
#108 = AXIS2_PLACEMENT_3D ( 'NONE', #295, #208, #15 ) ;
#109 = AXIS2_PLACEMENT_3D ( 'NONE', #103, #148, #122 ) ;
#110 = DIRECTION ( 'NONE',  ( 4.427425159510899360E-31, 1.000000000000000000, 1.246209393661502823E-16 ) ) ;
#111 = EDGE_CURVE ( 'NONE', #101, #101, #142, .T. ) ;
#112 = ORIENTED_EDGE ( 'NONE', *, *, #111, .F. ) ;
#113 = CARTESIAN_POINT ( 'NONE',  ( 2.444036937190193601E-13, -8.572527594031472993E-15, 70.00000000000000000 ) ) ;
#114 = CARTESIAN_POINT ( 'NONE',  ( -3.185494427193221541E-31, 1.117321038083079621E-32, -9.123618653647745167E-17 ) ) ;
#115 = FACE_OUTER_BOUND ( 'NONE', #94, .T. ) ;
#116 = ADVANCED_FACE ( 'NONE', ( #19, #262 ), #118, .T. ) ;
#117 = DIRECTION ( 'NONE',  ( 4.275831445896958607E-31, 1.000000000000000000, 1.224646799147353207E-16 ) ) ;
#118 = CONICAL_SURFACE ( 'NONE', #204, 1.200000000000001510, 0.7853981633974566057 ) ;
#119 = EDGE_CURVE ( 'NONE', #238, #238, #231, .T. ) ;
#120 = AXIS2_PLACEMENT_3D ( 'NONE', #244, #190, #266 ) ;
#121 =( GEOMETRIC_REPRESENTATION_CONTEXT ( 3 ) GLOBAL_UNCERTAINTY_ASSIGNED_CONTEXT ( ( #11 ) ) GLOBAL_UNIT_ASSIGNED_CONTEXT ( ( #240, #105, #197 ) ) REPRESENTATION_CONTEXT ( 'NONE', 'WORKASPACE' ) );
#122 = DIRECTION ( 'NONE',  ( -4.275831445896958607E-31, -1.000000000000000000, -1.224646799147353207E-16 ) ) ;
#123 = VERTEX_POINT ( 'NONE', #174 ) ;
#124 = APPROVAL_DATE_TIME ( #175, #157 ) ;
#125 = COORDINATED_UNIVERSAL_TIME_OFFSET ( 1, 0, .AHEAD. ) ;
#126 = EDGE_CURVE ( 'NONE', #178, #178, #132, .T. ) ;
#127 = DIRECTION ( 'NONE',  ( 0.0000000000000000000, 1.000000000000000000, 0.0000000000000000000 ) ) ;
#128 = APPLICATION_CONTEXT ( 'configuration controlled 3d designs of mechanical parts and assemblies' ) ;
#129 = EDGE_LOOP ( 'NONE', ( #20 ) ) ;
#130 = APPROVAL_STATUS ( 'not_yet_approved' ) ;
#131 = CARTESIAN_POINT ( 'NONE',  ( 2.433562493173664138E-13, -8.535788190057053710E-15, 69.70000000000001705 ) ) ;
#132 = CIRCLE ( 'NONE', #195, 1.499999999999992895 ) ;
#133 = DIRECTION ( 'NONE',  ( -3.491481338843133355E-15, 1.224646799147353207E-16, -1.000000000000000000 ) ) ;
#134 = PERSON_AND_ORGANIZATION ( #169, #162 ) ;
#135 = ORIENTED_EDGE ( 'NONE', *, *, #126, .T. ) ;
#136 = CARTESIAN_POINT ( 'NONE',  ( 2.433562493173664138E-13, -8.535788190057053710E-15, 69.70000000000001705 ) ) ;
#137 = PRODUCT_DEFINITION_SHAPE ( 'NONE', 'NONE',  #232 ) ;
#138 = ORIENTED_EDGE ( 'NONE', *, *, #83, .F. ) ;
#139 = DIRECTION ( 'NONE',  ( -3.491481338843133355E-15, 1.224646799147353207E-16, -1.000000000000000000 ) ) ;
#140 = DATE_AND_TIME ( #106, #36 ) ;
#141 = ADVANCED_FACE ( 'NONE', ( #65, #167 ), #193, .T. ) ;
#142 = CIRCLE ( 'NONE', #14, 1.500000000000001110 ) ;
#143 = CARTESIAN_POINT ( 'NONE',  ( 2.444036937190193601E-13, 8.998558695971026591E-33, 70.00000000000000000 ) ) ;
#144 = DIRECTION ( 'NONE',  ( -3.491481338843133355E-15, 1.224646799147353207E-16, -1.000000000000000000 ) ) ;
#145 = EDGE_LOOP ( 'NONE', ( #45 ) ) ;
#146 = FACE_BOUND ( 'NONE', #93, .T. ) ;
#147 = CARTESIAN_POINT ( 'NONE',  ( 0.0000000000000000000, 0.0000000000000000000, 0.0000000000000000000 ) ) ;
#148 = DIRECTION ( 'NONE',  ( 3.491481338843133355E-15, -1.224646799147353207E-16, 1.000000000000000000 ) ) ;
#149 = AXIS2_PLACEMENT_3D ( 'NONE', #163, #248, #110 ) ;
#150 = AXIS2_PLACEMENT_3D ( 'NONE', #64, #165, #250 ) ;
#151 = VERTEX_POINT ( 'NONE', #239 ) ;
#152 = DIRECTION ( 'NONE',  ( 0.0000000000000000000, 1.000000000000000000, 0.0000000000000000000 ) ) ;
#153 = ADVANCED_FACE ( 'NONE', ( #220 ), #183, .F. ) ;
#154 = VERTEX_POINT ( 'NONE', #52 ) ;
#155 = COORDINATED_UNIVERSAL_TIME_OFFSET ( 1, 0, .AHEAD. ) ;
#156 = DATE_AND_TIME ( #29, #258 ) ;
#157 = APPROVAL ( #74, 'UNSPECIFIED' ) ;
#158 = ORIENTED_EDGE ( 'NONE', *, *, #48, .T. ) ;
#159 = PLANE ( 'NONE',  #236 ) ;
#160 = FACE_OUTER_BOUND ( 'NONE', #166, .T. ) ;
#161 = APPROVAL_PERSON_ORGANIZATION ( #198, #157, #282 ) ;
#162 = ORGANIZATION ( 'UNSPECIFIED', 'UNSPECIFIED', '' ) ;
#163 = CARTESIAN_POINT ( 'NONE',  ( 8.728703347107827472E-16, -3.061616997868381169E-17, 0.2499999999999998335 ) ) ;
#164 = APPROVAL_STATUS ( 'not_yet_approved' ) ;
#165 = DIRECTION ( 'NONE',  ( -3.491481338843133355E-15, 1.224646799147353207E-16, -1.000000000000000000 ) ) ;
#166 = EDGE_LOOP ( 'NONE', ( #59 ) ) ;
#167 = FACE_BOUND ( 'NONE', #12, .T. ) ;
#168 = PERSON_AND_ORGANIZATION ( #169, #162 ) ;
#169 = PERSON ( 'UNSPECIFIED', 'UNSPECIFIED', 'UNSPECIFIED', ('UNSPECIFIED'), ('UNSPECIFIED'), ('UNSPECIFIED') ) ;
#170 = PRODUCT_DEFINITION_FORMATION_WITH_SPECIFIED_SOURCE ( 'ANY', '', #89, .NOT_KNOWN. ) ;
#171 = FACE_OUTER_BOUND ( 'NONE', #293, .T. ) ;
#172 = APPROVAL ( #130, 'UNSPECIFIED' ) ;
#173 = VERTEX_POINT ( 'NONE', #235 ) ;
#174 = CARTESIAN_POINT ( 'NONE',  ( 3.491481338843133355E-14, 1.739999999999993774, 10.00000000000000000 ) ) ;
#175 = DATE_AND_TIME ( #177, #17 ) ;
#176 = FACE_BOUND ( 'NONE', #13, .T. ) ;
#177 = CALENDAR_DATE ( 2021, 2, 12 ) ;
#178 = VERTEX_POINT ( 'NONE', #77 ) ;
#179 = APPROVAL_ROLE ( '' ) ;
#180 = ADVANCED_FACE ( 'NONE', ( #22, #115 ), #25, .T. ) ;
#181 = CIRCLE ( 'NONE', #120, 1.200000000000001510 ) ;
#182 = AXIS2_PLACEMENT_3D ( 'NONE', #56, #259, #152 ) ;
#183 = PLANE ( 'NONE',  #92 ) ;
#184 = EDGE_LOOP ( 'NONE', ( #291 ) ) ;
#185 = EDGE_LOOP ( 'NONE', ( #41 ) ) ;
#186 = SECURITY_CLASSIFICATION_LEVEL ( 'unclassified' ) ;
#187 = DIRECTION ( 'NONE',  ( 0.0000000000000000000, 1.000000000000000000, 0.0000000000000000000 ) ) ;
#188 = FACE_OUTER_BOUND ( 'NONE', #290, .T. ) ;
#189 = CC_DESIGN_PERSON_AND_ORGANIZATION_ASSIGNMENT ( #16, #82, ( #170 ) ) ;
#190 = DIRECTION ( 'NONE',  ( -3.491481338843133355E-15, 1.224646799147353207E-16, -1.000000000000000000 ) ) ;
#191 = CC_DESIGN_APPROVAL ( #31, ( #170 ) ) ;
#192 = DIRECTION ( 'NONE',  ( -3.491481338843133355E-15, 1.224646799147353207E-16, -1.000000000000000000 ) ) ;
#193 = CONICAL_SURFACE ( 'NONE', #57, 1.200000000000001510, 0.7853981633974566057 ) ;
#194 = CARTESIAN_POINT ( 'NONE',  ( 2.433562493173664138E-13, 1.499999999999992673, 69.70000000000001705 ) ) ;
#195 = AXIS2_PLACEMENT_3D ( 'NONE', #297, #87, #272 ) ;
#196 = CARTESIAN_POINT ( 'NONE',  ( 0.0000000000000000000, 1.489999999999994218, 0.0000000000000000000 ) ) ;
#197 =( NAMED_UNIT ( * ) SI_UNIT ( $, .STERADIAN. ) SOLID_ANGLE_UNIT ( ) );
#198 = PERSON_AND_ORGANIZATION ( #169, #162 ) ;
#199 = DIRECTION ( 'NONE',  ( -3.491481338843133355E-15, 1.224646799147353207E-16, -1.000000000000000000 ) ) ;
#200 = CC_DESIGN_PERSON_AND_ORGANIZATION_ASSIGNMENT ( #4, #9, ( #237 ) ) ;
#201 = DATE_AND_TIME ( #261, #289 ) ;
#202 = AXIS2_PLACEMENT_3D ( 'NONE', #60, #78, #35 ) ;
#203 = EDGE_LOOP ( 'NONE', ( #63 ) ) ;
#204 = AXIS2_PLACEMENT_3D ( 'NONE', #296, #225, #270 ) ;
#205 = FACE_OUTER_BOUND ( 'NONE', #249, .T. ) ;
#206 = DIRECTION ( 'NONE',  ( -4.275831445896958607E-31, -1.000000000000000000, -1.224646799147353207E-16 ) ) ;
#207 = DIRECTION ( 'NONE',  ( 3.491481338843133355E-15, -1.224646799147353207E-16, 1.000000000000000000 ) ) ;
#208 = DIRECTION ( 'NONE',  ( -3.491481338843133355E-15, 1.224646799147353207E-16, -1.000000000000000000 ) ) ;
#209 = DIRECTION ( 'NONE',  ( -3.491481338843133355E-15, 1.224646799147353207E-16, -1.000000000000000000 ) ) ;
#210 = ADVANCED_FACE ( 'NONE', ( #211, #298 ), #276, .T. ) ;
#211 = FACE_OUTER_BOUND ( 'NONE', #301, .T. ) ;
#212 = CIRCLE ( 'NONE', #246, 1.200000000000001510 ) ;
#213 = CONICAL_SURFACE ( 'NONE', #76, 1.739999999999995106, 0.5235987755983005920 ) ;
#214 = CARTESIAN_POINT ( 'NONE',  ( 0.0000000000000000000, 0.0000000000000000000, 0.0000000000000000000 ) ) ;
#215 = AXIS2_PLACEMENT_3D ( 'NONE', #214, #70, #50 ) ;
#216 = PERSON_AND_ORGANIZATION ( #169, #162 ) ;
#217 = CALENDAR_DATE ( 2021, 2, 12 ) ;
#218 = FACE_OUTER_BOUND ( 'NONE', #185, .T. ) ;
#219 = ADVANCED_FACE ( 'NONE', ( #171, #300 ), #233, .T. ) ;
#220 = FACE_OUTER_BOUND ( 'NONE', #265, .T. ) ;
#221 = PLANE ( 'NONE',  #108 ) ;
#222 = AXIS2_PLACEMENT_3D ( 'NONE', #81, #107, #39 ) ;
#223 = DIRECTION ( 'NONE',  ( 4.275831445896958607E-31, 1.000000000000000000, 1.224646799147353207E-16 ) ) ;
#224 = DIRECTION ( 'NONE',  ( 0.0000000000000000000, 1.000000000000000000, 0.0000000000000000000 ) ) ;
#225 = DIRECTION ( 'NONE',  ( -3.491481338843133355E-15, 1.224646799147353207E-16, -1.000000000000000000 ) ) ;
#226 = ORIENTED_EDGE ( 'NONE', *, *, #48, .F. ) ;
#227 = AXIS2_PLACEMENT_3D ( 'NONE', #44, #209, #91 ) ;
#228 = ADVANCED_FACE ( 'NONE', ( #146, #303 ), #213, .T. ) ;
#229 = DIRECTION ( 'NONE',  ( 4.275831445896958607E-31, 1.000000000000000000, 1.224646799147353207E-16 ) ) ;
#230 = DIRECTION ( 'NONE',  ( 4.275831445896958607E-31, 1.000000000000000000, 1.224646799147353454E-16 ) ) ;
#231 = CIRCLE ( 'NONE', #150, 1.489999999999994218 ) ;
#232 = PRODUCT_DEFINITION ( 'UNKNOWN', '', #170, #79 ) ;
#233 = CYLINDRICAL_SURFACE ( 'NONE', #215, 1.499999999999996891 ) ;
#234 = CARTESIAN_POINT ( 'NONE',  ( 0.0000000000000000000, 0.0000000000000000000, 0.0000000000000000000 ) ) ;
#235 = CARTESIAN_POINT ( 'NONE',  ( 2.444036937190193601E-13, 1.199999999999992628, 70.00000000000000000 ) ) ;
#236 = AXIS2_PLACEMENT_3D ( 'NONE', #18, #207, #206 ) ;
#237 = SECURITY_CLASSIFICATION ( '', '', #186 ) ;
#238 = VERTEX_POINT ( 'NONE', #196 ) ;
#239 = CARTESIAN_POINT ( 'NONE',  ( 3.636619492584452301E-14, 1.499999999999991562, 10.41569219381653255 ) ) ;
#240 =( LENGTH_UNIT ( ) NAMED_UNIT ( * ) SI_UNIT ( .MILLI., .METRE. ) );
#241 = ADVANCED_BREP_SHAPE_REPRESENTATION ( '321574', ( #263, #67, #247 ), #121 ) ;
#242 = EDGE_LOOP ( 'NONE', ( #226 ) ) ;
#243 = ORIENTED_EDGE ( 'NONE', *, *, #40, .F. ) ;
#244 = CARTESIAN_POINT ( 'NONE',  ( 2.444036937190193601E-13, -8.572527594031472993E-15, 70.00000000000000000 ) ) ;
#245 = CC_DESIGN_APPROVAL ( #172, ( #232 ) ) ;
#246 = AXIS2_PLACEMENT_3D ( 'NONE', #113, #139, #187 ) ;
#247 = AXIS2_PLACEMENT_3D ( 'NONE', #234, #3, #27 ) ;
#248 = DIRECTION ( 'NONE',  ( -3.491481338843133355E-15, 1.224646799147353207E-16, -1.000000000000000000 ) ) ;
#249 = EDGE_LOOP ( 'NONE', ( #42 ) ) ;
#250 = DIRECTION ( 'NONE',  ( 4.275831445896958607E-31, 1.000000000000000000, 1.224646799147353207E-16 ) ) ;
#251 = EDGE_CURVE ( 'NONE', #154, #154, #104, .T. ) ;
#252 = DIRECTION ( 'NONE',  ( -3.491481338843133355E-15, 1.224646799147353207E-16, -1.000000000000000000 ) ) ;
#253 = CC_DESIGN_PERSON_AND_ORGANIZATION_ASSIGNMENT ( #168, #264, ( #170 ) ) ;
#254 = CARTESIAN_POINT ( 'NONE',  ( 0.0000000000000000000, 0.0000000000000000000, 0.0000000000000000000 ) ) ;
#255 = MECHANICAL_CONTEXT ( 'NONE', #128, 'mechanical' ) ;
#256 = ADVANCED_FACE ( 'NONE', ( #218, #176 ), #98, .T. ) ;
#257 = VERTEX_POINT ( 'NONE', #278 ) ;
#258 = LOCAL_TIME ( 10, 35, 42.00000000000000000, #125 ) ;
#259 = DIRECTION ( 'NONE',  ( -3.491481338843133355E-15, 1.224646799147353207E-16, -1.000000000000000000 ) ) ;
#260 = CIRCLE ( 'NONE', #1, 1.500000000000001110 ) ;
#261 = CALENDAR_DATE ( 2021, 2, 12 ) ;
#262 = FACE_BOUND ( 'NONE', #184, .T. ) ;
#263 = MANIFOLD_SOLID_BREP ( 'Corps-Déplacer/Copier1[1]', #97 ) ;
#264 = PERSON_AND_ORGANIZATION_ROLE ( 'creator' ) ;
#265 = EDGE_LOOP ( 'NONE', ( #243 ) ) ;
#266 = DIRECTION ( 'NONE',  ( 0.0000000000000000000, 1.000000000000000000, 0.0000000000000000000 ) ) ;
#267 = DIRECTION ( 'NONE',  ( 0.0000000000000000000, 1.000000000000000000, 0.0000000000000000000 ) ) ;
#268 = ORIENTED_EDGE ( 'NONE', *, *, #23, .F. ) ;
#269 = CONICAL_SURFACE ( 'NONE', #182, 1.739999999999995106, 0.5235987755983005920 ) ;
#270 = DIRECTION ( 'NONE',  ( 0.0000000000000000000, 1.000000000000000000, 0.0000000000000000000 ) ) ;
#271 = COORDINATED_UNIVERSAL_TIME_OFFSET ( 1, 0, .AHEAD. ) ;
#272 = DIRECTION ( 'NONE',  ( 0.0000000000000000000, 1.000000000000000000, 0.0000000000000000000 ) ) ;
#273 = CIRCLE ( 'NONE', #149, 1.739999999999995106 ) ;
#274 = CC_DESIGN_APPROVAL ( #157, ( #237 ) ) ;
#275 = CC_DESIGN_DATE_AND_TIME_ASSIGNMENT ( #156, #280, ( #237 ) ) ;
#276 = CYLINDRICAL_SURFACE ( 'NONE', #46, 1.499999999999996891 ) ;
#277 = ADVANCED_FACE ( 'NONE', ( #7, #8 ), #269, .T. ) ;
#278 = CARTESIAN_POINT ( 'NONE',  ( 2.444036937190193601E-13, 1.199999999999992628, 70.00000000000000000 ) ) ;
#279 = PERSON_AND_ORGANIZATION_ROLE ( 'design_owner' ) ;
#280 = DATE_TIME_ROLE ( 'classification_date' ) ;
#281 = VERTEX_POINT ( 'NONE', #53 ) ;
#282 = APPROVAL_ROLE ( '' ) ;
#283 = CC_DESIGN_PERSON_AND_ORGANIZATION_ASSIGNMENT ( #216, #279, ( #89 ) ) ;
#284 = ORIENTED_EDGE ( 'NONE', *, *, #40, .T. ) ;
#285 = DIRECTION ( 'NONE',  ( -3.491481338843133355E-15, 1.224646799147353207E-16, -1.000000000000000000 ) ) ;
#286 = COORDINATED_UNIVERSAL_TIME_OFFSET ( 1, 0, .AHEAD. ) ;
#287 = CIRCLE ( 'NONE', #202, 1.739999999999995106 ) ;
#288 = DATE_TIME_ROLE ( 'creation_date' ) ;
#289 = LOCAL_TIME ( 10, 35, 42.00000000000000000, #33 ) ;
#290 = EDGE_LOOP ( 'NONE', ( #294 ) ) ;
#291 = ORIENTED_EDGE ( 'NONE', *, *, #26, .T. ) ;
#292 = ORIENTED_EDGE ( 'NONE', *, *, #119, .F. ) ;
#293 = EDGE_LOOP ( 'NONE', ( #80 ) ) ;
#294 = ORIENTED_EDGE ( 'NONE', *, *, #251, .T. ) ;
#295 = CARTESIAN_POINT ( 'NONE',  ( 2.444036937190193601E-13, -8.572527594031472993E-15, 70.00000000000000000 ) ) ;
#296 = CARTESIAN_POINT ( 'NONE',  ( 2.444036937190193601E-13, -8.572527594031472993E-15, 70.00000000000000000 ) ) ;
#297 = CARTESIAN_POINT ( 'NONE',  ( 3.636619492584452301E-14, -1.275554410606149068E-15, 10.41569219381653255 ) ) ;
#298 = FACE_OUTER_BOUND ( 'NONE', #203, .T. ) ;
#299 = APPROVAL_PERSON_ORGANIZATION ( #73, #172, #179 ) ;
#300 = FACE_OUTER_BOUND ( 'NONE', #84, .T. ) ;
#301 = EDGE_LOOP ( 'NONE', ( #24 ) ) ;
#302 = DIRECTION ( 'NONE',  ( -3.491481338843133355E-15, 1.224646799147353207E-16, -1.000000000000000000 ) ) ;
#303 = FACE_OUTER_BOUND ( 'NONE', #145, .T. ) ;
ENDSEC;
END-ISO-10303-21;
