ISO-10303-21;
HEADER;
FILE_DESCRIPTION (( 'STEP AP203' ),
    '1' );
FILE_NAME ('321573.step',
    '2021-12-02T09:35:41',
    ( '' ),
    ( '' ),
    'SwSTEP 2.0',
    'SolidWorks 2019',
    '' );
FILE_SCHEMA (( 'CONFIG_CONTROL_DESIGN' ));
ENDSEC;

DATA;
#1 = CARTESIAN_POINT ( 'NONE',  ( 2.444036937190193601E-13, 8.998558695971026591E-33, 70.00000000000000000 ) ) ;
#2 = CYLINDRICAL_SURFACE ( 'NONE', #30, 1.734999999999994991 ) ;
#3 = CARTESIAN_POINT ( 'NONE',  ( 2.433562493173664138E-13, -8.535788190057053710E-15, 69.70000000000001705 ) ) ;
#4 = VERTEX_POINT ( 'NONE', #171 ) ;
#5 = DIRECTION ( 'NONE',  ( -3.491481338843133355E-15, 1.224646799147353207E-16, -1.000000000000000000 ) ) ;
#6 = CIRCLE ( 'NONE', #103, 1.734999999999994991 ) ;
#7 = CC_DESIGN_APPROVAL ( #269, ( #207 ) ) ;
#8 = APPROVAL_ROLE ( '' ) ;
#9 = DIRECTION ( 'NONE',  ( 1.000000000000000000, 0.0000000000000000000, 0.0000000000000000000 ) ) ;
#10 = PERSON_AND_ORGANIZATION ( #179, #251 ) ;
#11 = AXIS2_PLACEMENT_3D ( 'NONE', #212, #62, #158 ) ;
#12 = ADVANCED_FACE ( 'NONE', ( #280, #137 ), #266, .T. ) ;
#13 = PERSON_AND_ORGANIZATION ( #179, #251 ) ;
#14 = EDGE_LOOP ( 'NONE', ( #294 ) ) ;
#15 = PERSON_AND_ORGANIZATION_ROLE ( 'creator' ) ;
#16 = APPROVAL_ROLE ( '' ) ;
#17 = EDGE_CURVE ( 'NONE', #74, #74, #98, .T. ) ;
#18 = DIRECTION ( 'NONE',  ( 4.275831445896958607E-31, 1.000000000000000000, 1.224646799147353207E-16 ) ) ;
#19 = DIRECTION ( 'NONE',  ( -3.491481338843133355E-15, 1.224646799147353207E-16, -1.000000000000000000 ) ) ;
#20 = FACE_OUTER_BOUND ( 'NONE', #160, .T. ) ;
#21 = EDGE_CURVE ( 'NONE', #4, #4, #170, .T. ) ;
#22 = DIRECTION ( 'NONE',  ( 0.0000000000000000000, 1.000000000000000000, 0.0000000000000000000 ) ) ;
#23 = CARTESIAN_POINT ( 'NONE',  ( -3.174804848578479184E-31, 1.113571638626424949E-32, -9.093002483669062021E-17 ) ) ;
#24 = DIRECTION ( 'NONE',  ( -4.275831445896958607E-31, -1.000000000000000000, -1.224646799147353207E-16 ) ) ;
#25 = ADVANCED_FACE ( 'NONE', ( #89, #20 ), #274, .T. ) ;
#26 = DIRECTION ( 'NONE',  ( -4.275831445896958607E-31, -1.000000000000000000, -1.224646799147353207E-16 ) ) ;
#27 = DIRECTION ( 'NONE',  ( -3.491481338843133355E-15, 1.224646799147353207E-16, -1.000000000000000000 ) ) ;
#28 = VERTEX_POINT ( 'NONE', #122 ) ;
#29 = PLANE ( 'NONE',  #236 ) ;
#30 = AXIS2_PLACEMENT_3D ( 'NONE', #195, #285, #147 ) ;
#31 = DATE_AND_TIME ( #222, #275 ) ;
#32 = CARTESIAN_POINT ( 'NONE',  ( 2.444036937190193601E-13, 1.199999999999992628, 70.00000000000000000 ) ) ;
#33 = DATE_TIME_ROLE ( 'classification_date' ) ;
#34 = EDGE_LOOP ( 'NONE', ( #181 ) ) ;
#35 = COORDINATED_UNIVERSAL_TIME_OFFSET ( 1, 0, .AHEAD. ) ;
#36 = APPROVAL ( #198, 'UNSPECIFIED' ) ;
#37 = ORIENTED_EDGE ( 'NONE', *, *, #39, .T. ) ;
#38 = EDGE_LOOP ( 'NONE', ( #82 ) ) ;
#39 = EDGE_CURVE ( 'NONE', #219, #219, #242, .T. ) ;
#40 = PRODUCT ( '321573', '321573', '', ( #58 ) ) ;
#41 = DIRECTION ( 'NONE',  ( 0.0000000000000000000, 1.000000000000000000, 0.0000000000000000000 ) ) ;
#42 = CARTESIAN_POINT ( 'NONE',  ( 2.444036937190193601E-13, -8.572527594031472993E-15, 70.00000000000000000 ) ) ;
#43 = AXIS2_PLACEMENT_3D ( 'NONE', #284, #264, #75 ) ;
#44 = DIRECTION ( 'NONE',  ( 0.0000000000000000000, 1.000000000000000000, 0.0000000000000000000 ) ) ;
#45 = FACE_OUTER_BOUND ( 'NONE', #65, .T. ) ;
#46 = CC_DESIGN_DATE_AND_TIME_ASSIGNMENT ( #250, #33, ( #207 ) ) ;
#47 = CARTESIAN_POINT ( 'NONE',  ( 0.0000000000000000000, 0.0000000000000000000, 0.0000000000000000000 ) ) ;
#48 = CONICAL_SURFACE ( 'NONE', #217, 1.484999999999994102, 0.7853981633974500554 ) ;
#49 = DIRECTION ( 'NONE',  ( 4.275831445896958607E-31, 1.000000000000000000, 1.224646799147353454E-16 ) ) ;
#50 = CARTESIAN_POINT ( 'NONE',  ( 2.444036937190193601E-13, 1.199999999999992628, 70.00000000000000000 ) ) ;
#51 = DIRECTION ( 'NONE',  ( 0.0000000000000000000, 1.000000000000000000, 0.0000000000000000000 ) ) ;
#52 = CIRCLE ( 'NONE', #226, 1.499999999999992895 ) ;
#53 = VERTEX_POINT ( 'NONE', #83 ) ;
#54 = AXIS2_PLACEMENT_3D ( 'NONE', #1, #166, #148 ) ;
#55 =( NAMED_UNIT ( * ) SI_UNIT ( $, .STERADIAN. ) SOLID_ANGLE_UNIT ( ) );
#56 = PERSON_AND_ORGANIZATION_ROLE ( 'design_supplier' ) ;
#57 = PERSON_AND_ORGANIZATION ( #179, #251 ) ;
#58 = MECHANICAL_CONTEXT ( 'NONE', #66, 'mechanical' ) ;
#59 = EDGE_LOOP ( 'NONE', ( #205 ) ) ;
#60 = CC_DESIGN_PERSON_AND_ORGANIZATION_ASSIGNMENT ( #177, #86, ( #40 ) ) ;
#61 = FACE_BOUND ( 'NONE', #282, .T. ) ;
#62 = DIRECTION ( 'NONE',  ( -3.491481338843133355E-15, 1.224646799147353207E-16, -1.000000000000000000 ) ) ;
#63 = LOCAL_TIME ( 10, 35, 41.00000000000000000, #223 ) ;
#64 = DIRECTION ( 'NONE',  ( -3.491481338843133355E-15, 1.224646799147353207E-16, -1.000000000000000000 ) ) ;
#65 = EDGE_LOOP ( 'NONE', ( #133 ) ) ;
#66 = APPLICATION_CONTEXT ( 'configuration controlled 3d designs of mechanical parts and assemblies' ) ;
#67 = ORIENTED_EDGE ( 'NONE', *, *, #245, .F. ) ;
#68 = CLOSED_SHELL ( 'NONE', ( #232, #25, #167, #125, #183 ) ) ;
#69 = MANIFOLD_SOLID_BREP ( 'Corps-Déplacer/Copier1[1]', #68 ) ;
#70 = ADVANCED_FACE ( 'NONE', ( #256 ), #115, .F. ) ;
#71 = DIRECTION ( 'NONE',  ( 4.275831445896958607E-31, 1.000000000000000000, 1.224646799147353454E-16 ) ) ;
#72 = MANIFOLD_SOLID_BREP ( 'Corps-Déplacer/Copier1[2]', #206 ) ;
#73 = APPROVAL ( #225, 'UNSPECIFIED' ) ;
#74 = VERTEX_POINT ( 'NONE', #146 ) ;
#75 = DIRECTION ( 'NONE',  ( 0.0000000000000000000, 1.000000000000000000, 0.0000000000000000000 ) ) ;
#76 = EDGE_CURVE ( 'NONE', #77, #77, #235, .T. ) ;
#77 = VERTEX_POINT ( 'NONE', #50 ) ;
#78 = DIRECTION ( 'NONE',  ( 4.440184309826493321E-31, 1.000000000000000000, 1.249800775199432393E-16 ) ) ;
#79 = PERSON_AND_ORGANIZATION_ROLE ( 'creator' ) ;
#80 = EDGE_CURVE ( 'NONE', #246, #246, #52, .T. ) ;
#81 = APPROVAL_DATE_TIME ( #290, #36 ) ;
#82 = ORIENTED_EDGE ( 'NONE', *, *, #152, .F. ) ;
#83 = CARTESIAN_POINT ( 'NONE',  ( 2.433562493173664138E-13, 1.499999999999992673, 69.70000000000001705 ) ) ;
#84 = EDGE_LOOP ( 'NONE', ( #228 ) ) ;
#85 = APPLICATION_CONTEXT ( 'configuration controlled 3d designs of mechanical parts and assemblies' ) ;
#86 = PERSON_AND_ORGANIZATION_ROLE ( 'design_owner' ) ;
#87 = LOCAL_TIME ( 10, 35, 41.00000000000000000, #106 ) ;
#88 = EDGE_LOOP ( 'NONE', ( #273 ) ) ;
#89 = FACE_BOUND ( 'NONE', #293, .T. ) ;
#90 = CARTESIAN_POINT ( 'NONE',  ( 8.728703347107827472E-16, -3.061616997868381169E-17, 0.2499999999999998335 ) ) ;
#91 = DIRECTION ( 'NONE',  ( 0.0000000000000000000, 1.000000000000000000, 0.0000000000000000000 ) ) ;
#92 = AXIS2_PLACEMENT_3D ( 'NONE', #23, #134, #18 ) ;
#93 = AXIS2_PLACEMENT_3D ( 'NONE', #190, #260, #194 ) ;
#94 = EDGE_LOOP ( 'NONE', ( #200 ) ) ;
#95 = FACE_OUTER_BOUND ( 'NONE', #140, .T. ) ;
#96 = FACE_OUTER_BOUND ( 'NONE', #189, .T. ) ;
#97 = PRODUCT_RELATED_PRODUCT_CATEGORY ( 'detail', '', ( #40 ) ) ;
#98 = CIRCLE ( 'NONE', #185, 1.500000000000001110 ) ;
#99 = CC_DESIGN_APPROVAL ( #36, ( #202 ) ) ;
#100 = DIRECTION ( 'NONE',  ( 3.491481338843133355E-15, -1.224646799147353207E-16, 1.000000000000000000 ) ) ;
#101 = FACE_BOUND ( 'NONE', #176, .T. ) ;
#102 = CARTESIAN_POINT ( 'NONE',  ( 0.0000000000000000000, 1.484999999999994102, 0.0000000000000000000 ) ) ;
#103 = AXIS2_PLACEMENT_3D ( 'NONE', #90, #27, #78 ) ;
#104 = AXIS2_PLACEMENT_3D ( 'NONE', #199, #127, #9 ) ;
#105 = CARTESIAN_POINT ( 'NONE',  ( 3.633595781048174796E-14, 1.499999999999991562, 10.40703193977868857 ) ) ;
#106 = COORDINATED_UNIVERSAL_TIME_OFFSET ( 1, 0, .AHEAD. ) ;
#107 = AXIS2_PLACEMENT_3D ( 'NONE', #164, #64, #163 ) ;
#108 = CALENDAR_DATE ( 2021, 2, 12 ) ;
#109 = APPROVAL_PERSON_ORGANIZATION ( #10, #36, #8 ) ;
#110 = APPROVAL_ROLE ( '' ) ;
#111 = ORIENTED_EDGE ( 'NONE', *, *, #182, .T. ) ;
#112 = CALENDAR_DATE ( 2021, 2, 12 ) ;
#113 = CARTESIAN_POINT ( 'NONE',  ( 3.633595781048174796E-14, -1.274493835367424024E-15, 10.40703193977868857 ) ) ;
#114 = DIRECTION ( 'NONE',  ( -3.491481338843133355E-15, 1.224646799147353207E-16, -1.000000000000000000 ) ) ;
#115 = PLANE ( 'NONE',  #191 ) ;
#116 = DIRECTION ( 'NONE',  ( 0.0000000000000000000, 1.000000000000000000, 0.0000000000000000000 ) ) ;
#117 = ORIENTED_EDGE ( 'NONE', *, *, #152, .T. ) ;
#118 = FACE_BOUND ( 'NONE', #84, .T. ) ;
#119 = DIRECTION ( 'NONE',  ( -3.491481338843133355E-15, 1.224646799147353207E-16, -1.000000000000000000 ) ) ;
#120 = DIRECTION ( 'NONE',  ( -3.491481338843133355E-15, 1.224646799147353207E-16, -1.000000000000000000 ) ) ;
#121 = ADVANCED_BREP_SHAPE_REPRESENTATION ( '321573', ( #69, #72, #104 ), #130 ) ;
#122 = CARTESIAN_POINT ( 'NONE',  ( 3.633595781048174796E-14, 1.499999999999991562, 10.40703193977868857 ) ) ;
#123 = AXIS2_PLACEMENT_3D ( 'NONE', #210, #187, #41 ) ;
#124 = CARTESIAN_POINT ( 'NONE',  ( 3.491481338843133355E-14, 1.301041611459155645E-32, 10.00000000000000000 ) ) ;
#125 = ADVANCED_FACE ( 'NONE', ( #95, #61 ), #144, .T. ) ;
#126 = SECURITY_CLASSIFICATION_LEVEL ( 'unclassified' ) ;
#127 = DIRECTION ( 'NONE',  ( 0.0000000000000000000, 0.0000000000000000000, 1.000000000000000000 ) ) ;
#128 = CIRCLE ( 'NONE', #178, 1.499999999999992895 ) ;
#129 = PERSON_AND_ORGANIZATION ( #179, #251 ) ;
#130 =( GEOMETRIC_REPRESENTATION_CONTEXT ( 3 ) GLOBAL_UNCERTAINTY_ASSIGNED_CONTEXT ( ( #214 ) ) GLOBAL_UNIT_ASSIGNED_CONTEXT ( ( #149, #154, #55 ) ) REPRESENTATION_CONTEXT ( 'NONE', 'WORKASPACE' ) );
#131 = CALENDAR_DATE ( 2021, 2, 12 ) ;
#132 = COORDINATED_UNIVERSAL_TIME_OFFSET ( 1, 0, .AHEAD. ) ;
#133 = ORIENTED_EDGE ( 'NONE', *, *, #157, .T. ) ;
#134 = DIRECTION ( 'NONE',  ( -3.491481338843133355E-15, 1.224646799147353207E-16, -1.000000000000000000 ) ) ;
#135 = ADVANCED_FACE ( 'NONE', ( #253 ), #303, .T. ) ;
#136 = CC_DESIGN_PERSON_AND_ORGANIZATION_ASSIGNMENT ( #57, #15, ( #193 ) ) ;
#137 = FACE_OUTER_BOUND ( 'NONE', #34, .T. ) ;
#138 = PRODUCT_DEFINITION_SHAPE ( 'NONE', 'NONE',  #193 ) ;
#139 = DIRECTION ( 'NONE',  ( 0.0000000000000000000, 1.000000000000000000, 0.0000000000000000000 ) ) ;
#140 = EDGE_LOOP ( 'NONE', ( #259 ) ) ;
#141 = DIRECTION ( 'NONE',  ( -3.491481338843133355E-15, 1.224646799147353207E-16, -1.000000000000000000 ) ) ;
#142 = CARTESIAN_POINT ( 'NONE',  ( 0.0000000000000000000, 0.0000000000000000000, 0.0000000000000000000 ) ) ;
#143 = CARTESIAN_POINT ( 'NONE',  ( -6.349609697156958369E-31, 2.227143277252849899E-32, -1.818600496733812404E-16 ) ) ;
#144 = CONICAL_SURFACE ( 'NONE', #11, 1.200000000000001510, 0.7853981633974566057 ) ;
#145 = APPROVAL_PERSON_ORGANIZATION ( #248, #73, #110 ) ;
#146 = CARTESIAN_POINT ( 'NONE',  ( 2.433562493173664138E-13, 1.499999999999992673, 69.70000000000001705 ) ) ;
#147 = DIRECTION ( 'NONE',  ( 4.275831445896958607E-31, 1.000000000000000000, 1.224646799147353207E-16 ) ) ;
#148 = DIRECTION ( 'NONE',  ( 4.275831445896958607E-31, 1.000000000000000000, 1.224646799147353207E-16 ) ) ;
#149 =( LENGTH_UNIT ( ) NAMED_UNIT ( * ) SI_UNIT ( .MILLI., .METRE. ) );
#150 = EDGE_LOOP ( 'NONE', ( #155 ) ) ;
#151 = CALENDAR_DATE ( 2021, 2, 12 ) ;
#152 = EDGE_CURVE ( 'NONE', #28, #28, #128, .T. ) ;
#153 = COORDINATED_UNIVERSAL_TIME_OFFSET ( 1, 0, .AHEAD. ) ;
#154 =( NAMED_UNIT ( * ) PLANE_ANGLE_UNIT ( ) SI_UNIT ( $, .RADIAN. ) );
#155 = ORIENTED_EDGE ( 'NONE', *, *, #17, .T. ) ;
#156 = DESIGN_CONTEXT ( 'detailed design', #85, 'design' ) ;
#157 = EDGE_CURVE ( 'NONE', #220, #220, #6, .T. ) ;
#158 = DIRECTION ( 'NONE',  ( 0.0000000000000000000, 1.000000000000000000, 0.0000000000000000000 ) ) ;
#159 = CC_DESIGN_SECURITY_CLASSIFICATION ( #207, ( #202 ) ) ;
#160 = EDGE_LOOP ( 'NONE', ( #255 ) ) ;
#161 = ORIENTED_EDGE ( 'NONE', *, *, #245, .T. ) ;
#162 = EDGE_CURVE ( 'NONE', #288, #288, #180, .T. ) ;
#163 = DIRECTION ( 'NONE',  ( 4.275831445896958607E-31, 1.000000000000000000, 1.224646799147353207E-16 ) ) ;
#164 = CARTESIAN_POINT ( 'NONE',  ( -6.349609697156958369E-31, 2.227143277252849899E-32, -1.818600496733812404E-16 ) ) ;
#165 = LOCAL_TIME ( 10, 35, 41.00000000000000000, #132 ) ;
#166 = DIRECTION ( 'NONE',  ( -3.491481338843133355E-15, 1.224646799147353207E-16, -1.000000000000000000 ) ) ;
#167 = ADVANCED_FACE ( 'NONE', ( #168, #218 ), #172, .T. ) ;
#168 = FACE_OUTER_BOUND ( 'NONE', #38, .T. ) ;
#169 = FACE_OUTER_BOUND ( 'NONE', #59, .T. ) ;
#170 = CIRCLE ( 'NONE', #201, 1.734999999999994991 ) ;
#171 = CARTESIAN_POINT ( 'NONE',  ( 3.491481338843133355E-14, 1.734999999999993658, 10.00000000000000000 ) ) ;
#172 = CYLINDRICAL_SURFACE ( 'NONE', #258, 1.499999999999996891 ) ;
#173 = VERTEX_POINT ( 'NONE', #32 ) ;
#174 = ORIENTED_EDGE ( 'NONE', *, *, #76, .T. ) ;
#175 = PERSON_AND_ORGANIZATION ( #179, #251 ) ;
#176 = EDGE_LOOP ( 'NONE', ( #174 ) ) ;
#177 = PERSON_AND_ORGANIZATION ( #179, #251 ) ;
#178 = AXIS2_PLACEMENT_3D ( 'NONE', #113, #209, #299 ) ;
#179 = PERSON ( 'UNSPECIFIED', 'UNSPECIFIED', 'UNSPECIFIED', ('UNSPECIFIED'), ('UNSPECIFIED'), ('UNSPECIFIED') ) ;
#180 = CIRCLE ( 'NONE', #43, 1.734999999999994991 ) ;
#181 = ORIENTED_EDGE ( 'NONE', *, *, #21, .F. ) ;
#182 = EDGE_CURVE ( 'NONE', #173, #173, #186, .T. ) ;
#183 = ADVANCED_FACE ( 'NONE', ( #265 ), #261, .F. ) ;
#184 = CARTESIAN_POINT ( 'NONE',  ( 3.491481338843133355E-14, -1.224646799147353256E-15, 10.00000000000000000 ) ) ;
#185 = AXIS2_PLACEMENT_3D ( 'NONE', #257, #19, #139 ) ;
#186 = CIRCLE ( 'NONE', #254, 1.200000000000001510 ) ;
#187 = DIRECTION ( 'NONE',  ( -3.491481338843133355E-15, 1.224646799147353207E-16, -1.000000000000000000 ) ) ;
#188 = EDGE_LOOP ( 'NONE', ( #281 ) ) ;
#189 = EDGE_LOOP ( 'NONE', ( #234 ) ) ;
#190 = CARTESIAN_POINT ( 'NONE',  ( 2.444036937190193601E-13, -8.572527594031472993E-15, 70.00000000000000000 ) ) ;
#191 = AXIS2_PLACEMENT_3D ( 'NONE', #42, #302, #276 ) ;
#192 = DIRECTION ( 'NONE',  ( -3.491481338843133355E-15, 1.224646799147353207E-16, -1.000000000000000000 ) ) ;
#193 = PRODUCT_DEFINITION ( 'UNKNOWN', '', #202, #156 ) ;
#194 = DIRECTION ( 'NONE',  ( 0.0000000000000000000, 1.000000000000000000, 0.0000000000000000000 ) ) ;
#195 = CARTESIAN_POINT ( 'NONE',  ( 0.0000000000000000000, 0.0000000000000000000, 0.0000000000000000000 ) ) ;
#196 = CIRCLE ( 'NONE', #221, 1.500000000000001110 ) ;
#197 = CARTESIAN_POINT ( 'NONE',  ( 8.728703347107835360E-16, 1.734999999999994991, 0.2500000000000000555 ) ) ;
#198 = APPROVAL_STATUS ( 'not_yet_approved' ) ;
#199 = CARTESIAN_POINT ( 'NONE',  ( 0.0000000000000000000, 0.0000000000000000000, 0.0000000000000000000 ) ) ;
#200 = ORIENTED_EDGE ( 'NONE', *, *, #80, .T. ) ;
#201 = AXIS2_PLACEMENT_3D ( 'NONE', #184, #114, #44 ) ;
#202 = PRODUCT_DEFINITION_FORMATION_WITH_SPECIFIED_SOURCE ( 'ANY', '', #40, .NOT_KNOWN. ) ;
#203 = DATE_TIME_ROLE ( 'creation_date' ) ;
#204 = CARTESIAN_POINT ( 'NONE',  ( 3.491481338843133355E-14, 1.734999999999993658, 10.00000000000000000 ) ) ;
#205 = ORIENTED_EDGE ( 'NONE', *, *, #157, .F. ) ;
#206 = CLOSED_SHELL ( 'NONE', ( #12, #277, #272, #135, #70, #262, #224 ) ) ;
#207 = SECURITY_CLASSIFICATION ( '', '', #126 ) ;
#208 = DATE_AND_TIME ( #112, #165 ) ;
#209 = DIRECTION ( 'NONE',  ( -3.491481338843133355E-15, 1.224646799147353207E-16, -1.000000000000000000 ) ) ;
#210 = CARTESIAN_POINT ( 'NONE',  ( 3.491481338843133355E-14, -1.224646799147353256E-15, 10.00000000000000000 ) ) ;
#211 = AXIS2_PLACEMENT_3D ( 'NONE', #233, #278, #91 ) ;
#212 = CARTESIAN_POINT ( 'NONE',  ( 2.444036937190193601E-13, -8.572527594031472993E-15, 70.00000000000000000 ) ) ;
#213 = CARTESIAN_POINT ( 'NONE',  ( 3.633595781048174796E-14, -1.274493835367424024E-15, 10.40703193977868857 ) ) ;
#214 = UNCERTAINTY_MEASURE_WITH_UNIT (LENGTH_MEASURE( 1.000000000000000082E-05 ), #149, 'distance_accuracy_value', 'NONE');
#215 = FACE_OUTER_BOUND ( 'NONE', #14, .T. ) ;
#216 = CC_DESIGN_PERSON_AND_ORGANIZATION_ASSIGNMENT ( #227, #270, ( #207 ) ) ;
#217 = AXIS2_PLACEMENT_3D ( 'NONE', #143, #241, #26 ) ;
#218 = FACE_OUTER_BOUND ( 'NONE', #150, .T. ) ;
#219 = VERTEX_POINT ( 'NONE', #102 ) ;
#220 = VERTEX_POINT ( 'NONE', #197 ) ;
#221 = AXIS2_PLACEMENT_3D ( 'NONE', #3, #192, #287 ) ;
#222 = CALENDAR_DATE ( 2021, 2, 12 ) ;
#223 = COORDINATED_UNIVERSAL_TIME_OFFSET ( 1, 0, .AHEAD. ) ;
#224 = ADVANCED_FACE ( 'NONE', ( #96, #244 ), #247, .T. ) ;
#225 = APPROVAL_STATUS ( 'not_yet_approved' ) ;
#226 = AXIS2_PLACEMENT_3D ( 'NONE', #213, #141, #116 ) ;
#227 = PERSON_AND_ORGANIZATION ( #179, #251 ) ;
#228 = ORIENTED_EDGE ( 'NONE', *, *, #39, .F. ) ;
#229 = APPROVAL_STATUS ( 'not_yet_approved' ) ;
#230 = LOCAL_TIME ( 10, 35, 41.00000000000000000, #153 ) ;
#231 = EDGE_LOOP ( 'NONE', ( #161 ) ) ;
#232 = ADVANCED_FACE ( 'NONE', ( #286 ), #29, .F. ) ;
#233 = CARTESIAN_POINT ( 'NONE',  ( 3.491481338843133355E-14, -1.224646799147353256E-15, 10.00000000000000000 ) ) ;
#234 = ORIENTED_EDGE ( 'NONE', *, *, #80, .F. ) ;
#235 = CIRCLE ( 'NONE', #279, 1.200000000000001510 ) ;
#236 = AXIS2_PLACEMENT_3D ( 'NONE', #124, #100, #24 ) ;
#237 = CARTESIAN_POINT ( 'NONE',  ( 2.444036937190193601E-13, -8.572527594031472993E-15, 70.00000000000000000 ) ) ;
#238 = DIRECTION ( 'NONE',  ( -3.491481338843133355E-15, 1.224646799147353207E-16, -1.000000000000000000 ) ) ;
#239 = CC_DESIGN_PERSON_AND_ORGANIZATION_ASSIGNMENT ( #13, #79, ( #202 ) ) ;
#240 = FACE_OUTER_BOUND ( 'NONE', #252, .T. ) ;
#241 = DIRECTION ( 'NONE',  ( 3.491481338843133355E-15, -1.224646799147353207E-16, 1.000000000000000000 ) ) ;
#242 = CIRCLE ( 'NONE', #107, 1.484999999999994102 ) ;
#243 = CONICAL_SURFACE ( 'NONE', #93, 1.200000000000001510, 0.7853981633974566057 ) ;
#244 = FACE_OUTER_BOUND ( 'NONE', #231, .T. ) ;
#245 = EDGE_CURVE ( 'NONE', #53, #53, #196, .T. ) ;
#246 = VERTEX_POINT ( 'NONE', #105 ) ;
#247 = CYLINDRICAL_SURFACE ( 'NONE', #297, 1.499999999999996891 ) ;
#248 = PERSON_AND_ORGANIZATION ( #179, #251 ) ;
#249 = DATE_AND_TIME ( #131, #230 ) ;
#250 = DATE_AND_TIME ( #151, #63 ) ;
#251 = ORGANIZATION ( 'UNSPECIFIED', 'UNSPECIFIED', '' ) ;
#252 = EDGE_LOOP ( 'NONE', ( #67 ) ) ;
#253 = FACE_OUTER_BOUND ( 'NONE', #267, .T. ) ;
#254 = AXIS2_PLACEMENT_3D ( 'NONE', #263, #120, #51 ) ;
#255 = ORIENTED_EDGE ( 'NONE', *, *, #162, .F. ) ;
#256 = FACE_OUTER_BOUND ( 'NONE', #301, .T. ) ;
#257 = CARTESIAN_POINT ( 'NONE',  ( 2.433562493173664138E-13, -8.535788190057053710E-15, 69.70000000000001705 ) ) ;
#258 = AXIS2_PLACEMENT_3D ( 'NONE', #142, #5, #71 ) ;
#259 = ORIENTED_EDGE ( 'NONE', *, *, #17, .F. ) ;
#260 = DIRECTION ( 'NONE',  ( -3.491481338843133355E-15, 1.224646799147353207E-16, -1.000000000000000000 ) ) ;
#261 = PLANE ( 'NONE',  #54 ) ;
#262 = ADVANCED_FACE ( 'NONE', ( #240, #101 ), #243, .T. ) ;
#263 = CARTESIAN_POINT ( 'NONE',  ( 2.444036937190193601E-13, -8.572527594031472993E-15, 70.00000000000000000 ) ) ;
#264 = DIRECTION ( 'NONE',  ( -3.491481338843133355E-15, 1.224646799147353207E-16, -1.000000000000000000 ) ) ;
#265 = FACE_OUTER_BOUND ( 'NONE', #188, .T. ) ;
#266 = CONICAL_SURFACE ( 'NONE', #211, 1.734999999999994991, 0.5235987755983012581 ) ;
#267 = EDGE_LOOP ( 'NONE', ( #37 ) ) ;
#268 = APPROVAL_PERSON_ORGANIZATION ( #129, #269, #16 ) ;
#269 = APPROVAL ( #229, 'UNSPECIFIED' ) ;
#270 = PERSON_AND_ORGANIZATION_ROLE ( 'classification_officer' ) ;
#271 = APPLICATION_PROTOCOL_DEFINITION ( 'international standard', 'config_control_design', 1994, #85 ) ;
#272 = ADVANCED_FACE ( 'NONE', ( #45, #118 ), #48, .T. ) ;
#273 = ORIENTED_EDGE ( 'NONE', *, *, #162, .T. ) ;
#274 = CONICAL_SURFACE ( 'NONE', #123, 1.734999999999994991, 0.5235987755983012581 ) ;
#275 = LOCAL_TIME ( 10, 35, 41.00000000000000000, #35 ) ;
#276 = DIRECTION ( 'NONE',  ( 4.275831445896958607E-31, 1.000000000000000000, 1.224646799147353207E-16 ) ) ;
#277 = ADVANCED_FACE ( 'NONE', ( #215, #169 ), #2, .T. ) ;
#278 = DIRECTION ( 'NONE',  ( -3.491481338843133355E-15, 1.224646799147353207E-16, -1.000000000000000000 ) ) ;
#279 = AXIS2_PLACEMENT_3D ( 'NONE', #237, #238, #22 ) ;
#280 = FACE_BOUND ( 'NONE', #94, .T. ) ;
#281 = ORIENTED_EDGE ( 'NONE', *, *, #182, .F. ) ;
#282 = EDGE_LOOP ( 'NONE', ( #111 ) ) ;
#283 = CC_DESIGN_APPROVAL ( #73, ( #193 ) ) ;
#284 = CARTESIAN_POINT ( 'NONE',  ( 3.491481338843133355E-14, -1.224646799147353256E-15, 10.00000000000000000 ) ) ;
#285 = DIRECTION ( 'NONE',  ( -3.491481338843133355E-15, 1.224646799147353207E-16, -1.000000000000000000 ) ) ;
#286 = FACE_OUTER_BOUND ( 'NONE', #88, .T. ) ;
#287 = DIRECTION ( 'NONE',  ( 0.0000000000000000000, 1.000000000000000000, 0.0000000000000000000 ) ) ;
#288 = VERTEX_POINT ( 'NONE', #204 ) ;
#289 = SHAPE_DEFINITION_REPRESENTATION ( #138, #121 ) ;
#290 = DATE_AND_TIME ( #108, #87 ) ;
#291 = CC_DESIGN_DATE_AND_TIME_ASSIGNMENT ( #249, #203, ( #193 ) ) ;
#292 = APPROVAL_DATE_TIME ( #31, #73 ) ;
#293 = EDGE_LOOP ( 'NONE', ( #117 ) ) ;
#294 = ORIENTED_EDGE ( 'NONE', *, *, #21, .T. ) ;
#295 = ORIENTED_EDGE ( 'NONE', *, *, #76, .F. ) ;
#296 = APPLICATION_PROTOCOL_DEFINITION ( 'international standard', 'config_control_design', 1994, #66 ) ;
#297 = AXIS2_PLACEMENT_3D ( 'NONE', #47, #119, #49 ) ;
#298 = APPROVAL_DATE_TIME ( #208, #269 ) ;
#299 = DIRECTION ( 'NONE',  ( 0.0000000000000000000, 1.000000000000000000, 0.0000000000000000000 ) ) ;
#300 = CC_DESIGN_PERSON_AND_ORGANIZATION_ASSIGNMENT ( #175, #56, ( #202 ) ) ;
#301 = EDGE_LOOP ( 'NONE', ( #295 ) ) ;
#302 = DIRECTION ( 'NONE',  ( -3.491481338843133355E-15, 1.224646799147353207E-16, -1.000000000000000000 ) ) ;
#303 = PLANE ( 'NONE',  #92 ) ;
ENDSEC;
END-ISO-10303-21;
