ISO-10303-21;
HEADER;
FILE_DESCRIPTION (( 'STEP AP203' ),
    '1' );
FILE_NAME ('321572.step',
    '2021-12-02T09:35:41',
    ( '' ),
    ( '' ),
    'SwSTEP 2.0',
    'SolidWorks 2019',
    '' );
FILE_SCHEMA (( 'CONFIG_CONTROL_DESIGN' ));
ENDSEC;

DATA;
#1 = AXIS2_PLACEMENT_3D ( 'NONE', #213, #197, #190 ) ;
#2 = CIRCLE ( 'NONE', #65, 1.729999999999995097 ) ;
#3 = APPROVAL_ROLE ( '' ) ;
#4 = CARTESIAN_POINT ( 'NONE',  ( 3.491481338843133355E-14, 1.729999999999993765, 10.00000000000000000 ) ) ;
#5 = CARTESIAN_POINT ( 'NONE',  ( 0.0000000000000000000, 0.0000000000000000000, 0.0000000000000000000 ) ) ;
#6 = CARTESIAN_POINT ( 'NONE',  ( 2.444036937190193601E-13, 1.199999999999992628, 70.00000000000000000 ) ) ;
#7 = DIRECTION ( 'NONE',  ( 3.491481338843133355E-15, -1.224646799147353207E-16, 1.000000000000000000 ) ) ;
#8 = EDGE_CURVE ( 'NONE', #72, #72, #64, .T. ) ;
#9 = DIRECTION ( 'NONE',  ( 1.000000000000000000, 0.0000000000000000000, 0.0000000000000000000 ) ) ;
#10 = FACE_BOUND ( 'NONE', #253, .T. ) ;
#11 = ORIENTED_EDGE ( 'NONE', *, *, #186, .F. ) ;
#12 = DESIGN_CONTEXT ( 'detailed design', #37, 'design' ) ;
#13 = DIRECTION ( 'NONE',  ( 0.0000000000000000000, 1.000000000000000000, 0.0000000000000000000 ) ) ;
#14 = DIRECTION ( 'NONE',  ( 4.275831445896958607E-31, 1.000000000000000000, 1.224646799147353207E-16 ) ) ;
#15 = PERSON_AND_ORGANIZATION ( #140, #295 ) ;
#16 = AXIS2_PLACEMENT_3D ( 'NONE', #243, #161, #297 ) ;
#17 = FACE_OUTER_BOUND ( 'NONE', #189, .T. ) ;
#18 = AXIS2_PLACEMENT_3D ( 'NONE', #285, #141, #21 ) ;
#19 = ADVANCED_FACE ( 'NONE', ( #178, #108 ), #123, .T. ) ;
#20 = ORIENTED_EDGE ( 'NONE', *, *, #52, .F. ) ;
#21 = DIRECTION ( 'NONE',  ( 0.0000000000000000000, 1.000000000000000000, 0.0000000000000000000 ) ) ;
#22 = EDGE_LOOP ( 'NONE', ( #270 ) ) ;
#23 = ADVANCED_FACE ( 'NONE', ( #61, #10 ), #83, .T. ) ;
#24 = APPLICATION_PROTOCOL_DEFINITION ( 'international standard', 'config_control_design', 1994, #37 ) ;
#25 = ADVANCED_FACE ( 'NONE', ( #192 ), #84, .F. ) ;
#26 = CIRCLE ( 'NONE', #88, 1.200000000000001510 ) ;
#27 = PERSON_AND_ORGANIZATION ( #140, #295 ) ;
#28 = CARTESIAN_POINT ( 'NONE',  ( -6.328230539927473654E-31, 2.219644478339540556E-32, -1.812477262738075529E-16 ) ) ;
#29 = PERSON_AND_ORGANIZATION ( #140, #295 ) ;
#30 = EDGE_LOOP ( 'NONE', ( #271 ) ) ;
#31 = SHAPE_DEFINITION_REPRESENTATION ( #111, #184 ) ;
#32 = DIRECTION ( 'NONE',  ( 0.0000000000000000000, 1.000000000000000000, 0.0000000000000000000 ) ) ;
#33 = LOCAL_TIME ( 10, 35, 40.00000000000000000, #58 ) ;
#34 = CALENDAR_DATE ( 2021, 2, 12 ) ;
#35 = UNCERTAINTY_MEASURE_WITH_UNIT (LENGTH_MEASURE( 1.000000000000000082E-05 ), #102, 'distance_accuracy_value', 'NONE');
#36 = DIRECTION ( 'NONE',  ( 3.491481338843133355E-15, -1.224646799147353207E-16, 1.000000000000000000 ) ) ;
#37 = APPLICATION_CONTEXT ( 'configuration controlled 3d designs of mechanical parts and assemblies' ) ;
#38 = DIRECTION ( 'NONE',  ( 0.0000000000000000000, 1.000000000000000000, 0.0000000000000000000 ) ) ;
#39 = APPROVAL ( #210, 'UNSPECIFIED' ) ;
#40 = DIRECTION ( 'NONE',  ( -3.491481338843133355E-15, 1.224646799147353207E-16, -1.000000000000000000 ) ) ;
#41 = AXIS2_PLACEMENT_3D ( 'NONE', #133, #292, #135 ) ;
#42 = DIRECTION ( 'NONE',  ( 4.275831445896958607E-31, 1.000000000000000000, 1.224646799147353207E-16 ) ) ;
#43 = ADVANCED_FACE ( 'NONE', ( #180, #286 ), #129, .T. ) ;
#44 = CARTESIAN_POINT ( 'NONE',  ( 3.491481338843133355E-14, -1.224646799147353256E-15, 10.00000000000000000 ) ) ;
#45 = FACE_OUTER_BOUND ( 'NONE', #164, .T. ) ;
#46 = CC_DESIGN_APPROVAL ( #268, ( #187 ) ) ;
#47 = DATE_AND_TIME ( #107, #159 ) ;
#48 = EDGE_LOOP ( 'NONE', ( #302 ) ) ;
#49 = CIRCLE ( 'NONE', #41, 1.499999999999992895 ) ;
#50 = MANIFOLD_SOLID_BREP ( 'Corps-Déplacer/Copier1[1]', #148 ) ;
#51 = VERTEX_POINT ( 'NONE', #6 ) ;
#52 = EDGE_CURVE ( 'NONE', #99, #99, #252, .T. ) ;
#53 = VERTEX_POINT ( 'NONE', #254 ) ;
#54 = EDGE_LOOP ( 'NONE', ( #145 ) ) ;
#55 = CARTESIAN_POINT ( 'NONE',  ( 2.444036937190193601E-13, -8.572527594031472993E-15, 70.00000000000000000 ) ) ;
#56 = ORIENTED_EDGE ( 'NONE', *, *, #246, .T. ) ;
#57 = ORIENTED_EDGE ( 'NONE', *, *, #298, .F. ) ;
#58 = COORDINATED_UNIVERSAL_TIME_OFFSET ( 1, 0, .AHEAD. ) ;
#59 = DIRECTION ( 'NONE',  ( -4.275831445896958607E-31, -1.000000000000000000, -1.224646799147353207E-16 ) ) ;
#60 = ADVANCED_FACE ( 'NONE', ( #155 ), #81, .F. ) ;
#61 = FACE_OUTER_BOUND ( 'NONE', #54, .T. ) ;
#62 = LOCAL_TIME ( 10, 35, 40.00000000000000000, #160 ) ;
#63 = CARTESIAN_POINT ( 'NONE',  ( 2.444036937190193601E-13, -8.572527594031472993E-15, 70.00000000000000000 ) ) ;
#64 = CIRCLE ( 'NONE', #1, 1.500000000000001110 ) ;
#65 = AXIS2_PLACEMENT_3D ( 'NONE', #120, #168, #212 ) ;
#66 = DIRECTION ( 'NONE',  ( -3.491481338843133355E-15, 1.224646799147353207E-16, -1.000000000000000000 ) ) ;
#67 = DIRECTION ( 'NONE',  ( 0.0000000000000000000, 1.000000000000000000, 0.0000000000000000000 ) ) ;
#68 = EDGE_CURVE ( 'NONE', #250, #250, #183, .T. ) ;
#69 = CIRCLE ( 'NONE', #115, 1.200000000000001510 ) ;
#70 = ADVANCED_FACE ( 'NONE', ( #112 ), #90, .F. ) ;
#71 = EDGE_LOOP ( 'NONE', ( #56 ) ) ;
#72 = VERTEX_POINT ( 'NONE', #217 ) ;
#73 = DIRECTION ( 'NONE',  ( 0.0000000000000000000, 1.000000000000000000, 0.0000000000000000000 ) ) ;
#74 = CALENDAR_DATE ( 2021, 2, 12 ) ;
#75 = CARTESIAN_POINT ( 'NONE',  ( 3.491481338843133355E-14, 1.297292212002501247E-32, 10.00000000000000000 ) ) ;
#76 = APPROVAL_STATUS ( 'not_yet_approved' ) ;
#77 = APPLICATION_PROTOCOL_DEFINITION ( 'international standard', 'config_control_design', 1994, #143 ) ;
#78 = ORIENTED_EDGE ( 'NONE', *, *, #236, .F. ) ;
#79 = ADVANCED_FACE ( 'NONE', ( #162, #137 ), #294, .T. ) ;
#80 = DIRECTION ( 'NONE',  ( -3.491481338843133355E-15, 1.224646799147353207E-16, -1.000000000000000000 ) ) ;
#81 = PLANE ( 'NONE',  #264 ) ;
#82 = EDGE_LOOP ( 'NONE', ( #78 ) ) ;
#83 = CONICAL_SURFACE ( 'NONE', #229, 1.479999999999994209, 0.7853981633974500554 ) ;
#84 = PLANE ( 'NONE',  #263 ) ;
#85 = CC_DESIGN_PERSON_AND_ORGANIZATION_ASSIGNMENT ( #15, #182, ( #230 ) ) ;
#86 = DIRECTION ( 'NONE',  ( -3.491481338843133355E-15, 1.224646799147353207E-16, -1.000000000000000000 ) ) ;
#87 = PERSON_AND_ORGANIZATION_ROLE ( 'creator' ) ;
#88 = AXIS2_PLACEMENT_3D ( 'NONE', #265, #66, #13 ) ;
#89 = CALENDAR_DATE ( 2021, 2, 12 ) ;
#90 = PLANE ( 'NONE',  #119 ) ;
#91 = PERSON_AND_ORGANIZATION ( #140, #295 ) ;
#92 = CARTESIAN_POINT ( 'NONE',  ( 2.433562493173664138E-13, -8.535788190057053710E-15, 69.70000000000001705 ) ) ;
#93 = FACE_BOUND ( 'NONE', #71, .T. ) ;
#94 = DIRECTION ( 'NONE',  ( 0.0000000000000000000, 1.000000000000000000, 0.0000000000000000000 ) ) ;
#95 = CC_DESIGN_DATE_AND_TIME_ASSIGNMENT ( #259, #198, ( #248 ) ) ;
#96 = LOCAL_TIME ( 10, 35, 40.00000000000000000, #195 ) ;
#97 = FACE_BOUND ( 'NONE', #208, .T. ) ;
#98 = EDGE_LOOP ( 'NONE', ( #206 ) ) ;
#99 = VERTEX_POINT ( 'NONE', #4 ) ;
#100 = APPROVAL_ROLE ( '' ) ;
#101 = EDGE_LOOP ( 'NONE', ( #57 ) ) ;
#102 =( LENGTH_UNIT ( ) NAMED_UNIT ( * ) SI_UNIT ( .MILLI., .METRE. ) );
#103 = ORIENTED_EDGE ( 'NONE', *, *, #209, .F. ) ;
#104 = MECHANICAL_CONTEXT ( 'NONE', #143, 'mechanical' ) ;
#105 = DIRECTION ( 'NONE',  ( -4.275831445896958607E-31, -1.000000000000000000, -1.224646799147353207E-16 ) ) ;
#106 = ADVANCED_FACE ( 'NONE', ( #17 ), #203, .T. ) ;
#107 = CALENDAR_DATE ( 2021, 2, 12 ) ;
#108 = FACE_OUTER_BOUND ( 'NONE', #101, .T. ) ;
#109 = DIRECTION ( 'NONE',  ( 4.275831445896958607E-31, 1.000000000000000000, 1.224646799147353454E-16 ) ) ;
#110 = APPROVAL_PERSON_ORGANIZATION ( #27, #219, #100 ) ;
#111 = PRODUCT_DEFINITION_SHAPE ( 'NONE', 'NONE',  #248 ) ;
#112 = FACE_OUTER_BOUND ( 'NONE', #82, .T. ) ;
#113 = PRODUCT_RELATED_PRODUCT_CATEGORY ( 'detail', '', ( #132 ) ) ;
#114 = DIRECTION ( 'NONE',  ( -3.491481338843133355E-15, 1.224646799147353207E-16, -1.000000000000000000 ) ) ;
#115 = AXIS2_PLACEMENT_3D ( 'NONE', #63, #158, #38 ) ;
#116 = CARTESIAN_POINT ( 'NONE',  ( -3.164115269963736827E-31, 1.109822239169770278E-32, -9.062386313690377643E-17 ) ) ;
#117 = ORIENTED_EDGE ( 'NONE', *, *, #68, .F. ) ;
#118 = PERSON_AND_ORGANIZATION ( #140, #295 ) ;
#119 = AXIS2_PLACEMENT_3D ( 'NONE', #226, #114, #14 ) ;
#120 = CARTESIAN_POINT ( 'NONE',  ( 8.728703347107827472E-16, -3.061616997868381169E-17, 0.2499999999999998335 ) ) ;
#121 = VERTEX_POINT ( 'NONE', #172 ) ;
#122 = CARTESIAN_POINT ( 'NONE',  ( 0.0000000000000000000, 0.0000000000000000000, 0.0000000000000000000 ) ) ;
#123 = CYLINDRICAL_SURFACE ( 'NONE', #193, 1.729999999999995097 ) ;
#124 = CIRCLE ( 'NONE', #130, 1.499999999999992895 ) ;
#125 = DIRECTION ( 'NONE',  ( -3.491481338843133355E-15, 1.224646799147353207E-16, -1.000000000000000000 ) ) ;
#126 = DATE_AND_TIME ( #169, #96 ) ;
#127 = DIRECTION ( 'NONE',  ( 0.0000000000000000000, 1.000000000000000000, 0.0000000000000000000 ) ) ;
#128 = PERSON_AND_ORGANIZATION ( #140, #295 ) ;
#129 = CONICAL_SURFACE ( 'NONE', #299, 1.729999999999995097, 0.5235987755983003700 ) ;
#130 = AXIS2_PLACEMENT_3D ( 'NONE', #241, #262, #127 ) ;
#131 = APPROVAL_ROLE ( '' ) ;
#132 = PRODUCT ( '321572', '321572', '', ( #104 ) ) ;
#133 = CARTESIAN_POINT ( 'NONE',  ( 3.630572069511897292E-14, -1.273433260128699177E-15, 10.39837168574084458 ) ) ;
#134 = EDGE_CURVE ( 'NONE', #188, #188, #239, .T. ) ;
#135 = DIRECTION ( 'NONE',  ( 0.0000000000000000000, 1.000000000000000000, 0.0000000000000000000 ) ) ;
#136 = PERSON_AND_ORGANIZATION_ROLE ( 'creator' ) ;
#137 = FACE_OUTER_BOUND ( 'NONE', #22, .T. ) ;
#138 = CC_DESIGN_APPROVAL ( #219, ( #230 ) ) ;
#139 = CC_DESIGN_PERSON_AND_ORGANIZATION_ASSIGNMENT ( #91, #163, ( #187 ) ) ;
#140 = PERSON ( 'UNSPECIFIED', 'UNSPECIFIED', 'UNSPECIFIED', ('UNSPECIFIED'), ('UNSPECIFIED'), ('UNSPECIFIED') ) ;
#141 = DIRECTION ( 'NONE',  ( -3.491481338843133355E-15, 1.224646799147353207E-16, -1.000000000000000000 ) ) ;
#142 = EDGE_LOOP ( 'NONE', ( #167 ) ) ;
#143 = APPLICATION_CONTEXT ( 'configuration controlled 3d designs of mechanical parts and assemblies' ) ;
#144 = PERSON_AND_ORGANIZATION_ROLE ( 'design_owner' ) ;
#145 = ORIENTED_EDGE ( 'NONE', *, *, #298, .T. ) ;
#146 = AXIS2_PLACEMENT_3D ( 'NONE', #279, #281, #260 ) ;
#147 = CC_DESIGN_PERSON_AND_ORGANIZATION_ASSIGNMENT ( #249, #144, ( #132 ) ) ;
#148 = CLOSED_SHELL ( 'NONE', ( #25, #43, #79, #266, #70 ) ) ;
#149 = VERTEX_POINT ( 'NONE', #151 ) ;
#150 = EDGE_LOOP ( 'NONE', ( #11 ) ) ;
#151 = CARTESIAN_POINT ( 'NONE',  ( 2.444036937190193601E-13, 1.199999999999992628, 70.00000000000000000 ) ) ;
#152 = ORIENTED_EDGE ( 'NONE', *, *, #134, .F. ) ;
#153 = VERTEX_POINT ( 'NONE', #215 ) ;
#154 = DATE_AND_TIME ( #74, #258 ) ;
#155 = FACE_OUTER_BOUND ( 'NONE', #256, .T. ) ;
#156 = AXIS2_PLACEMENT_3D ( 'NONE', #122, #231, #9 ) ;
#157 = EDGE_LOOP ( 'NONE', ( #240 ) ) ;
#158 = DIRECTION ( 'NONE',  ( -3.491481338843133355E-15, 1.224646799147353207E-16, -1.000000000000000000 ) ) ;
#159 = LOCAL_TIME ( 10, 35, 40.00000000000000000, #177 ) ;
#160 = COORDINATED_UNIVERSAL_TIME_OFFSET ( 1, 0, .AHEAD. ) ;
#161 = DIRECTION ( 'NONE',  ( -3.491481338843133355E-15, 1.224646799147353207E-16, -1.000000000000000000 ) ) ;
#162 = FACE_OUTER_BOUND ( 'NONE', #277, .T. ) ;
#163 = PERSON_AND_ORGANIZATION_ROLE ( 'design_supplier' ) ;
#164 = EDGE_LOOP ( 'NONE', ( #152 ) ) ;
#165 = CC_DESIGN_APPROVAL ( #39, ( #248 ) ) ;
#166 = CARTESIAN_POINT ( 'NONE',  ( 0.0000000000000000000, 1.479999999999994209, 0.0000000000000000000 ) ) ;
#167 = ORIENTED_EDGE ( 'NONE', *, *, #8, .F. ) ;
#168 = DIRECTION ( 'NONE',  ( -3.491481338843133355E-15, 1.224646799147353207E-16, -1.000000000000000000 ) ) ;
#169 = CALENDAR_DATE ( 2021, 2, 12 ) ;
#170 = DIRECTION ( 'NONE',  ( -3.491481338843133355E-15, 1.224646799147353207E-16, -1.000000000000000000 ) ) ;
#171 = APPROVAL_PERSON_ORGANIZATION ( #289, #268, #131 ) ;
#172 = CARTESIAN_POINT ( 'NONE',  ( 3.630572069511897292E-14, 1.499999999999991562, 10.39837168574084458 ) ) ;
#173 = ORIENTED_EDGE ( 'NONE', *, *, #207, .F. ) ;
#174 = ADVANCED_FACE ( 'NONE', ( #205, #201 ), #291, .T. ) ;
#175 = CARTESIAN_POINT ( 'NONE',  ( 2.433562493173664138E-13, 1.499999999999992673, 69.70000000000001705 ) ) ;
#176 = CARTESIAN_POINT ( 'NONE',  ( 2.444036937190193601E-13, -8.572527594031472993E-15, 70.00000000000000000 ) ) ;
#177 = COORDINATED_UNIVERSAL_TIME_OFFSET ( 1, 0, .AHEAD. ) ;
#178 = FACE_OUTER_BOUND ( 'NONE', #48, .T. ) ;
#179 =( GEOMETRIC_REPRESENTATION_CONTEXT ( 3 ) GLOBAL_UNCERTAINTY_ASSIGNED_CONTEXT ( ( #35 ) ) GLOBAL_UNIT_ASSIGNED_CONTEXT ( ( #102, #274, #194 ) ) REPRESENTATION_CONTEXT ( 'NONE', 'WORKASPACE' ) );
#180 = FACE_BOUND ( 'NONE', #98, .T. ) ;
#181 = DIRECTION ( 'NONE',  ( 0.0000000000000000000, 1.000000000000000000, 0.0000000000000000000 ) ) ;
#182 = PERSON_AND_ORGANIZATION_ROLE ( 'classification_officer' ) ;
#183 = CIRCLE ( 'NONE', #272, 1.479999999999994209 ) ;
#184 = ADVANCED_BREP_SHAPE_REPRESENTATION ( '321572', ( #50, #247, #156 ), #179 ) ;
#185 = DIRECTION ( 'NONE',  ( -3.491481338843133355E-15, 1.224646799147353207E-16, -1.000000000000000000 ) ) ;
#186 = EDGE_CURVE ( 'NONE', #237, #237, #233, .T. ) ;
#187 = PRODUCT_DEFINITION_FORMATION_WITH_SPECIFIED_SOURCE ( 'ANY', '', #132, .NOT_KNOWN. ) ;
#188 = VERTEX_POINT ( 'NONE', #275 ) ;
#189 = EDGE_LOOP ( 'NONE', ( #251 ) ) ;
#190 = DIRECTION ( 'NONE',  ( 0.0000000000000000000, 1.000000000000000000, 0.0000000000000000000 ) ) ;
#191 = FACE_OUTER_BOUND ( 'NONE', #150, .T. ) ;
#192 = FACE_OUTER_BOUND ( 'NONE', #157, .T. ) ;
#193 = AXIS2_PLACEMENT_3D ( 'NONE', #5, #238, #234 ) ;
#194 =( NAMED_UNIT ( * ) SI_UNIT ( $, .STERADIAN. ) SOLID_ANGLE_UNIT ( ) );
#195 = COORDINATED_UNIVERSAL_TIME_OFFSET ( 1, 0, .AHEAD. ) ;
#196 = CARTESIAN_POINT ( 'NONE',  ( -6.328230539927473654E-31, 2.219644478339540556E-32, -1.812477262738075529E-16 ) ) ;
#197 = DIRECTION ( 'NONE',  ( -3.491481338843133355E-15, 1.224646799147353207E-16, -1.000000000000000000 ) ) ;
#198 = DATE_TIME_ROLE ( 'creation_date' ) ;
#199 = APPROVAL_PERSON_ORGANIZATION ( #118, #39, #3 ) ;
#200 = FACE_OUTER_BOUND ( 'NONE', #142, .T. ) ;
#201 = FACE_OUTER_BOUND ( 'NONE', #30, .T. ) ;
#202 = DIRECTION ( 'NONE',  ( 4.275831445896958607E-31, 1.000000000000000000, 1.224646799147353207E-16 ) ) ;
#203 = PLANE ( 'NONE',  #288 ) ;
#204 = AXIS2_PLACEMENT_3D ( 'NONE', #92, #185, #181 ) ;
#205 = FACE_OUTER_BOUND ( 'NONE', #255, .T. ) ;
#206 = ORIENTED_EDGE ( 'NONE', *, *, #209, .T. ) ;
#207 = EDGE_CURVE ( 'NONE', #149, #149, #69, .T. ) ;
#208 = EDGE_LOOP ( 'NONE', ( #223 ) ) ;
#209 = EDGE_CURVE ( 'NONE', #121, #121, #124, .T. ) ;
#210 = APPROVAL_STATUS ( 'not_yet_approved' ) ;
#211 = CC_DESIGN_SECURITY_CLASSIFICATION ( #230, ( #187 ) ) ;
#212 = DIRECTION ( 'NONE',  ( 4.453017212456049113E-31, 1.000000000000000000, 1.253412916168216725E-16 ) ) ;
#213 = CARTESIAN_POINT ( 'NONE',  ( 2.433562493173664138E-13, -8.535788190057053710E-15, 69.70000000000001705 ) ) ;
#214 = APPROVAL_DATE_TIME ( #287, #268 ) ;
#215 = CARTESIAN_POINT ( 'NONE',  ( 3.630572069511897292E-14, 1.499999999999991562, 10.39837168574084458 ) ) ;
#216 = CARTESIAN_POINT ( 'NONE',  ( 3.491481338843133355E-14, -1.224646799147353256E-15, 10.00000000000000000 ) ) ;
#217 = CARTESIAN_POINT ( 'NONE',  ( 2.433562493173664138E-13, 1.499999999999992673, 69.70000000000001705 ) ) ;
#218 = EDGE_LOOP ( 'NONE', ( #273 ) ) ;
#219 = APPROVAL ( #283, 'UNSPECIFIED' ) ;
#220 = AXIS2_PLACEMENT_3D ( 'NONE', #44, #301, #94 ) ;
#221 = DATE_TIME_ROLE ( 'classification_date' ) ;
#222 = DIRECTION ( 'NONE',  ( 4.275831445896958607E-31, 1.000000000000000000, 1.224646799147353207E-16 ) ) ;
#223 = ORIENTED_EDGE ( 'NONE', *, *, #207, .T. ) ;
#224 = CARTESIAN_POINT ( 'NONE',  ( 3.491481338843133355E-14, -1.224646799147353256E-15, 10.00000000000000000 ) ) ;
#225 = AXIS2_PLACEMENT_3D ( 'NONE', #228, #86, #109 ) ;
#226 = CARTESIAN_POINT ( 'NONE',  ( 2.444036937190193601E-13, 8.998558695971026591E-33, 70.00000000000000000 ) ) ;
#227 = CONICAL_SURFACE ( 'NONE', #300, 1.200000000000001510, 0.7853981633974566057 ) ;
#228 = CARTESIAN_POINT ( 'NONE',  ( 0.0000000000000000000, 0.0000000000000000000, 0.0000000000000000000 ) ) ;
#229 = AXIS2_PLACEMENT_3D ( 'NONE', #28, #7, #105 ) ;
#230 = SECURITY_CLASSIFICATION ( '', '', #261 ) ;
#231 = DIRECTION ( 'NONE',  ( 0.0000000000000000000, 0.0000000000000000000, 1.000000000000000000 ) ) ;
#232 = EDGE_LOOP ( 'NONE', ( #20 ) ) ;
#233 = CIRCLE ( 'NONE', #204, 1.500000000000001110 ) ;
#234 = DIRECTION ( 'NONE',  ( 4.275831445896958607E-31, 1.000000000000000000, 1.224646799147353207E-16 ) ) ;
#235 = ORIENTED_EDGE ( 'NONE', *, *, #246, .F. ) ;
#236 = EDGE_CURVE ( 'NONE', #51, #51, #26, .T. ) ;
#237 = VERTEX_POINT ( 'NONE', #175 ) ;
#238 = DIRECTION ( 'NONE',  ( -3.491481338843133355E-15, 1.224646799147353207E-16, -1.000000000000000000 ) ) ;
#239 = CIRCLE ( 'NONE', #280, 1.729999999999995097 ) ;
#240 = ORIENTED_EDGE ( 'NONE', *, *, #52, .T. ) ;
#241 = CARTESIAN_POINT ( 'NONE',  ( 3.630572069511897292E-14, -1.273433260128699177E-15, 10.39837168574084458 ) ) ;
#242 = CONICAL_SURFACE ( 'NONE', #18, 1.200000000000001510, 0.7853981633974566057 ) ;
#243 = CARTESIAN_POINT ( 'NONE',  ( 0.0000000000000000000, 0.0000000000000000000, 0.0000000000000000000 ) ) ;
#244 = CC_DESIGN_DATE_AND_TIME_ASSIGNMENT ( #126, #221, ( #230 ) ) ;
#245 = CONICAL_SURFACE ( 'NONE', #220, 1.729999999999995097, 0.5235987755983003700 ) ;
#246 = EDGE_CURVE ( 'NONE', #153, #153, #49, .T. ) ;
#247 = MANIFOLD_SOLID_BREP ( 'Corps-Déplacer/Copier1[2]', #269 ) ;
#248 = PRODUCT_DEFINITION ( 'UNKNOWN', '', #187, #12 ) ;
#249 = PERSON_AND_ORGANIZATION ( #140, #295 ) ;
#250 = VERTEX_POINT ( 'NONE', #166 ) ;
#251 = ORIENTED_EDGE ( 'NONE', *, *, #68, .T. ) ;
#252 = CIRCLE ( 'NONE', #146, 1.729999999999995097 ) ;
#253 = EDGE_LOOP ( 'NONE', ( #117 ) ) ;
#254 = CARTESIAN_POINT ( 'NONE',  ( 8.728703347107835360E-16, 1.729999999999995097, 0.2500000000000000555 ) ) ;
#255 = EDGE_LOOP ( 'NONE', ( #235 ) ) ;
#256 = EDGE_LOOP ( 'NONE', ( #173 ) ) ;
#257 = CC_DESIGN_PERSON_AND_ORGANIZATION_ASSIGNMENT ( #128, #136, ( #248 ) ) ;
#258 = LOCAL_TIME ( 10, 35, 40.00000000000000000, #276 ) ;
#259 = DATE_AND_TIME ( #34, #33 ) ;
#260 = DIRECTION ( 'NONE',  ( 0.0000000000000000000, 1.000000000000000000, 0.0000000000000000000 ) ) ;
#261 = SECURITY_CLASSIFICATION_LEVEL ( 'unclassified' ) ;
#262 = DIRECTION ( 'NONE',  ( -3.491481338843133355E-15, 1.224646799147353207E-16, -1.000000000000000000 ) ) ;
#263 = AXIS2_PLACEMENT_3D ( 'NONE', #75, #36, #59 ) ;
#264 = AXIS2_PLACEMENT_3D ( 'NONE', #176, #125, #222 ) ;
#265 = CARTESIAN_POINT ( 'NONE',  ( 2.444036937190193601E-13, -8.572527594031472993E-15, 70.00000000000000000 ) ) ;
#266 = ADVANCED_FACE ( 'NONE', ( #200, #290 ), #242, .T. ) ;
#267 = APPROVAL_DATE_TIME ( #47, #39 ) ;
#268 = APPROVAL ( #76, 'UNSPECIFIED' ) ;
#269 = CLOSED_SHELL ( 'NONE', ( #293, #19, #23, #106, #60, #303, #174 ) ) ;
#270 = ORIENTED_EDGE ( 'NONE', *, *, #8, .T. ) ;
#271 = ORIENTED_EDGE ( 'NONE', *, *, #186, .T. ) ;
#272 = AXIS2_PLACEMENT_3D ( 'NONE', #196, #284, #42 ) ;
#273 = ORIENTED_EDGE ( 'NONE', *, *, #236, .T. ) ;
#274 =( NAMED_UNIT ( * ) PLANE_ANGLE_UNIT ( ) SI_UNIT ( $, .RADIAN. ) );
#275 = CARTESIAN_POINT ( 'NONE',  ( 3.491481338843133355E-14, 1.729999999999993765, 10.00000000000000000 ) ) ;
#276 = COORDINATED_UNIVERSAL_TIME_OFFSET ( 1, 0, .AHEAD. ) ;
#277 = EDGE_LOOP ( 'NONE', ( #103 ) ) ;
#278 = APPROVAL_DATE_TIME ( #154, #219 ) ;
#279 = CARTESIAN_POINT ( 'NONE',  ( 3.491481338843133355E-14, -1.224646799147353256E-15, 10.00000000000000000 ) ) ;
#280 = AXIS2_PLACEMENT_3D ( 'NONE', #224, #296, #67 ) ;
#281 = DIRECTION ( 'NONE',  ( -3.491481338843133355E-15, 1.224646799147353207E-16, -1.000000000000000000 ) ) ;
#282 = CC_DESIGN_PERSON_AND_ORGANIZATION_ASSIGNMENT ( #29, #87, ( #187 ) ) ;
#283 = APPROVAL_STATUS ( 'not_yet_approved' ) ;
#284 = DIRECTION ( 'NONE',  ( -3.491481338843133355E-15, 1.224646799147353207E-16, -1.000000000000000000 ) ) ;
#285 = CARTESIAN_POINT ( 'NONE',  ( 2.444036937190193601E-13, -8.572527594031472993E-15, 70.00000000000000000 ) ) ;
#286 = FACE_OUTER_BOUND ( 'NONE', #232, .T. ) ;
#287 = DATE_AND_TIME ( #89, #62 ) ;
#288 = AXIS2_PLACEMENT_3D ( 'NONE', #116, #40, #202 ) ;
#289 = PERSON_AND_ORGANIZATION ( #140, #295 ) ;
#290 = FACE_BOUND ( 'NONE', #218, .T. ) ;
#291 = CYLINDRICAL_SURFACE ( 'NONE', #16, 1.499999999999996891 ) ;
#292 = DIRECTION ( 'NONE',  ( -3.491481338843133355E-15, 1.224646799147353207E-16, -1.000000000000000000 ) ) ;
#293 = ADVANCED_FACE ( 'NONE', ( #93, #45 ), #245, .T. ) ;
#294 = CYLINDRICAL_SURFACE ( 'NONE', #225, 1.499999999999996891 ) ;
#295 = ORGANIZATION ( 'UNSPECIFIED', 'UNSPECIFIED', '' ) ;
#296 = DIRECTION ( 'NONE',  ( -3.491481338843133355E-15, 1.224646799147353207E-16, -1.000000000000000000 ) ) ;
#297 = DIRECTION ( 'NONE',  ( 4.275831445896958607E-31, 1.000000000000000000, 1.224646799147353454E-16 ) ) ;
#298 = EDGE_CURVE ( 'NONE', #53, #53, #2, .T. ) ;
#299 = AXIS2_PLACEMENT_3D ( 'NONE', #216, #170, #32 ) ;
#300 = AXIS2_PLACEMENT_3D ( 'NONE', #55, #80, #73 ) ;
#301 = DIRECTION ( 'NONE',  ( -3.491481338843133355E-15, 1.224646799147353207E-16, -1.000000000000000000 ) ) ;
#302 = ORIENTED_EDGE ( 'NONE', *, *, #134, .T. ) ;
#303 = ADVANCED_FACE ( 'NONE', ( #191, #97 ), #227, .T. ) ;
ENDSEC;
END-ISO-10303-21;
