ISO-10303-21;
HEADER;
FILE_DESCRIPTION (( 'STEP AP203' ),
    '1' );
FILE_NAME ('321571.step',
    '2021-12-02T09:35:40',
    ( '' ),
    ( '' ),
    'SwSTEP 2.0',
    'SolidWorks 2019',
    '' );
FILE_SCHEMA (( 'CONFIG_CONTROL_DESIGN' ));
ENDSEC;

DATA;
#1 = CIRCLE ( 'NONE', #228, 1.474999999999994094 ) ;
#2 = AXIS2_PLACEMENT_3D ( 'NONE', #215, #86, #163 ) ;
#3 = FACE_OUTER_BOUND ( 'NONE', #282, .T. ) ;
#4 = DIRECTION ( 'NONE',  ( -3.491481338843133355E-15, 1.224646799147353207E-16, -1.000000000000000000 ) ) ;
#5 = CYLINDRICAL_SURFACE ( 'NONE', #229, 1.499999999999996891 ) ;
#6 = DIRECTION ( 'NONE',  ( 0.0000000000000000000, 1.000000000000000000, 0.0000000000000000000 ) ) ;
#7 = PLANE ( 'NONE',  #43 ) ;
#8 = EDGE_CURVE ( 'NONE', #97, #97, #1, .T. ) ;
#9 = CARTESIAN_POINT ( 'NONE',  ( 3.491481338843133355E-14, -1.224646799147353256E-15, 10.00000000000000000 ) ) ;
#10 = ORIENTED_EDGE ( 'NONE', *, *, #93, .T. ) ;
#11 = EDGE_LOOP ( 'NONE', ( #288 ) ) ;
#12 = UNCERTAINTY_MEASURE_WITH_UNIT (LENGTH_MEASURE( 1.000000000000000082E-05 ), #241, 'distance_accuracy_value', 'NONE');
#13 = EDGE_LOOP ( 'NONE', ( #232 ) ) ;
#14 = PERSON_AND_ORGANIZATION_ROLE ( 'classification_officer' ) ;
#15 = PLANE ( 'NONE',  #245 ) ;
#16 = CONICAL_SURFACE ( 'NONE', #265, 1.724999999999994982, 0.5235987755983012581 ) ;
#17 = PERSON_AND_ORGANIZATION ( #274, #116 ) ;
#18 = CARTESIAN_POINT ( 'NONE',  ( 2.433562493173664138E-13, 1.499999999999992673, 69.70000000000001705 ) ) ;
#19 = CONICAL_SURFACE ( 'NONE', #2, 1.200000000000001510, 0.7853981633974566057 ) ;
#20 = APPROVAL_DATE_TIME ( #246, #57 ) ;
#21 = CARTESIAN_POINT ( 'NONE',  ( -6.306851382697988064E-31, 2.212145679426231213E-32, -1.806354028742338653E-16 ) ) ;
#22 = CIRCLE ( 'NONE', #195, 1.500000000000001110 ) ;
#23 = DIRECTION ( 'NONE',  ( 0.0000000000000000000, 1.000000000000000000, 0.0000000000000000000 ) ) ;
#24 = CC_DESIGN_DATE_AND_TIME_ASSIGNMENT ( #244, #261, ( #299 ) ) ;
#25 = APPROVAL_PERSON_ORGANIZATION ( #17, #125, #63 ) ;
#26 = DIRECTION ( 'NONE',  ( -3.491481338843133355E-15, 1.224646799147353207E-16, -1.000000000000000000 ) ) ;
#27 = ORIENTED_EDGE ( 'NONE', *, *, #38, .F. ) ;
#28 = FACE_OUTER_BOUND ( 'NONE', #137, .T. ) ;
#29 = EDGE_LOOP ( 'NONE', ( #127 ) ) ;
#30 = FACE_OUTER_BOUND ( 'NONE', #238, .T. ) ;
#31 = VERTEX_POINT ( 'NONE', #220 ) ;
#32 = ORIENTED_EDGE ( 'NONE', *, *, #206, .T. ) ;
#33 = LOCAL_TIME ( 10, 35, 40.00000000000000000, #183 ) ;
#34 = FACE_OUTER_BOUND ( 'NONE', #266, .T. ) ;
#35 = ORIENTED_EDGE ( 'NONE', *, *, #38, .T. ) ;
#36 = CALENDAR_DATE ( 2021, 2, 12 ) ;
#37 = APPROVAL_STATUS ( 'not_yet_approved' ) ;
#38 = EDGE_CURVE ( 'NONE', #171, #171, #87, .T. ) ;
#39 = CARTESIAN_POINT ( 'NONE',  ( 2.444036937190193601E-13, -8.572527594031472993E-15, 70.00000000000000000 ) ) ;
#40 = DIRECTION ( 'NONE',  ( -3.491481338843133355E-15, 1.224646799147353207E-16, -1.000000000000000000 ) ) ;
#41 = AXIS2_PLACEMENT_3D ( 'NONE', #236, #211, #197 ) ;
#42 = DIRECTION ( 'NONE',  ( 0.0000000000000000000, 1.000000000000000000, 0.0000000000000000000 ) ) ;
#43 = AXIS2_PLACEMENT_3D ( 'NONE', #198, #26, #119 ) ;
#44 = MANIFOLD_SOLID_BREP ( 'Corps-Déplacer/Copier1[1]', #267 ) ;
#45 = ORIENTED_EDGE ( 'NONE', *, *, #47, .F. ) ;
#46 = DIRECTION ( 'NONE',  ( -3.491481338843133355E-15, 1.224646799147353207E-16, -1.000000000000000000 ) ) ;
#47 = EDGE_CURVE ( 'NONE', #75, #75, #194, .T. ) ;
#48 = FACE_BOUND ( 'NONE', #258, .T. ) ;
#49 = DIRECTION ( 'NONE',  ( 0.0000000000000000000, 1.000000000000000000, 0.0000000000000000000 ) ) ;
#50 = FACE_OUTER_BOUND ( 'NONE', #62, .T. ) ;
#51 = DIRECTION ( 'NONE',  ( -3.491481338843133355E-15, 1.224646799147353207E-16, -1.000000000000000000 ) ) ;
#52 = ORIENTED_EDGE ( 'NONE', *, *, #136, .F. ) ;
#53 = DIRECTION ( 'NONE',  ( 0.0000000000000000000, 1.000000000000000000, 0.0000000000000000000 ) ) ;
#54 = DIRECTION ( 'NONE',  ( -4.275831445896959482E-31, -1.000000000000000000, -1.224646799147353207E-16 ) ) ;
#55 = CARTESIAN_POINT ( 'NONE',  ( 8.728703347107835360E-16, 1.724999999999994982, 0.2500000000000000555 ) ) ;
#56 = LOCAL_TIME ( 10, 35, 40.00000000000000000, #242 ) ;
#57 = APPROVAL ( #142, 'UNSPECIFIED' ) ;
#58 = DIRECTION ( 'NONE',  ( 0.0000000000000000000, 0.0000000000000000000, 1.000000000000000000 ) ) ;
#59 = DATE_AND_TIME ( #181, #202 ) ;
#60 = AXIS2_PLACEMENT_3D ( 'NONE', #254, #95, #23 ) ;
#61 = AXIS2_PLACEMENT_3D ( 'NONE', #9, #216, #239 ) ;
#62 = EDGE_LOOP ( 'NONE', ( #27 ) ) ;
#63 = APPROVAL_ROLE ( '' ) ;
#64 = EDGE_CURVE ( 'NONE', #173, #173, #177, .T. ) ;
#65 =( NAMED_UNIT ( * ) SI_UNIT ( $, .STERADIAN. ) SOLID_ANGLE_UNIT ( ) );
#66 = PRODUCT_DEFINITION_SHAPE ( 'NONE', 'NONE',  #259 ) ;
#67 = CONICAL_SURFACE ( 'NONE', #41, 1.724999999999994982, 0.5235987755983012581 ) ;
#68 = PRODUCT_RELATED_PRODUCT_CATEGORY ( 'detail', '', ( #226 ) ) ;
#69 = AXIS2_PLACEMENT_3D ( 'NONE', #172, #51, #152 ) ;
#70 = CYLINDRICAL_SURFACE ( 'NONE', #164, 1.499999999999996891 ) ;
#71 = FACE_BOUND ( 'NONE', #134, .T. ) ;
#72 = VERTEX_POINT ( 'NONE', #55 ) ;
#73 = PLANE ( 'NONE',  #235 ) ;
#74 = DIRECTION ( 'NONE',  ( 4.275831445896958607E-31, 1.000000000000000000, 1.224646799147353454E-16 ) ) ;
#75 = VERTEX_POINT ( 'NONE', #122 ) ;
#76 = CARTESIAN_POINT ( 'NONE',  ( 0.0000000000000000000, 0.0000000000000000000, 0.0000000000000000000 ) ) ;
#77 = ORIENTED_EDGE ( 'NONE', *, *, #230, .T. ) ;
#78 = AXIS2_PLACEMENT_3D ( 'NONE', #286, #191, #149 ) ;
#79 = AXIS2_PLACEMENT_3D ( 'NONE', #161, #133, #85 ) ;
#80 = APPROVAL ( #179, 'UNSPECIFIED' ) ;
#81 = DESIGN_CONTEXT ( 'detailed design', #243, 'design' ) ;
#82 = PERSON_AND_ORGANIZATION_ROLE ( 'creator' ) ;
#83 = CARTESIAN_POINT ( 'NONE',  ( 2.444036937190193601E-13, -8.572527594031472993E-15, 70.00000000000000000 ) ) ;
#84 = DATE_AND_TIME ( #36, #56 ) ;
#85 = DIRECTION ( 'NONE',  ( 0.0000000000000000000, 1.000000000000000000, 0.0000000000000000000 ) ) ;
#86 = DIRECTION ( 'NONE',  ( -3.491481338843133355E-15, 1.224646799147353207E-16, -1.000000000000000000 ) ) ;
#87 = CIRCLE ( 'NONE', #146, 1.200000000000001510 ) ;
#88 = ADVANCED_FACE ( 'NONE', ( #144, #48 ), #130, .T. ) ;
#89 = DIRECTION ( 'NONE',  ( -3.491481338843133355E-15, 1.224646799147353207E-16, -1.000000000000000000 ) ) ;
#90 = ORIENTED_EDGE ( 'NONE', *, *, #174, .F. ) ;
#91 = DIRECTION ( 'NONE',  ( 4.275831445896958607E-31, 1.000000000000000000, 1.224646799147353207E-16 ) ) ;
#92 = CALENDAR_DATE ( 2021, 2, 12 ) ;
#93 = EDGE_CURVE ( 'NONE', #72, #72, #252, .T. ) ;
#94 = FACE_OUTER_BOUND ( 'NONE', #29, .T. ) ;
#95 = DIRECTION ( 'NONE',  ( -3.491481338843133355E-15, 1.224646799147353207E-16, -1.000000000000000000 ) ) ;
#96 = CARTESIAN_POINT ( 'NONE',  ( 0.0000000000000000000, 0.0000000000000000000, 0.0000000000000000000 ) ) ;
#97 = VERTEX_POINT ( 'NONE', #278 ) ;
#98 = CIRCLE ( 'NONE', #166, 1.499999999999992895 ) ;
#99 = ADVANCED_BREP_SHAPE_REPRESENTATION ( '321571', ( #44, #247, #178 ), #212 ) ;
#100 = DIRECTION ( 'NONE',  ( -3.491481338843133355E-15, 1.224646799147353207E-16, -1.000000000000000000 ) ) ;
#101 = DIRECTION ( 'NONE',  ( 4.275831445896958607E-31, 1.000000000000000000, 1.224646799147353207E-16 ) ) ;
#102 = ADVANCED_FACE ( 'NONE', ( #231, #255 ), #283, .T. ) ;
#103 = DIRECTION ( 'NONE',  ( -3.491481338843133355E-15, 1.224646799147353207E-16, -1.000000000000000000 ) ) ;
#104 = PERSON_AND_ORGANIZATION ( #274, #116 ) ;
#105 = PERSON_AND_ORGANIZATION ( #274, #116 ) ;
#106 = AXIS2_PLACEMENT_3D ( 'NONE', #153, #46, #196 ) ;
#107 = COORDINATED_UNIVERSAL_TIME_OFFSET ( 1, 0, .AHEAD. ) ;
#108 = APPLICATION_PROTOCOL_DEFINITION ( 'international standard', 'config_control_design', 1994, #243 ) ;
#109 = PERSON_AND_ORGANIZATION_ROLE ( 'design_supplier' ) ;
#110 = CC_DESIGN_APPROVAL ( #80, ( #273 ) ) ;
#111 = COORDINATED_UNIVERSAL_TIME_OFFSET ( 1, 0, .AHEAD. ) ;
#112 = ADVANCED_FACE ( 'NONE', ( #71, #115 ), #67, .T. ) ;
#113 = EDGE_LOOP ( 'NONE', ( #10 ) ) ;
#114 = AXIS2_PLACEMENT_3D ( 'NONE', #124, #213, #233 ) ;
#115 = FACE_OUTER_BOUND ( 'NONE', #290, .T. ) ;
#116 = ORGANIZATION ( 'UNSPECIFIED', 'UNSPECIFIED', '' ) ;
#117 = CARTESIAN_POINT ( 'NONE',  ( 2.444036937190193601E-13, -8.572527594031472993E-15, 70.00000000000000000 ) ) ;
#118 = CARTESIAN_POINT ( 'NONE',  ( -6.306851382697988064E-31, 2.212145679426231213E-32, -1.806354028742338653E-16 ) ) ;
#119 = DIRECTION ( 'NONE',  ( 4.275831445896958607E-31, 1.000000000000000000, 1.224646799147353207E-16 ) ) ;
#120 = ADVANCED_FACE ( 'NONE', ( #94 ), #121, .F. ) ;
#121 = PLANE ( 'NONE',  #114 ) ;
#122 = CARTESIAN_POINT ( 'NONE',  ( 2.444036937190193601E-13, 1.199999999999992628, 70.00000000000000000 ) ) ;
#123 = APPROVAL_PERSON_ORGANIZATION ( #224, #80, #135 ) ;
#124 = CARTESIAN_POINT ( 'NONE',  ( 3.491481338843133355E-14, 1.293542812545846302E-32, 10.00000000000000000 ) ) ;
#125 = APPROVAL ( #37, 'UNSPECIFIED' ) ;
#126 = DIRECTION ( 'NONE',  ( 4.275831445896958607E-31, 1.000000000000000000, 1.224646799147353207E-16 ) ) ;
#127 = ORIENTED_EDGE ( 'NONE', *, *, #136, .T. ) ;
#128 = DIRECTION ( 'NONE',  ( -3.491481338843133355E-15, 1.224646799147353207E-16, -1.000000000000000000 ) ) ;
#129 = PERSON_AND_ORGANIZATION ( #274, #116 ) ;
#130 = CONICAL_SURFACE ( 'NONE', #301, 1.474999999999994094, 0.7853981633974500554 ) ;
#131 = PERSON_AND_ORGANIZATION_ROLE ( 'design_owner' ) ;
#132 = CC_DESIGN_SECURITY_CLASSIFICATION ( #299, ( #273 ) ) ;
#133 = DIRECTION ( 'NONE',  ( -3.491481338843133355E-15, 1.224646799147353207E-16, -1.000000000000000000 ) ) ;
#134 = EDGE_LOOP ( 'NONE', ( #214 ) ) ;
#135 = APPROVAL_ROLE ( '' ) ;
#136 = EDGE_CURVE ( 'NONE', #31, #31, #160, .T. ) ;
#137 = EDGE_LOOP ( 'NONE', ( #192 ) ) ;
#138 = PERSON_AND_ORGANIZATION ( #274, #116 ) ;
#139 = CARTESIAN_POINT ( 'NONE',  ( 2.433562493173664138E-13, -8.535788190057053710E-15, 69.70000000000001705 ) ) ;
#140 = ADVANCED_FACE ( 'NONE', ( #217, #3 ), #5, .T. ) ;
#141 = EDGE_LOOP ( 'NONE', ( #77 ) ) ;
#142 = APPROVAL_STATUS ( 'not_yet_approved' ) ;
#143 = EDGE_LOOP ( 'NONE', ( #90 ) ) ;
#144 = FACE_OUTER_BOUND ( 'NONE', #113, .T. ) ;
#145 = EDGE_LOOP ( 'NONE', ( #294 ) ) ;
#146 = AXIS2_PLACEMENT_3D ( 'NONE', #39, #40, #49 ) ;
#147 = ADVANCED_FACE ( 'NONE', ( #30, #219 ), #280, .T. ) ;
#148 = CLOSED_SHELL ( 'NONE', ( #184, #147, #88, #223, #279, #102, #169 ) ) ;
#149 = DIRECTION ( 'NONE',  ( 0.0000000000000000000, 1.000000000000000000, 0.0000000000000000000 ) ) ;
#150 = CARTESIAN_POINT ( 'NONE',  ( 3.491481338843133355E-14, 1.724999999999993650, 10.00000000000000000 ) ) ;
#151 = ORIENTED_EDGE ( 'NONE', *, *, #93, .F. ) ;
#152 = DIRECTION ( 'NONE',  ( 0.0000000000000000000, 1.000000000000000000, 0.0000000000000000000 ) ) ;
#153 = CARTESIAN_POINT ( 'NONE',  ( 8.728703347107827472E-16, -3.061616997868381169E-17, 0.2499999999999998335 ) ) ;
#154 = CARTESIAN_POINT ( 'NONE',  ( 3.627548357975619157E-14, 1.499999999999991562, 10.38971143170299882 ) ) ;
#155 = AXIS2_PLACEMENT_3D ( 'NONE', #96, #167, #101 ) ;
#156 = VERTEX_POINT ( 'NONE', #150 ) ;
#157 =( NAMED_UNIT ( * ) PLANE_ANGLE_UNIT ( ) SI_UNIT ( $, .RADIAN. ) );
#158 = VERTEX_POINT ( 'NONE', #225 ) ;
#159 = APPROVAL_DATE_TIME ( #59, #125 ) ;
#160 = CIRCLE ( 'NONE', #61, 1.724999999999994982 ) ;
#161 = CARTESIAN_POINT ( 'NONE',  ( 2.433562493173664138E-13, -8.535788190057053710E-15, 69.70000000000001705 ) ) ;
#162 = SECURITY_CLASSIFICATION_LEVEL ( 'unclassified' ) ;
#163 = DIRECTION ( 'NONE',  ( 0.0000000000000000000, 1.000000000000000000, 0.0000000000000000000 ) ) ;
#164 = AXIS2_PLACEMENT_3D ( 'NONE', #170, #168, #74 ) ;
#165 = EDGE_CURVE ( 'NONE', #287, #287, #98, .T. ) ;
#166 = AXIS2_PLACEMENT_3D ( 'NONE', #193, #4, #190 ) ;
#167 = DIRECTION ( 'NONE',  ( -3.491481338843133355E-15, 1.224646799147353207E-16, -1.000000000000000000 ) ) ;
#168 = DIRECTION ( 'NONE',  ( -3.491481338843133355E-15, 1.224646799147353207E-16, -1.000000000000000000 ) ) ;
#169 = ADVANCED_FACE ( 'NONE', ( #276, #250 ), #70, .T. ) ;
#170 = CARTESIAN_POINT ( 'NONE',  ( 0.0000000000000000000, 0.0000000000000000000, 0.0000000000000000000 ) ) ;
#171 = VERTEX_POINT ( 'NONE', #281 ) ;
#172 = CARTESIAN_POINT ( 'NONE',  ( 3.491481338843133355E-14, -1.224646799147353256E-15, 10.00000000000000000 ) ) ;
#173 = VERTEX_POINT ( 'NONE', #154 ) ;
#174 = EDGE_CURVE ( 'NONE', #156, #156, #292, .T. ) ;
#175 = DIRECTION ( 'NONE',  ( 4.275831445896958607E-31, 1.000000000000000000, 1.224646799147353454E-16 ) ) ;
#176 = FACE_OUTER_BOUND ( 'NONE', #143, .T. ) ;
#177 = CIRCLE ( 'NONE', #78, 1.499999999999992895 ) ;
#178 = AXIS2_PLACEMENT_3D ( 'NONE', #298, #58, #297 ) ;
#179 = APPROVAL_STATUS ( 'not_yet_approved' ) ;
#180 = DIRECTION ( 'NONE',  ( -3.491481338843133355E-15, 1.224646799147353207E-16, -1.000000000000000000 ) ) ;
#181 = CALENDAR_DATE ( 2021, 2, 12 ) ;
#182 = CALENDAR_DATE ( 2021, 2, 12 ) ;
#183 = COORDINATED_UNIVERSAL_TIME_OFFSET ( 1, 0, .AHEAD. ) ;
#184 = ADVANCED_FACE ( 'NONE', ( #237, #176 ), #16, .T. ) ;
#185 = LOCAL_TIME ( 10, 35, 40.00000000000000000, #221 ) ;
#186 = APPROVAL_ROLE ( '' ) ;
#187 = EDGE_LOOP ( 'NONE', ( #151 ) ) ;
#188 = CC_DESIGN_PERSON_AND_ORGANIZATION_ASSIGNMENT ( #207, #14, ( #299 ) ) ;
#189 = CC_DESIGN_APPROVAL ( #57, ( #299 ) ) ;
#190 = DIRECTION ( 'NONE',  ( 0.0000000000000000000, 1.000000000000000000, 0.0000000000000000000 ) ) ;
#191 = DIRECTION ( 'NONE',  ( -3.491481338843133355E-15, 1.224646799147353207E-16, -1.000000000000000000 ) ) ;
#192 = ORIENTED_EDGE ( 'NONE', *, *, #206, .F. ) ;
#193 = CARTESIAN_POINT ( 'NONE',  ( 3.627548357975619157E-14, -1.272372684889974133E-15, 10.38971143170299882 ) ) ;
#194 = CIRCLE ( 'NONE', #60, 1.200000000000001510 ) ;
#195 = AXIS2_PLACEMENT_3D ( 'NONE', #139, #128, #53 ) ;
#196 = DIRECTION ( 'NONE',  ( 4.465924508724038431E-31, 1.000000000000000000, 1.257045997084646556E-16 ) ) ;
#197 = DIRECTION ( 'NONE',  ( 0.0000000000000000000, 1.000000000000000000, 0.0000000000000000000 ) ) ;
#198 = CARTESIAN_POINT ( 'NONE',  ( 2.444036937190193601E-13, 8.998558695971026591E-33, 70.00000000000000000 ) ) ;
#199 = EDGE_LOOP ( 'NONE', ( #200 ) ) ;
#200 = ORIENTED_EDGE ( 'NONE', *, *, #165, .F. ) ;
#201 = DIRECTION ( 'NONE',  ( -3.491481338843133355E-15, 1.224646799147353207E-16, -1.000000000000000000 ) ) ;
#202 = LOCAL_TIME ( 10, 35, 40.00000000000000000, #107 ) ;
#203 = ORIENTED_EDGE ( 'NONE', *, *, #8, .F. ) ;
#204 = DATE_AND_TIME ( #182, #185 ) ;
#205 = DATE_TIME_ROLE ( 'creation_date' ) ;
#206 = EDGE_CURVE ( 'NONE', #158, #158, #22, .T. ) ;
#207 = PERSON_AND_ORGANIZATION ( #274, #116 ) ;
#208 = AXIS2_PLACEMENT_3D ( 'NONE', #117, #100, #6 ) ;
#209 = CC_DESIGN_APPROVAL ( #125, ( #259 ) ) ;
#210 = CC_DESIGN_PERSON_AND_ORGANIZATION_ASSIGNMENT ( #268, #289, ( #273 ) ) ;
#211 = DIRECTION ( 'NONE',  ( -3.491481338843133355E-15, 1.224646799147353207E-16, -1.000000000000000000 ) ) ;
#212 =( GEOMETRIC_REPRESENTATION_CONTEXT ( 3 ) GLOBAL_UNCERTAINTY_ASSIGNED_CONTEXT ( ( #12 ) ) GLOBAL_UNIT_ASSIGNED_CONTEXT ( ( #241, #157, #65 ) ) REPRESENTATION_CONTEXT ( 'NONE', 'WORKASPACE' ) );
#213 = DIRECTION ( 'NONE',  ( 3.491481338843133355E-15, -1.224646799147353207E-16, 1.000000000000000000 ) ) ;
#214 = ORIENTED_EDGE ( 'NONE', *, *, #64, .T. ) ;
#215 = CARTESIAN_POINT ( 'NONE',  ( 2.444036937190193601E-13, -8.572527594031472993E-15, 70.00000000000000000 ) ) ;
#216 = DIRECTION ( 'NONE',  ( -3.491481338843133355E-15, 1.224646799147353207E-16, -1.000000000000000000 ) ) ;
#217 = FACE_OUTER_BOUND ( 'NONE', #11, .T. ) ;
#218 = CC_DESIGN_DATE_AND_TIME_ASSIGNMENT ( #84, #205, ( #259 ) ) ;
#219 = FACE_OUTER_BOUND ( 'NONE', #187, .T. ) ;
#220 = CARTESIAN_POINT ( 'NONE',  ( 3.491481338843133355E-14, 1.724999999999993650, 10.00000000000000000 ) ) ;
#221 = COORDINATED_UNIVERSAL_TIME_OFFSET ( 1, 0, .AHEAD. ) ;
#222 = ORIENTED_EDGE ( 'NONE', *, *, #174, .T. ) ;
#223 = ADVANCED_FACE ( 'NONE', ( #34 ), #73, .T. ) ;
#224 = PERSON_AND_ORGANIZATION ( #274, #116 ) ;
#225 = CARTESIAN_POINT ( 'NONE',  ( 2.433562493173664138E-13, 1.499999999999992673, 69.70000000000001705 ) ) ;
#226 = PRODUCT ( '321571', '321571', '', ( #240 ) ) ;
#227 = LOCAL_TIME ( 10, 35, 40.00000000000000000, #111 ) ;
#228 = AXIS2_PLACEMENT_3D ( 'NONE', #21, #89, #91 ) ;
#229 = AXIS2_PLACEMENT_3D ( 'NONE', #76, #251, #175 ) ;
#230 = EDGE_CURVE ( 'NONE', #264, #264, #253, .T. ) ;
#231 = FACE_OUTER_BOUND ( 'NONE', #256, .T. ) ;
#232 = ORIENTED_EDGE ( 'NONE', *, *, #47, .T. ) ;
#233 = DIRECTION ( 'NONE',  ( -4.275831445896958607E-31, -1.000000000000000000, -1.224646799147353207E-16 ) ) ;
#234 = ORIENTED_EDGE ( 'NONE', *, *, #8, .T. ) ;
#235 = AXIS2_PLACEMENT_3D ( 'NONE', #260, #201, #293 ) ;
#236 = CARTESIAN_POINT ( 'NONE',  ( 3.491481338843133355E-14, -1.224646799147353256E-15, 10.00000000000000000 ) ) ;
#237 = FACE_BOUND ( 'NONE', #145, .T. ) ;
#238 = EDGE_LOOP ( 'NONE', ( #222 ) ) ;
#239 = DIRECTION ( 'NONE',  ( 0.0000000000000000000, 1.000000000000000000, 0.0000000000000000000 ) ) ;
#240 = MECHANICAL_CONTEXT ( 'NONE', #271, 'mechanical' ) ;
#241 =( LENGTH_UNIT ( ) NAMED_UNIT ( * ) SI_UNIT ( .MILLI., .METRE. ) );
#242 = COORDINATED_UNIVERSAL_TIME_OFFSET ( 1, 0, .AHEAD. ) ;
#243 = APPLICATION_CONTEXT ( 'configuration controlled 3d designs of mechanical parts and assemblies' ) ;
#244 = DATE_AND_TIME ( #270, #33 ) ;
#245 = AXIS2_PLACEMENT_3D ( 'NONE', #83, #180, #126 ) ;
#246 = DATE_AND_TIME ( #92, #227 ) ;
#247 = MANIFOLD_SOLID_BREP ( 'Corps-Déplacer/Copier1[2]', #148 ) ;
#248 = ORIENTED_EDGE ( 'NONE', *, *, #230, .F. ) ;
#249 = ADVANCED_FACE ( 'NONE', ( #28, #291 ), #19, .T. ) ;
#250 = FACE_OUTER_BOUND ( 'NONE', #141, .T. ) ;
#251 = DIRECTION ( 'NONE',  ( -3.491481338843133355E-15, 1.224646799147353207E-16, -1.000000000000000000 ) ) ;
#252 = CIRCLE ( 'NONE', #106, 1.724999999999994982 ) ;
#253 = CIRCLE ( 'NONE', #79, 1.500000000000001110 ) ;
#254 = CARTESIAN_POINT ( 'NONE',  ( 2.444036937190193601E-13, -8.572527594031472993E-15, 70.00000000000000000 ) ) ;
#255 = FACE_BOUND ( 'NONE', #13, .T. ) ;
#256 = EDGE_LOOP ( 'NONE', ( #248 ) ) ;
#257 = CARTESIAN_POINT ( 'NONE',  ( 3.627548357975619157E-14, 1.499999999999991562, 10.38971143170299882 ) ) ;
#258 = EDGE_LOOP ( 'NONE', ( #203 ) ) ;
#259 = PRODUCT_DEFINITION ( 'UNKNOWN', '', #273, #81 ) ;
#260 = CARTESIAN_POINT ( 'NONE',  ( -3.153425691348994032E-31, 1.106072839713115607E-32, -9.031770143711693264E-17 ) ) ;
#261 = DATE_TIME_ROLE ( 'classification_date' ) ;
#262 = FACE_OUTER_BOUND ( 'NONE', #296, .T. ) ;
#263 = APPROVAL_DATE_TIME ( #204, #80 ) ;
#264 = VERTEX_POINT ( 'NONE', #18 ) ;
#265 = AXIS2_PLACEMENT_3D ( 'NONE', #269, #103, #42 ) ;
#266 = EDGE_LOOP ( 'NONE', ( #234 ) ) ;
#267 = CLOSED_SHELL ( 'NONE', ( #120, #112, #140, #249, #285 ) ) ;
#268 = PERSON_AND_ORGANIZATION ( #274, #116 ) ;
#269 = CARTESIAN_POINT ( 'NONE',  ( 3.491481338843133355E-14, -1.224646799147353256E-15, 10.00000000000000000 ) ) ;
#270 = CALENDAR_DATE ( 2021, 2, 12 ) ;
#271 = APPLICATION_CONTEXT ( 'configuration controlled 3d designs of mechanical parts and assemblies' ) ;
#272 = CC_DESIGN_PERSON_AND_ORGANIZATION_ASSIGNMENT ( #129, #82, ( #259 ) ) ;
#273 = PRODUCT_DEFINITION_FORMATION_WITH_SPECIFIED_SOURCE ( 'ANY', '', #226, .NOT_KNOWN. ) ;
#274 = PERSON ( 'UNSPECIFIED', 'UNSPECIFIED', 'UNSPECIFIED', ('UNSPECIFIED'), ('UNSPECIFIED'), ('UNSPECIFIED') ) ;
#275 = APPROVAL_PERSON_ORGANIZATION ( #105, #57, #186 ) ;
#276 = FACE_OUTER_BOUND ( 'NONE', #199, .T. ) ;
#277 = DIRECTION ( 'NONE',  ( 3.491481338843133355E-15, -1.224646799147353207E-16, 1.000000000000000000 ) ) ;
#278 = CARTESIAN_POINT ( 'NONE',  ( 8.552847072295026068E-47, 1.474999999999994094, 0.0000000000000000000 ) ) ;
#279 = ADVANCED_FACE ( 'NONE', ( #262 ), #15, .F. ) ;
#280 = CYLINDRICAL_SURFACE ( 'NONE', #155, 1.724999999999994982 ) ;
#281 = CARTESIAN_POINT ( 'NONE',  ( 2.444036937190193601E-13, 1.199999999999992628, 70.00000000000000000 ) ) ;
#282 = EDGE_LOOP ( 'NONE', ( #32 ) ) ;
#283 = CONICAL_SURFACE ( 'NONE', #208, 1.200000000000001510, 0.7853981633974566057 ) ;
#284 = EDGE_LOOP ( 'NONE', ( #35 ) ) ;
#285 = ADVANCED_FACE ( 'NONE', ( #50 ), #7, .F. ) ;
#286 = CARTESIAN_POINT ( 'NONE',  ( 3.627548357975619157E-14, -1.272372684889974133E-15, 10.38971143170299882 ) ) ;
#287 = VERTEX_POINT ( 'NONE', #257 ) ;
#288 = ORIENTED_EDGE ( 'NONE', *, *, #64, .F. ) ;
#289 = PERSON_AND_ORGANIZATION_ROLE ( 'creator' ) ;
#290 = EDGE_LOOP ( 'NONE', ( #52 ) ) ;
#291 = FACE_BOUND ( 'NONE', #284, .T. ) ;
#292 = CIRCLE ( 'NONE', #69, 1.724999999999994982 ) ;
#293 = DIRECTION ( 'NONE',  ( 4.275831445896958607E-31, 1.000000000000000000, 1.224646799147353207E-16 ) ) ;
#294 = ORIENTED_EDGE ( 'NONE', *, *, #165, .T. ) ;
#295 = APPLICATION_PROTOCOL_DEFINITION ( 'international standard', 'config_control_design', 1994, #271 ) ;
#296 = EDGE_LOOP ( 'NONE', ( #45 ) ) ;
#297 = DIRECTION ( 'NONE',  ( 1.000000000000000000, 0.0000000000000000000, 0.0000000000000000000 ) ) ;
#298 = CARTESIAN_POINT ( 'NONE',  ( 0.0000000000000000000, 0.0000000000000000000, 0.0000000000000000000 ) ) ;
#299 = SECURITY_CLASSIFICATION ( '', '', #162 ) ;
#300 = CC_DESIGN_PERSON_AND_ORGANIZATION_ASSIGNMENT ( #138, #109, ( #273 ) ) ;
#301 = AXIS2_PLACEMENT_3D ( 'NONE', #118, #277, #54 ) ;
#302 = SHAPE_DEFINITION_REPRESENTATION ( #66, #99 ) ;
#303 = CC_DESIGN_PERSON_AND_ORGANIZATION_ASSIGNMENT ( #104, #131, ( #226 ) ) ;
ENDSEC;
END-ISO-10303-21;
