ISO-10303-21;
HEADER;
FILE_DESCRIPTION (( 'STEP AP203' ),
    '1' );
FILE_NAME ('321570.step',
    '2021-12-02T09:35:39',
    ( '' ),
    ( '' ),
    'SwSTEP 2.0',
    'SolidWorks 2019',
    '' );
FILE_SCHEMA (( 'CONFIG_CONTROL_DESIGN' ));
ENDSEC;

DATA;
#1 = PERSON_AND_ORGANIZATION ( #263, #233 ) ;
#2 = FACE_OUTER_BOUND ( 'NONE', #168, .T. ) ;
#3 = AXIS2_PLACEMENT_3D ( 'NONE', #20, #111, #88 ) ;
#4 = ORIENTED_EDGE ( 'NONE', *, *, #129, .F. ) ;
#5 = CARTESIAN_POINT ( 'NONE',  ( -3.142736112734252113E-31, 1.102323440256461072E-32, -9.001153973733011351E-17 ) ) ;
#6 = CC_DESIGN_APPROVAL ( #208, ( #273 ) ) ;
#7 = PRODUCT_DEFINITION_SHAPE ( 'NONE', 'NONE',  #23 ) ;
#8 = CARTESIAN_POINT ( 'NONE',  ( 2.433562493173664138E-13, -8.535788190057053710E-15, 69.70000000000001705 ) ) ;
#9 = DIRECTION ( 'NONE',  ( 3.491481338843133355E-15, -1.224646799147353207E-16, 1.000000000000000000 ) ) ;
#10 = AXIS2_PLACEMENT_3D ( 'NONE', #200, #107, #247 ) ;
#11 = DIRECTION ( 'NONE',  ( 4.275831445896958607E-31, 1.000000000000000000, 1.224646799147353454E-16 ) ) ;
#12 = EDGE_CURVE ( 'NONE', #151, #151, #144, .T. ) ;
#13 = FACE_BOUND ( 'NONE', #258, .T. ) ;
#14 = MANIFOLD_SOLID_BREP ( 'Corps-Déplacer/Copier1[1]', #108 ) ;
#15 = FACE_OUTER_BOUND ( 'NONE', #219, .T. ) ;
#16 = FACE_OUTER_BOUND ( 'NONE', #162, .T. ) ;
#17 = CARTESIAN_POINT ( 'NONE',  ( 2.444036937190193601E-13, -8.572527594031472993E-15, 70.00000000000000000 ) ) ;
#18 = EDGE_CURVE ( 'NONE', #109, #109, #231, .T. ) ;
#19 = AXIS2_PLACEMENT_3D ( 'NONE', #223, #175, #154 ) ;
#20 = CARTESIAN_POINT ( 'NONE',  ( 0.0000000000000000000, 0.0000000000000000000, 0.0000000000000000000 ) ) ;
#21 = PERSON_AND_ORGANIZATION ( #263, #233 ) ;
#22 = UNCERTAINTY_MEASURE_WITH_UNIT (LENGTH_MEASURE( 1.000000000000000082E-05 ), #255, 'distance_accuracy_value', 'NONE');
#23 = PRODUCT_DEFINITION ( 'UNKNOWN', '', #273, #171 ) ;
#24 = AXIS2_PLACEMENT_3D ( 'NONE', #8, #191, #52 ) ;
#25 = CYLINDRICAL_SURFACE ( 'NONE', #216, 1.499999999999996891 ) ;
#26 = ORIENTED_EDGE ( 'NONE', *, *, #18, .F. ) ;
#27 = PLANE ( 'NONE',  #248 ) ;
#28 = CIRCLE ( 'NONE', #64, 1.719999999999995088 ) ;
#29 = CARTESIAN_POINT ( 'NONE',  ( 3.491481338843133355E-14, -1.224646799147353256E-15, 10.00000000000000000 ) ) ;
#30 = CALENDAR_DATE ( 2021, 2, 12 ) ;
#31 = ORIENTED_EDGE ( 'NONE', *, *, #203, .F. ) ;
#32 = EDGE_LOOP ( 'NONE', ( #166 ) ) ;
#33 = FACE_OUTER_BOUND ( 'NONE', #165, .T. ) ;
#34 = CONICAL_SURFACE ( 'NONE', #232, 1.200000000000001510, 0.7853981633974566057 ) ;
#35 = DIRECTION ( 'NONE',  ( 0.0000000000000000000, 1.000000000000000000, 0.0000000000000000000 ) ) ;
#36 = CC_DESIGN_PERSON_AND_ORGANIZATION_ASSIGNMENT ( #189, #141, ( #181 ) ) ;
#37 = CARTESIAN_POINT ( 'NONE',  ( 2.444036937190193601E-13, 1.199999999999992628, 70.00000000000000000 ) ) ;
#38 = EDGE_CURVE ( 'NONE', #199, #199, #133, .T. ) ;
#39 = CARTESIAN_POINT ( 'NONE',  ( 2.433562493173664138E-13, 1.499999999999992673, 69.70000000000001705 ) ) ;
#40 = CARTESIAN_POINT ( 'NONE',  ( 3.624524646439342283E-14, 1.499999999999991562, 10.38105117766515484 ) ) ;
#41 = DIRECTION ( 'NONE',  ( -3.491481338843133355E-15, 1.224646799147353207E-16, -1.000000000000000000 ) ) ;
#42 = ADVANCED_FACE ( 'NONE', ( #2, #290 ), #97, .T. ) ;
#43 = CIRCLE ( 'NONE', #256, 1.719999999999995088 ) ;
#44 = PERSON_AND_ORGANIZATION_ROLE ( 'design_owner' ) ;
#45 = APPROVAL_PERSON_ORGANIZATION ( #1, #123, #167 ) ;
#46 = COORDINATED_UNIVERSAL_TIME_OFFSET ( 1, 0, .AHEAD. ) ;
#47 = ORIENTED_EDGE ( 'NONE', *, *, #38, .T. ) ;
#48 = DIRECTION ( 'NONE',  ( 0.0000000000000000000, 1.000000000000000000, 0.0000000000000000000 ) ) ;
#49 = FACE_OUTER_BOUND ( 'NONE', #120, .T. ) ;
#50 = CARTESIAN_POINT ( 'NONE',  ( 2.444036937190193601E-13, -8.572527594031472993E-15, 70.00000000000000000 ) ) ;
#51 = AXIS2_PLACEMENT_3D ( 'NONE', #110, #41, #277 ) ;
#52 = DIRECTION ( 'NONE',  ( 0.0000000000000000000, 1.000000000000000000, 0.0000000000000000000 ) ) ;
#53 = ORIENTED_EDGE ( 'NONE', *, *, #229, .F. ) ;
#54 = DIRECTION ( 'NONE',  ( 0.0000000000000000000, 1.000000000000000000, 0.0000000000000000000 ) ) ;
#55 = CARTESIAN_POINT ( 'NONE',  ( 8.728703347107827472E-16, -3.061616997868381169E-17, 0.2499999999999998335 ) ) ;
#56 = CARTESIAN_POINT ( 'NONE',  ( 2.444036937190193601E-13, -8.572527594031472993E-15, 70.00000000000000000 ) ) ;
#57 = CARTESIAN_POINT ( 'NONE',  ( 3.624524646439342283E-14, 1.499999999999991562, 10.38105117766515484 ) ) ;
#58 = DIRECTION ( 'NONE',  ( 0.0000000000000000000, 1.000000000000000000, 0.0000000000000000000 ) ) ;
#59 = CIRCLE ( 'NONE', #138, 1.719999999999995088 ) ;
#60 = VERTEX_POINT ( 'NONE', #183 ) ;
#61 = CARTESIAN_POINT ( 'NONE',  ( 0.0000000000000000000, 1.469999999999994422, 0.0000000000000000000 ) ) ;
#62 = APPROVAL_DATE_TIME ( #279, #208 ) ;
#63 = CC_DESIGN_PERSON_AND_ORGANIZATION_ASSIGNMENT ( #302, #182, ( #273 ) ) ;
#64 = AXIS2_PLACEMENT_3D ( 'NONE', #55, #268, #125 ) ;
#65 = CALENDAR_DATE ( 2021, 2, 12 ) ;
#66 = APPROVAL_PERSON_ORGANIZATION ( #21, #208, #284 ) ;
#67 = CC_DESIGN_PERSON_AND_ORGANIZATION_ASSIGNMENT ( #157, #44, ( #301 ) ) ;
#68 = MECHANICAL_CONTEXT ( 'NONE', #177, 'mechanical' ) ;
#69 = EDGE_LOOP ( 'NONE', ( #140 ) ) ;
#70 = ADVANCED_FACE ( 'NONE', ( #49, #71 ), #25, .T. ) ;
#71 = FACE_OUTER_BOUND ( 'NONE', #237, .T. ) ;
#72 = DIRECTION ( 'NONE',  ( -4.275831445896958607E-31, -1.000000000000000000, -1.224646799147353207E-16 ) ) ;
#73 = SHAPE_DEFINITION_REPRESENTATION ( #7, #79 ) ;
#74 = CARTESIAN_POINT ( 'NONE',  ( -6.285472225468504226E-31, 2.204646880512922144E-32, -1.800230794746602270E-16 ) ) ;
#75 = AXIS2_PLACEMENT_3D ( 'NONE', #105, #153, #35 ) ;
#76 = ADVANCED_FACE ( 'NONE', ( #116 ), #190, .F. ) ;
#77 = DIRECTION ( 'NONE',  ( 0.0000000000000000000, 1.000000000000000000, 0.0000000000000000000 ) ) ;
#78 = CARTESIAN_POINT ( 'NONE',  ( 2.433562493173664138E-13, -8.535788190057053710E-15, 69.70000000000001705 ) ) ;
#79 = ADVANCED_BREP_SHAPE_REPRESENTATION ( '321570', ( #14, #207, #3 ), #272 ) ;
#80 = FACE_OUTER_BOUND ( 'NONE', #192, .T. ) ;
#81 = AXIS2_PLACEMENT_3D ( 'NONE', #142, #170, #143 ) ;
#82 = CIRCLE ( 'NONE', #19, 1.200000000000001510 ) ;
#83 = PLANE ( 'NONE',  #283 ) ;
#84 = LOCAL_TIME ( 10, 35, 39.00000000000000000, #46 ) ;
#85 = DIRECTION ( 'NONE',  ( 0.0000000000000000000, 1.000000000000000000, 0.0000000000000000000 ) ) ;
#86 = DIRECTION ( 'NONE',  ( -3.491481338843133355E-15, 1.224646799147353207E-16, -1.000000000000000000 ) ) ;
#87 = APPROVAL_DATE_TIME ( #300, #276 ) ;
#88 = DIRECTION ( 'NONE',  ( 1.000000000000000000, 0.0000000000000000000, 0.0000000000000000000 ) ) ;
#89 = PERSON_AND_ORGANIZATION_ROLE ( 'creator' ) ;
#90 = CC_DESIGN_PERSON_AND_ORGANIZATION_ASSIGNMENT ( #155, #254, ( #273 ) ) ;
#91 = APPROVAL_STATUS ( 'not_yet_approved' ) ;
#92 = EDGE_CURVE ( 'NONE', #128, #128, #271, .T. ) ;
#93 = AXIS2_PLACEMENT_3D ( 'NONE', #50, #264, #163 ) ;
#94 = CONICAL_SURFACE ( 'NONE', #293, 1.719999999999995088, 0.5235987755983005920 ) ;
#95 =( NAMED_UNIT ( * ) PLANE_ANGLE_UNIT ( ) SI_UNIT ( $, .RADIAN. ) );
#96 = CARTESIAN_POINT ( 'NONE',  ( 3.491481338843133355E-14, 1.289793413089191905E-32, 10.00000000000000000 ) ) ;
#97 = CONICAL_SURFACE ( 'NONE', #236, 1.469999999999994422, 0.7853981633974500554 ) ;
#98 = LOCAL_TIME ( 10, 35, 39.00000000000000000, #303 ) ;
#99 = EDGE_LOOP ( 'NONE', ( #139 ) ) ;
#100 = DIRECTION ( 'NONE',  ( -4.275831445896957731E-31, -1.000000000000000000, -1.224646799147353207E-16 ) ) ;
#101 = CC_DESIGN_DATE_AND_TIME_ASSIGNMENT ( #135, #262, ( #181 ) ) ;
#102 = EDGE_LOOP ( 'NONE', ( #26 ) ) ;
#103 = EDGE_LOOP ( 'NONE', ( #246 ) ) ;
#104 = AXIS2_PLACEMENT_3D ( 'NONE', #195, #86, #228 ) ;
#105 = CARTESIAN_POINT ( 'NONE',  ( 3.491481338843133355E-14, -1.224646799147353256E-15, 10.00000000000000000 ) ) ;
#106 = FACE_BOUND ( 'NONE', #217, .T. ) ;
#107 = DIRECTION ( 'NONE',  ( -3.491481338843133355E-15, 1.224646799147353207E-16, -1.000000000000000000 ) ) ;
#108 = CLOSED_SHELL ( 'NONE', ( #76, #136, #70, #241, #270 ) ) ;
#109 = VERTEX_POINT ( 'NONE', #39 ) ;
#110 = CARTESIAN_POINT ( 'NONE',  ( 0.0000000000000000000, 0.0000000000000000000, 0.0000000000000000000 ) ) ;
#111 = DIRECTION ( 'NONE',  ( 0.0000000000000000000, 0.0000000000000000000, 1.000000000000000000 ) ) ;
#112 = VERTEX_POINT ( 'NONE', #130 ) ;
#113 = PERSON_AND_ORGANIZATION ( #263, #233 ) ;
#114 = DATE_AND_TIME ( #65, #98 ) ;
#115 = ORIENTED_EDGE ( 'NONE', *, *, #92, .F. ) ;
#116 = FACE_OUTER_BOUND ( 'NONE', #118, .T. ) ;
#117 = APPROVAL_STATUS ( 'not_yet_approved' ) ;
#118 = EDGE_LOOP ( 'NONE', ( #266 ) ) ;
#119 = ORIENTED_EDGE ( 'NONE', *, *, #149, .F. ) ;
#120 = EDGE_LOOP ( 'NONE', ( #221 ) ) ;
#121 = ADVANCED_FACE ( 'NONE', ( #242 ), #27, .T. ) ;
#122 = EDGE_LOOP ( 'NONE', ( #115 ) ) ;
#123 = APPROVAL ( #117, 'UNSPECIFIED' ) ;
#124 = ORIENTED_EDGE ( 'NONE', *, *, #149, .T. ) ;
#125 = DIRECTION ( 'NONE',  ( 4.478906847412188847E-31, 1.000000000000000000, 1.260700200564543542E-16 ) ) ;
#126 = FACE_OUTER_BOUND ( 'NONE', #186, .T. ) ;
#127 = FACE_OUTER_BOUND ( 'NONE', #103, .T. ) ;
#128 = VERTEX_POINT ( 'NONE', #61 ) ;
#129 = EDGE_CURVE ( 'NONE', #112, #112, #43, .T. ) ;
#130 = CARTESIAN_POINT ( 'NONE',  ( 3.491481338843133355E-14, 1.719999999999993978, 10.00000000000000000 ) ) ;
#131 = FACE_OUTER_BOUND ( 'NONE', #69, .T. ) ;
#132 = VERTEX_POINT ( 'NONE', #281 ) ;
#133 = CIRCLE ( 'NONE', #210, 1.499999999999992895 ) ;
#134 = AXIS2_PLACEMENT_3D ( 'NONE', #78, #179, #298 ) ;
#135 = DATE_AND_TIME ( #285, #225 ) ;
#136 = ADVANCED_FACE ( 'NONE', ( #13, #269 ), #169, .T. ) ;
#137 = CLOSED_SHELL ( 'NONE', ( #178, #152, #42, #121, #235, #156, #286 ) ) ;
#138 = AXIS2_PLACEMENT_3D ( 'NONE', #148, #299, #58 ) ;
#139 = ORIENTED_EDGE ( 'NONE', *, *, #259, .F. ) ;
#140 = ORIENTED_EDGE ( 'NONE', *, *, #291, .F. ) ;
#141 = PERSON_AND_ORGANIZATION_ROLE ( 'classification_officer' ) ;
#142 = CARTESIAN_POINT ( 'NONE',  ( -6.285472225468504226E-31, 2.204646880512922144E-32, -1.800230794746602270E-16 ) ) ;
#143 = DIRECTION ( 'NONE',  ( 4.275831445896957731E-31, 1.000000000000000000, 1.224646799147353207E-16 ) ) ;
#144 = CIRCLE ( 'NONE', #93, 1.200000000000001510 ) ;
#145 = CC_DESIGN_APPROVAL ( #276, ( #23 ) ) ;
#146 = DIRECTION ( 'NONE',  ( -3.491481338843133355E-15, 1.224646799147353207E-16, -1.000000000000000000 ) ) ;
#147 = DIRECTION ( 'NONE',  ( -3.491481338843133355E-15, 1.224646799147353207E-16, -1.000000000000000000 ) ) ;
#148 = CARTESIAN_POINT ( 'NONE',  ( 3.491481338843133355E-14, -1.224646799147353256E-15, 10.00000000000000000 ) ) ;
#149 = EDGE_CURVE ( 'NONE', #132, #132, #28, .T. ) ;
#150 = CARTESIAN_POINT ( 'NONE',  ( 3.624524646439342283E-14, -1.271312109651249483E-15, 10.38105117766515484 ) ) ;
#151 = VERTEX_POINT ( 'NONE', #37 ) ;
#152 = ADVANCED_FACE ( 'NONE', ( #126, #16 ), #196, .T. ) ;
#153 = DIRECTION ( 'NONE',  ( -3.491481338843133355E-15, 1.224646799147353207E-16, -1.000000000000000000 ) ) ;
#154 = DIRECTION ( 'NONE',  ( 0.0000000000000000000, 1.000000000000000000, 0.0000000000000000000 ) ) ;
#155 = PERSON_AND_ORGANIZATION ( #263, #233 ) ;
#156 = ADVANCED_FACE ( 'NONE', ( #222, #106 ), #193, .T. ) ;
#157 = PERSON_AND_ORGANIZATION ( #263, #233 ) ;
#158 = VERTEX_POINT ( 'NONE', #230 ) ;
#159 = COORDINATED_UNIVERSAL_TIME_OFFSET ( 1, 0, .AHEAD. ) ;
#160 = CC_DESIGN_DATE_AND_TIME_ASSIGNMENT ( #114, #257, ( #23 ) ) ;
#161 = COORDINATED_UNIVERSAL_TIME_OFFSET ( 1, 0, .AHEAD. ) ;
#162 = EDGE_LOOP ( 'NONE', ( #119 ) ) ;
#163 = DIRECTION ( 'NONE',  ( 0.0000000000000000000, 1.000000000000000000, 0.0000000000000000000 ) ) ;
#164 = AXIS2_PLACEMENT_3D ( 'NONE', #96, #188, #72 ) ;
#165 = EDGE_LOOP ( 'NONE', ( #4 ) ) ;
#166 = ORIENTED_EDGE ( 'NONE', *, *, #92, .T. ) ;
#167 = APPROVAL_ROLE ( '' ) ;
#168 = EDGE_LOOP ( 'NONE', ( #124 ) ) ;
#169 = CONICAL_SURFACE ( 'NONE', #75, 1.719999999999995088, 0.5235987755983005920 ) ;
#170 = DIRECTION ( 'NONE',  ( -3.491481338843133355E-15, 1.224646799147353207E-16, -1.000000000000000000 ) ) ;
#171 = DESIGN_CONTEXT ( 'detailed design', #173, 'design' ) ;
#172 = DIRECTION ( 'NONE',  ( -3.491481338843133355E-15, 1.224646799147353207E-16, -1.000000000000000000 ) ) ;
#173 = APPLICATION_CONTEXT ( 'configuration controlled 3d designs of mechanical parts and assemblies' ) ;
#174 = CYLINDRICAL_SURFACE ( 'NONE', #51, 1.499999999999996891 ) ;
#175 = DIRECTION ( 'NONE',  ( -3.491481338843133355E-15, 1.224646799147353207E-16, -1.000000000000000000 ) ) ;
#176 = DIRECTION ( 'NONE',  ( -3.491481338843133355E-15, 1.224646799147353207E-16, -1.000000000000000000 ) ) ;
#177 = APPLICATION_CONTEXT ( 'configuration controlled 3d designs of mechanical parts and assemblies' ) ;
#178 = ADVANCED_FACE ( 'NONE', ( #251, #33 ), #94, .T. ) ;
#179 = DIRECTION ( 'NONE',  ( -3.491481338843133355E-15, 1.224646799147353207E-16, -1.000000000000000000 ) ) ;
#180 = CALENDAR_DATE ( 2021, 2, 12 ) ;
#181 = SECURITY_CLASSIFICATION ( '', '', #213 ) ;
#182 = PERSON_AND_ORGANIZATION_ROLE ( 'design_supplier' ) ;
#183 = CARTESIAN_POINT ( 'NONE',  ( 2.444036937190193601E-13, 1.199999999999992628, 70.00000000000000000 ) ) ;
#184 = CC_DESIGN_APPROVAL ( #123, ( #181 ) ) ;
#185 = PERSON_AND_ORGANIZATION ( #263, #233 ) ;
#186 = EDGE_LOOP ( 'NONE', ( #187 ) ) ;
#187 = ORIENTED_EDGE ( 'NONE', *, *, #129, .T. ) ;
#188 = DIRECTION ( 'NONE',  ( 3.491481338843133355E-15, -1.224646799147353207E-16, 1.000000000000000000 ) ) ;
#189 = PERSON_AND_ORGANIZATION ( #263, #233 ) ;
#190 = PLANE ( 'NONE',  #164 ) ;
#191 = DIRECTION ( 'NONE',  ( -3.491481338843133355E-15, 1.224646799147353207E-16, -1.000000000000000000 ) ) ;
#192 = EDGE_LOOP ( 'NONE', ( #211 ) ) ;
#193 = CONICAL_SURFACE ( 'NONE', #278, 1.200000000000001510, 0.7853981633974566057 ) ;
#194 = LOCAL_TIME ( 10, 35, 39.00000000000000000, #159 ) ;
#195 = CARTESIAN_POINT ( 'NONE',  ( 2.444036937190193601E-13, -8.572527594031472993E-15, 70.00000000000000000 ) ) ;
#196 = CYLINDRICAL_SURFACE ( 'NONE', #10, 1.719999999999995088 ) ;
#197 = CARTESIAN_POINT ( 'NONE',  ( 3.491481338843133355E-14, -1.224646799147353256E-15, 10.00000000000000000 ) ) ;
#198 = LOCAL_TIME ( 10, 35, 39.00000000000000000, #238 ) ;
#199 = VERTEX_POINT ( 'NONE', #57 ) ;
#200 = CARTESIAN_POINT ( 'NONE',  ( 0.0000000000000000000, 0.0000000000000000000, 0.0000000000000000000 ) ) ;
#201 = APPLICATION_PROTOCOL_DEFINITION ( 'international standard', 'config_control_design', 1994, #173 ) ;
#202 = VERTEX_POINT ( 'NONE', #40 ) ;
#203 = EDGE_CURVE ( 'NONE', #227, #227, #59, .T. ) ;
#204 = CIRCLE ( 'NONE', #134, 1.500000000000001110 ) ;
#205 = APPROVAL_PERSON_ORGANIZATION ( #113, #276, #282 ) ;
#206 = APPLICATION_PROTOCOL_DEFINITION ( 'international standard', 'config_control_design', 1994, #177 ) ;
#207 = MANIFOLD_SOLID_BREP ( 'Corps-Déplacer/Copier1[2]', #137 ) ;
#208 = APPROVAL ( #234, 'UNSPECIFIED' ) ;
#209 = CARTESIAN_POINT ( 'NONE',  ( 3.491481338843133355E-14, 1.719999999999993978, 10.00000000000000000 ) ) ;
#210 = AXIS2_PLACEMENT_3D ( 'NONE', #267, #261, #48 ) ;
#211 = ORIENTED_EDGE ( 'NONE', *, *, #18, .T. ) ;
#212 = PRODUCT_RELATED_PRODUCT_CATEGORY ( 'detail', '', ( #301 ) ) ;
#213 = SECURITY_CLASSIFICATION_LEVEL ( 'unclassified' ) ;
#214 = EDGE_LOOP ( 'NONE', ( #289 ) ) ;
#215 = DATE_AND_TIME ( #30, #198 ) ;
#216 = AXIS2_PLACEMENT_3D ( 'NONE', #292, #147, #11 ) ;
#217 = EDGE_LOOP ( 'NONE', ( #288 ) ) ;
#218 = APPROVAL_DATE_TIME ( #215, #123 ) ;
#219 = EDGE_LOOP ( 'NONE', ( #53 ) ) ;
#220 = CC_DESIGN_PERSON_AND_ORGANIZATION_ASSIGNMENT ( #185, #89, ( #23 ) ) ;
#221 = ORIENTED_EDGE ( 'NONE', *, *, #38, .F. ) ;
#222 = FACE_OUTER_BOUND ( 'NONE', #102, .T. ) ;
#223 = CARTESIAN_POINT ( 'NONE',  ( 2.444036937190193601E-13, -8.572527594031472993E-15, 70.00000000000000000 ) ) ;
#224 = DIRECTION ( 'NONE',  ( -3.491481338843133355E-15, 1.224646799147353207E-16, -1.000000000000000000 ) ) ;
#225 = LOCAL_TIME ( 10, 35, 39.00000000000000000, #161 ) ;
#226 = PLANE ( 'NONE',  #104 ) ;
#227 = VERTEX_POINT ( 'NONE', #209 ) ;
#228 = DIRECTION ( 'NONE',  ( 4.275831445896958607E-31, 1.000000000000000000, 1.224646799147353207E-16 ) ) ;
#229 = EDGE_CURVE ( 'NONE', #202, #202, #260, .T. ) ;
#230 = CARTESIAN_POINT ( 'NONE',  ( 2.433562493173664138E-13, 1.499999999999992673, 69.70000000000001705 ) ) ;
#231 = CIRCLE ( 'NONE', #24, 1.500000000000001110 ) ;
#232 = AXIS2_PLACEMENT_3D ( 'NONE', #17, #297, #85 ) ;
#233 = ORGANIZATION ( 'UNSPECIFIED', 'UNSPECIFIED', '' ) ;
#234 = APPROVAL_STATUS ( 'not_yet_approved' ) ;
#235 = ADVANCED_FACE ( 'NONE', ( #131 ), #226, .F. ) ;
#236 = AXIS2_PLACEMENT_3D ( 'NONE', #74, #9, #100 ) ;
#237 = EDGE_LOOP ( 'NONE', ( #245 ) ) ;
#238 = COORDINATED_UNIVERSAL_TIME_OFFSET ( 1, 0, .AHEAD. ) ;
#239 = ORIENTED_EDGE ( 'NONE', *, *, #12, .T. ) ;
#240 = EDGE_LOOP ( 'NONE', ( #31 ) ) ;
#241 = ADVANCED_FACE ( 'NONE', ( #252, #296 ), #34, .T. ) ;
#242 = FACE_OUTER_BOUND ( 'NONE', #32, .T. ) ;
#243 = DIRECTION ( 'NONE',  ( 4.275831445896958607E-31, 1.000000000000000000, 1.224646799147353207E-16 ) ) ;
#244 = AXIS2_PLACEMENT_3D ( 'NONE', #150, #295, #250 ) ;
#245 = ORIENTED_EDGE ( 'NONE', *, *, #259, .T. ) ;
#246 = ORIENTED_EDGE ( 'NONE', *, *, #12, .F. ) ;
#247 = DIRECTION ( 'NONE',  ( 4.275831445896958607E-31, 1.000000000000000000, 1.224646799147353207E-16 ) ) ;
#248 = AXIS2_PLACEMENT_3D ( 'NONE', #5, #265, #243 ) ;
#249 = DIRECTION ( 'NONE',  ( 4.275831445896958607E-31, 1.000000000000000000, 1.224646799147353207E-16 ) ) ;
#250 = DIRECTION ( 'NONE',  ( 0.0000000000000000000, 1.000000000000000000, 0.0000000000000000000 ) ) ;
#251 = FACE_BOUND ( 'NONE', #214, .T. ) ;
#252 = FACE_OUTER_BOUND ( 'NONE', #99, .T. ) ;
#253 =( NAMED_UNIT ( * ) SI_UNIT ( $, .STERADIAN. ) SOLID_ANGLE_UNIT ( ) );
#254 = PERSON_AND_ORGANIZATION_ROLE ( 'creator' ) ;
#255 =( LENGTH_UNIT ( ) NAMED_UNIT ( * ) SI_UNIT ( .MILLI., .METRE. ) );
#256 = AXIS2_PLACEMENT_3D ( 'NONE', #29, #146, #77 ) ;
#257 = DATE_TIME_ROLE ( 'creation_date' ) ;
#258 = EDGE_LOOP ( 'NONE', ( #47 ) ) ;
#259 = EDGE_CURVE ( 'NONE', #158, #158, #204, .T. ) ;
#260 = CIRCLE ( 'NONE', #244, 1.499999999999992895 ) ;
#261 = DIRECTION ( 'NONE',  ( -3.491481338843133355E-15, 1.224646799147353207E-16, -1.000000000000000000 ) ) ;
#262 = DATE_TIME_ROLE ( 'classification_date' ) ;
#263 = PERSON ( 'UNSPECIFIED', 'UNSPECIFIED', 'UNSPECIFIED', ('UNSPECIFIED'), ('UNSPECIFIED'), ('UNSPECIFIED') ) ;
#264 = DIRECTION ( 'NONE',  ( -3.491481338843133355E-15, 1.224646799147353207E-16, -1.000000000000000000 ) ) ;
#265 = DIRECTION ( 'NONE',  ( -3.491481338843133355E-15, 1.224646799147353207E-16, -1.000000000000000000 ) ) ;
#266 = ORIENTED_EDGE ( 'NONE', *, *, #203, .T. ) ;
#267 = CARTESIAN_POINT ( 'NONE',  ( 3.624524646439342283E-14, -1.271312109651249483E-15, 10.38105117766515484 ) ) ;
#268 = DIRECTION ( 'NONE',  ( -3.491481338843133355E-15, 1.224646799147353207E-16, -1.000000000000000000 ) ) ;
#269 = FACE_OUTER_BOUND ( 'NONE', #240, .T. ) ;
#270 = ADVANCED_FACE ( 'NONE', ( #127 ), #83, .F. ) ;
#271 = CIRCLE ( 'NONE', #81, 1.469999999999994422 ) ;
#272 =( GEOMETRIC_REPRESENTATION_CONTEXT ( 3 ) GLOBAL_UNCERTAINTY_ASSIGNED_CONTEXT ( ( #22 ) ) GLOBAL_UNIT_ASSIGNED_CONTEXT ( ( #255, #95, #253 ) ) REPRESENTATION_CONTEXT ( 'NONE', 'WORKASPACE' ) );
#273 = PRODUCT_DEFINITION_FORMATION_WITH_SPECIFIED_SOURCE ( 'ANY', '', #301, .NOT_KNOWN. ) ;
#274 = DIRECTION ( 'NONE',  ( 0.0000000000000000000, 1.000000000000000000, 0.0000000000000000000 ) ) ;
#275 = CARTESIAN_POINT ( 'NONE',  ( 2.444036937190193601E-13, 8.998558695971026591E-33, 70.00000000000000000 ) ) ;
#276 = APPROVAL ( #91, 'UNSPECIFIED' ) ;
#277 = DIRECTION ( 'NONE',  ( 4.275831445896958607E-31, 1.000000000000000000, 1.224646799147353454E-16 ) ) ;
#278 = AXIS2_PLACEMENT_3D ( 'NONE', #56, #176, #54 ) ;
#279 = DATE_AND_TIME ( #180, #194 ) ;
#280 = CALENDAR_DATE ( 2021, 2, 12 ) ;
#281 = CARTESIAN_POINT ( 'NONE',  ( 8.728703347107835360E-16, 1.719999999999995088, 0.2500000000000000555 ) ) ;
#282 = APPROVAL_ROLE ( '' ) ;
#283 = AXIS2_PLACEMENT_3D ( 'NONE', #275, #172, #249 ) ;
#284 = APPROVAL_ROLE ( '' ) ;
#285 = CALENDAR_DATE ( 2021, 2, 12 ) ;
#286 = ADVANCED_FACE ( 'NONE', ( #15, #80 ), #174, .T. ) ;
#287 = EDGE_LOOP ( 'NONE', ( #239 ) ) ;
#288 = ORIENTED_EDGE ( 'NONE', *, *, #291, .T. ) ;
#289 = ORIENTED_EDGE ( 'NONE', *, *, #229, .T. ) ;
#290 = FACE_BOUND ( 'NONE', #122, .T. ) ;
#291 = EDGE_CURVE ( 'NONE', #60, #60, #82, .T. ) ;
#292 = CARTESIAN_POINT ( 'NONE',  ( 0.0000000000000000000, 0.0000000000000000000, 0.0000000000000000000 ) ) ;
#293 = AXIS2_PLACEMENT_3D ( 'NONE', #197, #224, #274 ) ;
#294 = CC_DESIGN_SECURITY_CLASSIFICATION ( #181, ( #273 ) ) ;
#295 = DIRECTION ( 'NONE',  ( -3.491481338843133355E-15, 1.224646799147353207E-16, -1.000000000000000000 ) ) ;
#296 = FACE_BOUND ( 'NONE', #287, .T. ) ;
#297 = DIRECTION ( 'NONE',  ( -3.491481338843133355E-15, 1.224646799147353207E-16, -1.000000000000000000 ) ) ;
#298 = DIRECTION ( 'NONE',  ( 0.0000000000000000000, 1.000000000000000000, 0.0000000000000000000 ) ) ;
#299 = DIRECTION ( 'NONE',  ( -3.491481338843133355E-15, 1.224646799147353207E-16, -1.000000000000000000 ) ) ;
#300 = DATE_AND_TIME ( #280, #84 ) ;
#301 = PRODUCT ( '321570', '321570', '', ( #68 ) ) ;
#302 = PERSON_AND_ORGANIZATION ( #263, #233 ) ;
#303 = COORDINATED_UNIVERSAL_TIME_OFFSET ( 1, 0, .AHEAD. ) ;
ENDSEC;
END-ISO-10303-21;
