ISO-10303-21;
HEADER;
FILE_DESCRIPTION (( 'STEP AP203' ),
    '1' );
FILE_NAME ('321569.step',
    '2021-12-02T09:35:38',
    ( '' ),
    ( '' ),
    'SwSTEP 2.0',
    'SolidWorks 2019',
    '' );
FILE_SCHEMA (( 'CONFIG_CONTROL_DESIGN' ));
ENDSEC;

DATA;
#1 = ORIENTED_EDGE ( 'NONE', *, *, #193, .F. ) ;
#2 = CLOSED_SHELL ( 'NONE', ( #231, #9, #38, #14, #272 ) ) ;
#3 = APPROVAL_ROLE ( '' ) ;
#4 = APPROVAL_STATUS ( 'not_yet_approved' ) ;
#5 = FACE_OUTER_BOUND ( 'NONE', #65, .T. ) ;
#6 = CARTESIAN_POINT ( 'NONE',  ( 3.491481338843133355E-14, -1.224646799147353256E-15, 10.00000000000000000 ) ) ;
#7 = AXIS2_PLACEMENT_3D ( 'NONE', #15, #172, #171 ) ;
#8 = DIRECTION ( 'NONE',  ( 0.0000000000000000000, 1.000000000000000000, 0.0000000000000000000 ) ) ;
#9 = ADVANCED_FACE ( 'NONE', ( #31, #246 ), #110, .T. ) ;
#10 = FACE_OUTER_BOUND ( 'NONE', #45, .T. ) ;
#11 = FACE_BOUND ( 'NONE', #261, .T. ) ;
#12 = CIRCLE ( 'NONE', #203, 1.714999999999994973 ) ;
#13 = VERTEX_POINT ( 'NONE', #101 ) ;
#14 = ADVANCED_FACE ( 'NONE', ( #264, #142 ), #280, .T. ) ;
#15 = CARTESIAN_POINT ( 'NONE',  ( 2.444036937190193601E-13, -8.572527594031472993E-15, 70.00000000000000000 ) ) ;
#16 = CONICAL_SURFACE ( 'NONE', #228, 1.200000000000001510, 0.7853981633974566057 ) ;
#17 = VERTEX_POINT ( 'NONE', #221 ) ;
#18 = DIRECTION ( 'NONE',  ( 4.275831445896958607E-31, 1.000000000000000000, 1.224646799147353207E-16 ) ) ;
#19 = ORGANIZATION ( 'UNSPECIFIED', 'UNSPECIFIED', '' ) ;
#20 = APPROVAL_DATE_TIME ( #129, #126 ) ;
#21 = ORIENTED_EDGE ( 'NONE', *, *, #290, .F. ) ;
#22 = ADVANCED_FACE ( 'NONE', ( #10, #11 ), #16, .T. ) ;
#23 = PERSON_AND_ORGANIZATION_ROLE ( 'design_owner' ) ;
#24 = ORIENTED_EDGE ( 'NONE', *, *, #193, .T. ) ;
#25 = PERSON_AND_ORGANIZATION ( #41, #19 ) ;
#26 = DIRECTION ( 'NONE',  ( -3.491481338843133355E-15, 1.224646799147353207E-16, -1.000000000000000000 ) ) ;
#27 = SHAPE_DEFINITION_REPRESENTATION ( #160, #161 ) ;
#28 = DIRECTION ( 'NONE',  ( -3.491481338843133355E-15, 1.224646799147353207E-16, -1.000000000000000000 ) ) ;
#29 = DIRECTION ( 'NONE',  ( 3.491481338843133355E-15, -1.224646799147353207E-16, 1.000000000000000000 ) ) ;
#30 = CC_DESIGN_APPROVAL ( #99, ( #72 ) ) ;
#31 = FACE_BOUND ( 'NONE', #291, .T. ) ;
#32 = DIRECTION ( 'NONE',  ( -3.491481338843133355E-15, 1.224646799147353207E-16, -1.000000000000000000 ) ) ;
#33 = DIRECTION ( 'NONE',  ( -3.491481338843133355E-15, 1.224646799147353207E-16, -1.000000000000000000 ) ) ;
#34 = CC_DESIGN_PERSON_AND_ORGANIZATION_ASSIGNMENT ( #201, #23, ( #112 ) ) ;
#35 = CIRCLE ( 'NONE', #86, 1.200000000000001510 ) ;
#36 = DIRECTION ( 'NONE',  ( 0.0000000000000000000, 1.000000000000000000, 0.0000000000000000000 ) ) ;
#37 = DIRECTION ( 'NONE',  ( 3.491481338843133355E-15, -1.224646799147353207E-16, 1.000000000000000000 ) ) ;
#38 = ADVANCED_FACE ( 'NONE', ( #79, #169 ), #187, .T. ) ;
#39 = CARTESIAN_POINT ( 'NONE',  ( 3.621500934903064779E-14, 1.499999999999991562, 10.37239092362731085 ) ) ;
#40 = CARTESIAN_POINT ( 'NONE',  ( 3.491481338843133355E-14, -1.224646799147353256E-15, 10.00000000000000000 ) ) ;
#41 = PERSON ( 'UNSPECIFIED', 'UNSPECIFIED', 'UNSPECIFIED', ('UNSPECIFIED'), ('UNSPECIFIED'), ('UNSPECIFIED') ) ;
#42 = CALENDAR_DATE ( 2021, 2, 12 ) ;
#43 = ORIENTED_EDGE ( 'NONE', *, *, #241, .T. ) ;
#44 = PERSON_AND_ORGANIZATION ( #41, #19 ) ;
#45 = EDGE_LOOP ( 'NONE', ( #70 ) ) ;
#46 = EDGE_LOOP ( 'NONE', ( #206 ) ) ;
#47 = CONICAL_SURFACE ( 'NONE', #237, 1.464999999999994085, 0.7853981633974500554 ) ;
#48 = COORDINATED_UNIVERSAL_TIME_OFFSET ( 1, 0, .AHEAD. ) ;
#49 = DATE_TIME_ROLE ( 'creation_date' ) ;
#50 = DIRECTION ( 'NONE',  ( 4.275831445896958607E-31, 1.000000000000000000, 1.224646799147353454E-16 ) ) ;
#51 = CIRCLE ( 'NONE', #222, 1.500000000000001110 ) ;
#52 = CARTESIAN_POINT ( 'NONE',  ( 0.0000000000000000000, 0.0000000000000000000, 0.0000000000000000000 ) ) ;
#53 = CARTESIAN_POINT ( 'NONE',  ( -3.132046534119509756E-31, 1.098574040799806401E-32, -8.970537803754325739E-17 ) ) ;
#54 = EDGE_CURVE ( 'NONE', #62, #62, #207, .T. ) ;
#55 = DIRECTION ( 'NONE',  ( -4.275831445896958607E-31, -1.000000000000000000, -1.224646799147353207E-16 ) ) ;
#56 = LOCAL_TIME ( 10, 35, 38.00000000000000000, #66 ) ;
#57 = EDGE_LOOP ( 'NONE', ( #184 ) ) ;
#58 = DIRECTION ( 'NONE',  ( 4.275831445896958607E-31, 1.000000000000000000, 1.224646799147353454E-16 ) ) ;
#59 = DIRECTION ( 'NONE',  ( -3.491481338843133355E-15, 1.224646799147353207E-16, -1.000000000000000000 ) ) ;
#60 = LOCAL_TIME ( 10, 35, 38.00000000000000000, #134 ) ;
#61 = DIRECTION ( 'NONE',  ( -3.491481338843133355E-15, 1.224646799147353207E-16, -1.000000000000000000 ) ) ;
#62 = VERTEX_POINT ( 'NONE', #39 ) ;
#63 = DIRECTION ( 'NONE',  ( -3.491481338843133355E-15, 1.224646799147353207E-16, -1.000000000000000000 ) ) ;
#64 = DIRECTION ( 'NONE',  ( 0.0000000000000000000, 0.0000000000000000000, 1.000000000000000000 ) ) ;
#65 = EDGE_LOOP ( 'NONE', ( #93 ) ) ;
#66 = COORDINATED_UNIVERSAL_TIME_OFFSET ( 1, 0, .AHEAD. ) ;
#67 = CLOSED_SHELL ( 'NONE', ( #92, #197, #149, #143, #258, #22, #215 ) ) ;
#68 = DATE_TIME_ROLE ( 'classification_date' ) ;
#69 = CARTESIAN_POINT ( 'NONE',  ( 2.433562493173664138E-13, 1.499999999999992673, 69.70000000000001705 ) ) ;
#70 = ORIENTED_EDGE ( 'NONE', *, *, #299, .F. ) ;
#71 = AXIS2_PLACEMENT_3D ( 'NONE', #268, #122, #36 ) ;
#72 = PRODUCT_DEFINITION ( 'UNKNOWN', '', #249, #245 ) ;
#73 = FACE_OUTER_BOUND ( 'NONE', #46, .T. ) ;
#74 = ORIENTED_EDGE ( 'NONE', *, *, #133, .F. ) ;
#75 =( GEOMETRIC_REPRESENTATION_CONTEXT ( 3 ) GLOBAL_UNCERTAINTY_ASSIGNED_CONTEXT ( ( #293 ) ) GLOBAL_UNIT_ASSIGNED_CONTEXT ( ( #136, #208, #183 ) ) REPRESENTATION_CONTEXT ( 'NONE', 'WORKASPACE' ) );
#76 = CC_DESIGN_SECURITY_CLASSIFICATION ( #107, ( #249 ) ) ;
#77 = DIRECTION ( 'NONE',  ( 4.491964884868201808E-31, 1.000000000000000000, 1.264375711353361664E-16 ) ) ;
#78 = DIRECTION ( 'NONE',  ( 0.0000000000000000000, 1.000000000000000000, 0.0000000000000000000 ) ) ;
#79 = FACE_OUTER_BOUND ( 'NONE', #230, .T. ) ;
#80 = CIRCLE ( 'NONE', #253, 1.464999999999994085 ) ;
#81 = CC_DESIGN_PERSON_AND_ORGANIZATION_ASSIGNMENT ( #279, #200, ( #249 ) ) ;
#82 = CYLINDRICAL_SURFACE ( 'NONE', #243, 1.714999999999994973 ) ;
#83 = CYLINDRICAL_SURFACE ( 'NONE', #210, 1.499999999999996891 ) ;
#84 = APPLICATION_CONTEXT ( 'configuration controlled 3d designs of mechanical parts and assemblies' ) ;
#85 = PLANE ( 'NONE',  #7 ) ;
#86 = AXIS2_PLACEMENT_3D ( 'NONE', #114, #115, #8 ) ;
#87 = FACE_OUTER_BOUND ( 'NONE', #283, .T. ) ;
#88 = CARTESIAN_POINT ( 'NONE',  ( 2.444036937190193601E-13, 1.199999999999992628, 70.00000000000000000 ) ) ;
#89 = DATE_AND_TIME ( #90, #157 ) ;
#90 = CALENDAR_DATE ( 2021, 2, 12 ) ;
#91 = COORDINATED_UNIVERSAL_TIME_OFFSET ( 1, 0, .AHEAD. ) ;
#92 = ADVANCED_FACE ( 'NONE', ( #211, #73 ), #120, .T. ) ;
#93 = ORIENTED_EDGE ( 'NONE', *, *, #235, .T. ) ;
#94 = AXIS2_PLACEMENT_3D ( 'NONE', #117, #26, #118 ) ;
#95 = ORIENTED_EDGE ( 'NONE', *, *, #54, .T. ) ;
#96 = CARTESIAN_POINT ( 'NONE',  ( 8.728703347107827472E-16, -3.061616997868381169E-17, 0.2499999999999998335 ) ) ;
#97 = CARTESIAN_POINT ( 'NONE',  ( 3.621500934903064779E-14, -1.270251534412524439E-15, 10.37239092362731085 ) ) ;
#98 = ORIENTED_EDGE ( 'NONE', *, *, #241, .F. ) ;
#99 = APPROVAL ( #178, 'UNSPECIFIED' ) ;
#100 = DIRECTION ( 'NONE',  ( 0.0000000000000000000, 1.000000000000000000, 0.0000000000000000000 ) ) ;
#101 = CARTESIAN_POINT ( 'NONE',  ( 2.433562493173664138E-13, 1.499999999999992673, 69.70000000000001705 ) ) ;
#102 = CARTESIAN_POINT ( 'NONE',  ( 0.0000000000000000000, 0.0000000000000000000, 0.0000000000000000000 ) ) ;
#103 = VERTEX_POINT ( 'NONE', #105 ) ;
#104 = CIRCLE ( 'NONE', #297, 1.200000000000001510 ) ;
#105 = CARTESIAN_POINT ( 'NONE',  ( 3.491481338843133355E-14, 1.714999999999993641, 10.00000000000000000 ) ) ;
#106 = PERSON_AND_ORGANIZATION_ROLE ( 'creator' ) ;
#107 = SECURITY_CLASSIFICATION ( '', '', #176 ) ;
#108 = PERSON_AND_ORGANIZATION ( #41, #19 ) ;
#109 = EDGE_LOOP ( 'NONE', ( #244 ) ) ;
#110 = CONICAL_SURFACE ( 'NONE', #166, 1.714999999999994973, 0.5235987755983011471 ) ;
#111 = PERSON_AND_ORGANIZATION_ROLE ( 'classification_officer' ) ;
#112 = PRODUCT ( '321569', '321569', '', ( #301 ) ) ;
#113 = EDGE_LOOP ( 'NONE', ( #267 ) ) ;
#114 = CARTESIAN_POINT ( 'NONE',  ( 2.444036937190193601E-13, -8.572527594031472993E-15, 70.00000000000000000 ) ) ;
#115 = DIRECTION ( 'NONE',  ( -3.491481338843133355E-15, 1.224646799147353207E-16, -1.000000000000000000 ) ) ;
#116 = AXIS2_PLACEMENT_3D ( 'NONE', #164, #284, #288 ) ;
#117 = CARTESIAN_POINT ( 'NONE',  ( 2.444036937190193601E-13, -8.572527594031472993E-15, 70.00000000000000000 ) ) ;
#118 = DIRECTION ( 'NONE',  ( 0.0000000000000000000, 1.000000000000000000, 0.0000000000000000000 ) ) ;
#119 = CARTESIAN_POINT ( 'NONE',  ( 3.491481338843133355E-14, 1.714999999999993641, 10.00000000000000000 ) ) ;
#120 = CONICAL_SURFACE ( 'NONE', #271, 1.714999999999994973, 0.5235987755983011471 ) ;
#121 = FACE_OUTER_BOUND ( 'NONE', #135, .T. ) ;
#122 = DIRECTION ( 'NONE',  ( -3.491481338843133355E-15, 1.224646799147353207E-16, -1.000000000000000000 ) ) ;
#123 = VERTEX_POINT ( 'NONE', #224 ) ;
#124 = CIRCLE ( 'NONE', #173, 1.714999999999994973 ) ;
#125 = CARTESIAN_POINT ( 'NONE',  ( 8.728703347107835360E-16, 1.714999999999994973, 0.2500000000000000555 ) ) ;
#126 = APPROVAL ( #205, 'UNSPECIFIED' ) ;
#127 = DIRECTION ( 'NONE',  ( 1.000000000000000000, 0.0000000000000000000, 0.0000000000000000000 ) ) ;
#128 = EDGE_LOOP ( 'NONE', ( #302 ) ) ;
#129 = DATE_AND_TIME ( #42, #60 ) ;
#130 = AXIS2_PLACEMENT_3D ( 'NONE', #97, #188, #78 ) ;
#131 = APPROVAL_ROLE ( '' ) ;
#132 = ORIENTED_EDGE ( 'NONE', *, *, #54, .F. ) ;
#133 = EDGE_CURVE ( 'NONE', #252, #252, #12, .T. ) ;
#134 = COORDINATED_UNIVERSAL_TIME_OFFSET ( 1, 0, .AHEAD. ) ;
#135 = EDGE_LOOP ( 'NONE', ( #286 ) ) ;
#136 =( LENGTH_UNIT ( ) NAMED_UNIT ( * ) SI_UNIT ( .MILLI., .METRE. ) );
#137 = EDGE_LOOP ( 'NONE', ( #21 ) ) ;
#138 = AXIS2_PLACEMENT_3D ( 'NONE', #195, #37, #194 ) ;
#139 = DIRECTION ( 'NONE',  ( -3.491481338843133355E-15, 1.224646799147353207E-16, -1.000000000000000000 ) ) ;
#140 = APPROVAL ( #4, 'UNSPECIFIED' ) ;
#141 = FACE_OUTER_BOUND ( 'NONE', #57, .T. ) ;
#142 = FACE_BOUND ( 'NONE', #219, .T. ) ;
#143 = ADVANCED_FACE ( 'NONE', ( #5 ), #185, .T. ) ;
#144 = DIRECTION ( 'NONE',  ( -3.491481338843133355E-15, 1.224646799147353207E-16, -1.000000000000000000 ) ) ;
#145 = APPROVAL_PERSON_ORGANIZATION ( #108, #99, #3 ) ;
#146 = EDGE_LOOP ( 'NONE', ( #24 ) ) ;
#147 = PLANE ( 'NONE',  #138 ) ;
#148 = CARTESIAN_POINT ( 'NONE',  ( 2.444036937190193601E-13, 8.998558695971026591E-33, 70.00000000000000000 ) ) ;
#149 = ADVANCED_FACE ( 'NONE', ( #141, #217 ), #47, .T. ) ;
#150 = CARTESIAN_POINT ( 'NONE',  ( 2.433562493173664138E-13, -8.535788190057053710E-15, 69.70000000000001705 ) ) ;
#151 = DIRECTION ( 'NONE',  ( 0.0000000000000000000, 1.000000000000000000, 0.0000000000000000000 ) ) ;
#152 = CC_DESIGN_DATE_AND_TIME_ASSIGNMENT ( #155, #49, ( #72 ) ) ;
#153 = DIRECTION ( 'NONE',  ( 0.0000000000000000000, 1.000000000000000000, 0.0000000000000000000 ) ) ;
#154 = MANIFOLD_SOLID_BREP ( 'Corps-Déplacer/Copier1[2]', #67 ) ;
#155 = DATE_AND_TIME ( #181, #303 ) ;
#156 = PERSON_AND_ORGANIZATION ( #41, #19 ) ;
#157 = LOCAL_TIME ( 10, 35, 38.00000000000000000, #91 ) ;
#158 = EDGE_LOOP ( 'NONE', ( #98 ) ) ;
#159 = CARTESIAN_POINT ( 'NONE',  ( 0.0000000000000000000, 0.0000000000000000000, 0.0000000000000000000 ) ) ;
#160 = PRODUCT_DEFINITION_SHAPE ( 'NONE', 'NONE',  #72 ) ;
#161 = ADVANCED_BREP_SHAPE_REPRESENTATION ( '321569', ( #256, #154, #163 ), #75 ) ;
#162 = DIRECTION ( 'NONE',  ( 0.0000000000000000000, 1.000000000000000000, 0.0000000000000000000 ) ) ;
#163 = AXIS2_PLACEMENT_3D ( 'NONE', #159, #64, #127 ) ;
#164 = CARTESIAN_POINT ( 'NONE',  ( 3.621500934903064779E-14, -1.270251534412524439E-15, 10.37239092362731085 ) ) ;
#165 = CARTESIAN_POINT ( 'NONE',  ( 2.444036937190193601E-13, -8.572527594031472993E-15, 70.00000000000000000 ) ) ;
#166 = AXIS2_PLACEMENT_3D ( 'NONE', #265, #32, #162 ) ;
#167 = EDGE_LOOP ( 'NONE', ( #74 ) ) ;
#168 = APPLICATION_CONTEXT ( 'configuration controlled 3d designs of mechanical parts and assemblies' ) ;
#169 = FACE_OUTER_BOUND ( 'NONE', #109, .T. ) ;
#170 = FACE_OUTER_BOUND ( 'NONE', #167, .T. ) ;
#171 = DIRECTION ( 'NONE',  ( 4.275831445896958607E-31, 1.000000000000000000, 1.224646799147353207E-16 ) ) ;
#172 = DIRECTION ( 'NONE',  ( -3.491481338843133355E-15, 1.224646799147353207E-16, -1.000000000000000000 ) ) ;
#173 = AXIS2_PLACEMENT_3D ( 'NONE', #40, #33, #100 ) ;
#174 = DIRECTION ( 'NONE',  ( -3.491481338843133355E-15, 1.224646799147353207E-16, -1.000000000000000000 ) ) ;
#175 = CARTESIAN_POINT ( 'NONE',  ( 0.0000000000000000000, 0.0000000000000000000, 0.0000000000000000000 ) ) ;
#176 = SECURITY_CLASSIFICATION_LEVEL ( 'unclassified' ) ;
#177 = AXIS2_PLACEMENT_3D ( 'NONE', #148, #63, #18 ) ;
#178 = APPROVAL_STATUS ( 'not_yet_approved' ) ;
#179 = APPROVAL_DATE_TIME ( #89, #99 ) ;
#180 = CC_DESIGN_PERSON_AND_ORGANIZATION_ASSIGNMENT ( #25, #106, ( #249 ) ) ;
#181 = CALENDAR_DATE ( 2021, 2, 12 ) ;
#182 = CC_DESIGN_APPROVAL ( #126, ( #249 ) ) ;
#183 =( NAMED_UNIT ( * ) SI_UNIT ( $, .STERADIAN. ) SOLID_ANGLE_UNIT ( ) );
#184 = ORIENTED_EDGE ( 'NONE', *, *, #133, .T. ) ;
#185 = PLANE ( 'NONE',  #198 ) ;
#186 = APPROVAL_PERSON_ORGANIZATION ( #254, #126, #282 ) ;
#187 = CYLINDRICAL_SURFACE ( 'NONE', #274, 1.499999999999996891 ) ;
#188 = DIRECTION ( 'NONE',  ( -3.491481338843133355E-15, 1.224646799147353207E-16, -1.000000000000000000 ) ) ;
#189 = EDGE_CURVE ( 'NONE', #250, #250, #35, .T. ) ;
#190 = DIRECTION ( 'NONE',  ( 0.0000000000000000000, 1.000000000000000000, 0.0000000000000000000 ) ) ;
#191 = VERTEX_POINT ( 'NONE', #88 ) ;
#192 = CC_DESIGN_APPROVAL ( #140, ( #107 ) ) ;
#193 = EDGE_CURVE ( 'NONE', #123, #123, #266, .T. ) ;
#194 = DIRECTION ( 'NONE',  ( -4.275831445896958607E-31, -1.000000000000000000, -1.224646799147353207E-16 ) ) ;
#195 = CARTESIAN_POINT ( 'NONE',  ( 3.491481338843133355E-14, 1.286044013632537233E-32, 10.00000000000000000 ) ) ;
#196 = FACE_OUTER_BOUND ( 'NONE', #158, .T. ) ;
#197 = ADVANCED_FACE ( 'NONE', ( #296, #170 ), #82, .T. ) ;
#198 = AXIS2_PLACEMENT_3D ( 'NONE', #53, #242, #262 ) ;
#199 = VERTEX_POINT ( 'NONE', #69 ) ;
#200 = PERSON_AND_ORGANIZATION_ROLE ( 'design_supplier' ) ;
#201 = PERSON_AND_ORGANIZATION ( #41, #19 ) ;
#202 = ORIENTED_EDGE ( 'NONE', *, *, #235, .F. ) ;
#203 = AXIS2_PLACEMENT_3D ( 'NONE', #96, #144, #77 ) ;
#204 = EDGE_CURVE ( 'NONE', #225, #225, #278, .T. ) ;
#205 = APPROVAL_STATUS ( 'not_yet_approved' ) ;
#206 = ORIENTED_EDGE ( 'NONE', *, *, #204, .F. ) ;
#207 = CIRCLE ( 'NONE', #116, 1.499999999999992895 ) ;
#208 =( NAMED_UNIT ( * ) PLANE_ANGLE_UNIT ( ) SI_UNIT ( $, .RADIAN. ) );
#209 = CC_DESIGN_PERSON_AND_ORGANIZATION_ASSIGNMENT ( #44, #229, ( #72 ) ) ;
#210 = AXIS2_PLACEMENT_3D ( 'NONE', #102, #59, #58 ) ;
#211 = FACE_BOUND ( 'NONE', #146, .T. ) ;
#212 = APPROVAL_DATE_TIME ( #238, #140 ) ;
#213 = EDGE_LOOP ( 'NONE', ( #202 ) ) ;
#214 = CALENDAR_DATE ( 2021, 2, 12 ) ;
#215 = ADVANCED_FACE ( 'NONE', ( #87, #298 ), #83, .T. ) ;
#216 = LOCAL_TIME ( 10, 35, 38.00000000000000000, #260 ) ;
#217 = FACE_BOUND ( 'NONE', #213, .T. ) ;
#218 = DIRECTION ( 'NONE',  ( -3.491481338843133355E-15, 1.224646799147353207E-16, -1.000000000000000000 ) ) ;
#219 = EDGE_LOOP ( 'NONE', ( #277 ) ) ;
#220 = CC_DESIGN_DATE_AND_TIME_ASSIGNMENT ( #232, #68, ( #107 ) ) ;
#221 = CARTESIAN_POINT ( 'NONE',  ( 0.0000000000000000000, 1.464999999999994085, 0.0000000000000000000 ) ) ;
#222 = AXIS2_PLACEMENT_3D ( 'NONE', #150, #174, #151 ) ;
#223 = CARTESIAN_POINT ( 'NONE',  ( 2.444036937190193601E-13, -8.572527594031472993E-15, 70.00000000000000000 ) ) ;
#224 = CARTESIAN_POINT ( 'NONE',  ( 3.621500934903064779E-14, 1.499999999999991562, 10.37239092362731085 ) ) ;
#225 = VERTEX_POINT ( 'NONE', #119 ) ;
#226 = APPROVAL_PERSON_ORGANIZATION ( #156, #140, #131 ) ;
#227 = CARTESIAN_POINT ( 'NONE',  ( 2.444036937190193601E-13, 1.199999999999992628, 70.00000000000000000 ) ) ;
#228 = AXIS2_PLACEMENT_3D ( 'NONE', #165, #218, #190 ) ;
#229 = PERSON_AND_ORGANIZATION_ROLE ( 'creator' ) ;
#230 = EDGE_LOOP ( 'NONE', ( #132 ) ) ;
#231 = ADVANCED_FACE ( 'NONE', ( #121 ), #147, .F. ) ;
#232 = DATE_AND_TIME ( #255, #56 ) ;
#233 = ORIENTED_EDGE ( 'NONE', *, *, #276, .F. ) ;
#234 = ORIENTED_EDGE ( 'NONE', *, *, #204, .T. ) ;
#235 = EDGE_CURVE ( 'NONE', #17, #17, #80, .T. ) ;
#236 = EDGE_LOOP ( 'NONE', ( #233 ) ) ;
#237 = AXIS2_PLACEMENT_3D ( 'NONE', #240, #29, #55 ) ;
#238 = DATE_AND_TIME ( #214, #216 ) ;
#239 = DIRECTION ( 'NONE',  ( 0.0000000000000000000, 1.000000000000000000, 0.0000000000000000000 ) ) ;
#240 = CARTESIAN_POINT ( 'NONE',  ( -6.264093068239019512E-31, 2.197148081599612802E-32, -1.794107560750865148E-16 ) ) ;
#241 = EDGE_CURVE ( 'NONE', #191, #191, #104, .T. ) ;
#242 = DIRECTION ( 'NONE',  ( -3.491481338843133355E-15, 1.224646799147353207E-16, -1.000000000000000000 ) ) ;
#243 = AXIS2_PLACEMENT_3D ( 'NONE', #175, #61, #294 ) ;
#244 = ORIENTED_EDGE ( 'NONE', *, *, #276, .T. ) ;
#245 = DESIGN_CONTEXT ( 'detailed design', #84, 'design' ) ;
#246 = FACE_OUTER_BOUND ( 'NONE', #137, .T. ) ;
#247 = FACE_OUTER_BOUND ( 'NONE', #128, .T. ) ;
#248 = DIRECTION ( 'NONE',  ( 4.275831445896958607E-31, 1.000000000000000000, 1.224646799147353207E-16 ) ) ;
#249 = PRODUCT_DEFINITION_FORMATION_WITH_SPECIFIED_SOURCE ( 'ANY', '', #112, .NOT_KNOWN. ) ;
#250 = VERTEX_POINT ( 'NONE', #227 ) ;
#251 = CARTESIAN_POINT ( 'NONE',  ( 2.433562493173664138E-13, -8.535788190057053710E-15, 69.70000000000001705 ) ) ;
#252 = VERTEX_POINT ( 'NONE', #125 ) ;
#253 = AXIS2_PLACEMENT_3D ( 'NONE', #295, #269, #248 ) ;
#254 = PERSON_AND_ORGANIZATION ( #41, #19 ) ;
#255 = CALENDAR_DATE ( 2021, 2, 12 ) ;
#256 = MANIFOLD_SOLID_BREP ( 'Corps-Déplacer/Copier1[1]', #2 ) ;
#257 = AXIS2_PLACEMENT_3D ( 'NONE', #251, #273, #153 ) ;
#258 = ADVANCED_FACE ( 'NONE', ( #196 ), #85, .F. ) ;
#259 = APPLICATION_PROTOCOL_DEFINITION ( 'international standard', 'config_control_design', 1994, #168 ) ;
#260 = COORDINATED_UNIVERSAL_TIME_OFFSET ( 1, 0, .AHEAD. ) ;
#261 = EDGE_LOOP ( 'NONE', ( #43 ) ) ;
#262 = DIRECTION ( 'NONE',  ( 4.275831445896958607E-31, 1.000000000000000000, 1.224646799147353207E-16 ) ) ;
#263 = CC_DESIGN_PERSON_AND_ORGANIZATION_ASSIGNMENT ( #281, #111, ( #107 ) ) ;
#264 = FACE_OUTER_BOUND ( 'NONE', #236, .T. ) ;
#265 = CARTESIAN_POINT ( 'NONE',  ( 3.491481338843133355E-14, -1.224646799147353256E-15, 10.00000000000000000 ) ) ;
#266 = CIRCLE ( 'NONE', #130, 1.499999999999992895 ) ;
#267 = ORIENTED_EDGE ( 'NONE', *, *, #299, .T. ) ;
#268 = CARTESIAN_POINT ( 'NONE',  ( 3.491481338843133355E-14, -1.224646799147353256E-15, 10.00000000000000000 ) ) ;
#269 = DIRECTION ( 'NONE',  ( -3.491481338843133355E-15, 1.224646799147353207E-16, -1.000000000000000000 ) ) ;
#270 = PLANE ( 'NONE',  #177 ) ;
#271 = AXIS2_PLACEMENT_3D ( 'NONE', #6, #139, #239 ) ;
#272 = ADVANCED_FACE ( 'NONE', ( #247 ), #270, .F. ) ;
#273 = DIRECTION ( 'NONE',  ( -3.491481338843133355E-15, 1.224646799147353207E-16, -1.000000000000000000 ) ) ;
#274 = AXIS2_PLACEMENT_3D ( 'NONE', #52, #28, #50 ) ;
#275 = DIRECTION ( 'NONE',  ( -3.491481338843133355E-15, 1.224646799147353207E-16, -1.000000000000000000 ) ) ;
#276 = EDGE_CURVE ( 'NONE', #13, #13, #51, .T. ) ;
#277 = ORIENTED_EDGE ( 'NONE', *, *, #189, .T. ) ;
#278 = CIRCLE ( 'NONE', #71, 1.714999999999994973 ) ;
#279 = PERSON_AND_ORGANIZATION ( #41, #19 ) ;
#280 = CONICAL_SURFACE ( 'NONE', #94, 1.200000000000001510, 0.7853981633974566057 ) ;
#281 = PERSON_AND_ORGANIZATION ( #41, #19 ) ;
#282 = APPROVAL_ROLE ( '' ) ;
#283 = EDGE_LOOP ( 'NONE', ( #1 ) ) ;
#284 = DIRECTION ( 'NONE',  ( -3.491481338843133355E-15, 1.224646799147353207E-16, -1.000000000000000000 ) ) ;
#285 = PRODUCT_RELATED_PRODUCT_CATEGORY ( 'detail', '', ( #112 ) ) ;
#286 = ORIENTED_EDGE ( 'NONE', *, *, #290, .T. ) ;
#287 = CIRCLE ( 'NONE', #257, 1.500000000000001110 ) ;
#288 = DIRECTION ( 'NONE',  ( 0.0000000000000000000, 1.000000000000000000, 0.0000000000000000000 ) ) ;
#289 = EDGE_LOOP ( 'NONE', ( #234 ) ) ;
#290 = EDGE_CURVE ( 'NONE', #103, #103, #124, .T. ) ;
#291 = EDGE_LOOP ( 'NONE', ( #95 ) ) ;
#292 = DIRECTION ( 'NONE',  ( 0.0000000000000000000, 1.000000000000000000, 0.0000000000000000000 ) ) ;
#293 = UNCERTAINTY_MEASURE_WITH_UNIT (LENGTH_MEASURE( 1.000000000000000082E-05 ), #136, 'distance_accuracy_value', 'NONE');
#294 = DIRECTION ( 'NONE',  ( 4.275831445896958607E-31, 1.000000000000000000, 1.224646799147353207E-16 ) ) ;
#295 = CARTESIAN_POINT ( 'NONE',  ( -6.264093068239019512E-31, 2.197148081599612802E-32, -1.794107560750865148E-16 ) ) ;
#296 = FACE_OUTER_BOUND ( 'NONE', #289, .T. ) ;
#297 = AXIS2_PLACEMENT_3D ( 'NONE', #223, #275, #292 ) ;
#298 = FACE_OUTER_BOUND ( 'NONE', #113, .T. ) ;
#299 = EDGE_CURVE ( 'NONE', #199, #199, #287, .T. ) ;
#300 = APPLICATION_PROTOCOL_DEFINITION ( 'international standard', 'config_control_design', 1994, #84 ) ;
#301 = MECHANICAL_CONTEXT ( 'NONE', #168, 'mechanical' ) ;
#302 = ORIENTED_EDGE ( 'NONE', *, *, #189, .F. ) ;
#303 = LOCAL_TIME ( 10, 35, 38.00000000000000000, #48 ) ;
ENDSEC;
END-ISO-10303-21;
