ISO-10303-21;
HEADER;
FILE_DESCRIPTION (( 'STEP AP203' ),
    '1' );
FILE_NAME ('321568.step',
    '2021-12-02T09:35:38',
    ( '' ),
    ( '' ),
    'SwSTEP 2.0',
    'SolidWorks 2019',
    '' );
FILE_SCHEMA (( 'CONFIG_CONTROL_DESIGN' ));
ENDSEC;

DATA;
#1 = AXIS2_PLACEMENT_3D ( 'NONE', #281, #55, #144 ) ;
#2 = PERSON_AND_ORGANIZATION ( #88, #146 ) ;
#3 = APPROVAL_PERSON_ORGANIZATION ( #199, #225, #233 ) ;
#4 = DIRECTION ( 'NONE',  ( -3.491481338843133355E-15, 1.224646799147353207E-16, -1.000000000000000000 ) ) ;
#5 = APPROVAL_DATE_TIME ( #283, #147 ) ;
#6 = ADVANCED_FACE ( 'NONE', ( #102, #148 ), #287, .T. ) ;
#7 = ORIENTED_EDGE ( 'NONE', *, *, #10, .T. ) ;
#8 = CONICAL_SURFACE ( 'NONE', #104, 1.200000000000001510, 0.7853981633974566057 ) ;
#9 = CC_DESIGN_APPROVAL ( #147, ( #27 ) ) ;
#10 = EDGE_CURVE ( 'NONE', #206, #206, #99, .T. ) ;
#11 = FACE_OUTER_BOUND ( 'NONE', #120, .T. ) ;
#12 = SECURITY_CLASSIFICATION_LEVEL ( 'unclassified' ) ;
#13 = DIRECTION ( 'NONE',  ( -3.491481338843133355E-15, 1.224646799147353207E-16, -1.000000000000000000 ) ) ;
#14 = AXIS2_PLACEMENT_3D ( 'NONE', #216, #172, #38 ) ;
#15 = CARTESIAN_POINT ( 'NONE',  ( 0.0000000000000000000, 0.0000000000000000000, 0.0000000000000000000 ) ) ;
#16 = CARTESIAN_POINT ( 'NONE',  ( -6.242713911009534798E-31, 2.189649282686303732E-32, -1.787984326755128765E-16 ) ) ;
#17 = CARTESIAN_POINT ( 'NONE',  ( 2.444036937190193601E-13, 8.998558695971026591E-33, 70.00000000000000000 ) ) ;
#18 = AXIS2_PLACEMENT_3D ( 'NONE', #17, #129, #203 ) ;
#19 = CC_DESIGN_PERSON_AND_ORGANIZATION_ASSIGNMENT ( #149, #257, ( #27 ) ) ;
#20 = VERTEX_POINT ( 'NONE', #139 ) ;
#21 = ORIENTED_EDGE ( 'NONE', *, *, #217, .F. ) ;
#22 = DATE_AND_TIME ( #48, #254 ) ;
#23 = ORIENTED_EDGE ( 'NONE', *, *, #267, .F. ) ;
#24 = CIRCLE ( 'NONE', #198, 1.500000000000001110 ) ;
#25 = APPROVAL_PERSON_ORGANIZATION ( #266, #61, #141 ) ;
#26 = CARTESIAN_POINT ( 'NONE',  ( 8.728703347107835360E-16, 1.709999999999995079, 0.2500000000000000555 ) ) ;
#27 = PRODUCT_DEFINITION ( 'UNKNOWN', '', #118, #95 ) ;
#28 = ORIENTED_EDGE ( 'NONE', *, *, #93, .F. ) ;
#29 = COORDINATED_UNIVERSAL_TIME_OFFSET ( 1, 0, .AHEAD. ) ;
#30 = ORIENTED_EDGE ( 'NONE', *, *, #98, .F. ) ;
#31 = COORDINATED_UNIVERSAL_TIME_OFFSET ( 1, 0, .AHEAD. ) ;
#32 = CC_DESIGN_DATE_AND_TIME_ASSIGNMENT ( #101, #53, ( #27 ) ) ;
#33 = LOCAL_TIME ( 10, 35, 38.00000000000000000, #29 ) ;
#34 = DIRECTION ( 'NONE',  ( 0.0000000000000000000, 1.000000000000000000, 0.0000000000000000000 ) ) ;
#35 = APPROVAL_DATE_TIME ( #78, #225 ) ;
#36 = ORIENTED_EDGE ( 'NONE', *, *, #217, .T. ) ;
#37 = FACE_OUTER_BOUND ( 'NONE', #275, .T. ) ;
#38 = DIRECTION ( 'NONE',  ( 0.0000000000000000000, 1.000000000000000000, 0.0000000000000000000 ) ) ;
#39 = CIRCLE ( 'NONE', #87, 1.709999999999995079 ) ;
#40 = DIRECTION ( 'NONE',  ( 4.275831445896958607E-31, 1.000000000000000000, 1.224646799147353454E-16 ) ) ;
#41 = PLANE ( 'NONE',  #18 ) ;
#42 = CARTESIAN_POINT ( 'NONE',  ( 2.444036937190193601E-13, -8.572527594031472993E-15, 70.00000000000000000 ) ) ;
#43 = FACE_BOUND ( 'NONE', #76, .T. ) ;
#44 = DIRECTION ( 'NONE',  ( 0.0000000000000000000, 1.000000000000000000, 0.0000000000000000000 ) ) ;
#45 = EDGE_CURVE ( 'NONE', #68, #68, #39, .T. ) ;
#46 = COORDINATED_UNIVERSAL_TIME_OFFSET ( 1, 0, .AHEAD. ) ;
#47 = CARTESIAN_POINT ( 'NONE',  ( 3.491481338843133355E-14, -1.224646799147353256E-15, 10.00000000000000000 ) ) ;
#48 = CALENDAR_DATE ( 2021, 2, 12 ) ;
#49 = ORIENTED_EDGE ( 'NONE', *, *, #256, .F. ) ;
#50 = MANIFOLD_SOLID_BREP ( 'Corps-Déplacer/Copier1[1]', #92 ) ;
#51 = CARTESIAN_POINT ( 'NONE',  ( 2.433562493173664138E-13, 1.499999999999992673, 69.70000000000001705 ) ) ;
#52 = EDGE_LOOP ( 'NONE', ( #21 ) ) ;
#53 = DATE_TIME_ROLE ( 'creation_date' ) ;
#54 = ORIENTED_EDGE ( 'NONE', *, *, #83, .F. ) ;
#55 = DIRECTION ( 'NONE',  ( -3.491481338843133355E-15, 1.224646799147353207E-16, -1.000000000000000000 ) ) ;
#56 = AXIS2_PLACEMENT_3D ( 'NONE', #16, #205, #84 ) ;
#57 = CARTESIAN_POINT ( 'NONE',  ( 3.491481338843133355E-14, -1.224646799147353256E-15, 10.00000000000000000 ) ) ;
#58 = EDGE_LOOP ( 'NONE', ( #284 ) ) ;
#59 = CYLINDRICAL_SURFACE ( 'NONE', #215, 1.709999999999995079 ) ;
#60 = FACE_OUTER_BOUND ( 'NONE', #125, .T. ) ;
#61 = APPROVAL ( #65, 'UNSPECIFIED' ) ;
#62 = FACE_OUTER_BOUND ( 'NONE', #52, .T. ) ;
#63 = FACE_OUTER_BOUND ( 'NONE', #299, .T. ) ;
#64 = CONICAL_SURFACE ( 'NONE', #170, 1.709999999999995079, 0.5235987755983005920 ) ;
#65 = APPROVAL_STATUS ( 'not_yet_approved' ) ;
#66 = PLANE ( 'NONE',  #265 ) ;
#67 = ADVANCED_FACE ( 'NONE', ( #37, #122 ), #300, .T. ) ;
#68 = VERTEX_POINT ( 'NONE', #160 ) ;
#69 = CARTESIAN_POINT ( 'NONE',  ( 2.444036937190193601E-13, 1.199999999999992628, 70.00000000000000000 ) ) ;
#70 = EDGE_LOOP ( 'NONE', ( #30 ) ) ;
#71 = AXIS2_PLACEMENT_3D ( 'NONE', #151, #239, #200 ) ;
#72 =( NAMED_UNIT ( * ) PLANE_ANGLE_UNIT ( ) SI_UNIT ( $, .RADIAN. ) );
#73 = EDGE_LOOP ( 'NONE', ( #74 ) ) ;
#74 = ORIENTED_EDGE ( 'NONE', *, *, #10, .F. ) ;
#75 = CC_DESIGN_PERSON_AND_ORGANIZATION_ASSIGNMENT ( #2, #194, ( #118 ) ) ;
#76 = EDGE_LOOP ( 'NONE', ( #80 ) ) ;
#77 = FACE_OUTER_BOUND ( 'NONE', #166, .T. ) ;
#78 = DATE_AND_TIME ( #213, #33 ) ;
#79 = EDGE_LOOP ( 'NONE', ( #191 ) ) ;
#80 = ORIENTED_EDGE ( 'NONE', *, *, #256, .T. ) ;
#81 = AXIS2_PLACEMENT_3D ( 'NONE', #269, #156, #220 ) ;
#82 = CARTESIAN_POINT ( 'NONE',  ( 2.444036937190193601E-13, -8.572527594031472993E-15, 70.00000000000000000 ) ) ;
#83 = EDGE_CURVE ( 'NONE', #96, #96, #180, .T. ) ;
#84 = DIRECTION ( 'NONE',  ( 4.275831445896958607E-31, 1.000000000000000000, 1.224646799147353454E-16 ) ) ;
#85 = DIRECTION ( 'NONE',  ( 0.0000000000000000000, 1.000000000000000000, 0.0000000000000000000 ) ) ;
#86 = DIRECTION ( 'NONE',  ( -4.275831445896958607E-31, -1.000000000000000000, -1.224646799147353207E-16 ) ) ;
#87 = AXIS2_PLACEMENT_3D ( 'NONE', #103, #196, #258 ) ;
#88 = PERSON ( 'UNSPECIFIED', 'UNSPECIFIED', 'UNSPECIFIED', ('UNSPECIFIED'), ('UNSPECIFIED'), ('UNSPECIFIED') ) ;
#89 = CARTESIAN_POINT ( 'NONE',  ( 3.491481338843133355E-14, 1.709999999999993969, 10.00000000000000000 ) ) ;
#90 = VERTEX_POINT ( 'NONE', #277 ) ;
#91 = EDGE_LOOP ( 'NONE', ( #36 ) ) ;
#92 = CLOSED_SHELL ( 'NONE', ( #282, #229, #6, #178, #286 ) ) ;
#93 = EDGE_CURVE ( 'NONE', #303, #303, #272, .T. ) ;
#94 = APPROVAL_DATE_TIME ( #22, #61 ) ;
#95 = DESIGN_CONTEXT ( 'detailed design', #195, 'design' ) ;
#96 = VERTEX_POINT ( 'NONE', #26 ) ;
#97 = ORIENTED_EDGE ( 'NONE', *, *, #45, .T. ) ;
#98 = EDGE_CURVE ( 'NONE', #270, #270, #130, .T. ) ;
#99 = CIRCLE ( 'NONE', #137, 1.709999999999995079 ) ;
#100 = CC_DESIGN_SECURITY_CLASSIFICATION ( #175, ( #118 ) ) ;
#101 = DATE_AND_TIME ( #105, #153 ) ;
#102 = FACE_OUTER_BOUND ( 'NONE', #70, .T. ) ;
#103 = CARTESIAN_POINT ( 'NONE',  ( 3.491481338843133355E-14, -1.224646799147353256E-15, 10.00000000000000000 ) ) ;
#104 = AXIS2_PLACEMENT_3D ( 'NONE', #82, #13, #131 ) ;
#105 = CALENDAR_DATE ( 2021, 2, 12 ) ;
#106 = EDGE_LOOP ( 'NONE', ( #186 ) ) ;
#107 = PRODUCT_RELATED_PRODUCT_CATEGORY ( 'detail', '', ( #193 ) ) ;
#108 = CARTESIAN_POINT ( 'NONE',  ( 2.444036937190193601E-13, -8.572527594031472993E-15, 70.00000000000000000 ) ) ;
#109 = DIRECTION ( 'NONE',  ( -3.491481338843133355E-15, 1.224646799147353207E-16, -1.000000000000000000 ) ) ;
#110 = CC_DESIGN_APPROVAL ( #225, ( #118 ) ) ;
#111 = DIRECTION ( 'NONE',  ( 3.491481338843133355E-15, -1.224646799147353207E-16, 1.000000000000000000 ) ) ;
#112 = DIRECTION ( 'NONE',  ( -3.491481338843133355E-15, 1.224646799147353207E-16, -1.000000000000000000 ) ) ;
#113 = FACE_OUTER_BOUND ( 'NONE', #73, .T. ) ;
#114 = AXIS2_PLACEMENT_3D ( 'NONE', #241, #243, #240 ) ;
#115 = DIRECTION ( 'NONE',  ( 0.0000000000000000000, 0.0000000000000000000, 1.000000000000000000 ) ) ;
#116 = ADVANCED_FACE ( 'NONE', ( #231, #77 ), #59, .T. ) ;
#117 = ORIENTED_EDGE ( 'NONE', *, *, #138, .T. ) ;
#118 = PRODUCT_DEFINITION_FORMATION_WITH_SPECIFIED_SOURCE ( 'ANY', '', #193, .NOT_KNOWN. ) ;
#119 = CALENDAR_DATE ( 2021, 2, 12 ) ;
#120 = EDGE_LOOP ( 'NONE', ( #7 ) ) ;
#121 = DIRECTION ( 'NONE',  ( -3.491481338843133355E-15, 1.224646799147353207E-16, -1.000000000000000000 ) ) ;
#122 = FACE_BOUND ( 'NONE', #228, .T. ) ;
#123 = AXIS2_PLACEMENT_3D ( 'NONE', #42, #263, #85 ) ;
#124 = LOCAL_TIME ( 10, 35, 38.00000000000000000, #31 ) ;
#125 = EDGE_LOOP ( 'NONE', ( #49 ) ) ;
#126 = EDGE_CURVE ( 'NONE', #90, #90, #24, .T. ) ;
#127 = CARTESIAN_POINT ( 'NONE',  ( 0.0000000000000000000, 0.0000000000000000000, 0.0000000000000000000 ) ) ;
#128 = PERSON_AND_ORGANIZATION_ROLE ( 'design_supplier' ) ;
#129 = DIRECTION ( 'NONE',  ( -3.491481338843133355E-15, 1.224646799147353207E-16, -1.000000000000000000 ) ) ;
#130 = CIRCLE ( 'NONE', #14, 1.499999999999992895 ) ;
#131 = DIRECTION ( 'NONE',  ( 0.0000000000000000000, 1.000000000000000000, 0.0000000000000000000 ) ) ;
#132 = CALENDAR_DATE ( 2021, 2, 12 ) ;
#133 = CARTESIAN_POINT ( 'NONE',  ( 2.444036937190193601E-13, -8.572527594031472993E-15, 70.00000000000000000 ) ) ;
#134 = COORDINATED_UNIVERSAL_TIME_OFFSET ( 1, 0, .AHEAD. ) ;
#135 = PLANE ( 'NONE',  #247 ) ;
#136 = MECHANICAL_CONTEXT ( 'NONE', #227, 'mechanical' ) ;
#137 = AXIS2_PLACEMENT_3D ( 'NONE', #57, #173, #34 ) ;
#138 = EDGE_CURVE ( 'NONE', #208, #208, #260, .T. ) ;
#139 = CARTESIAN_POINT ( 'NONE',  ( 2.444036937190193601E-13, 1.199999999999992628, 70.00000000000000000 ) ) ;
#140 = CARTESIAN_POINT ( 'NONE',  ( 3.618477223366787275E-14, 1.499999999999991562, 10.36373066958946687 ) ) ;
#141 = APPROVAL_ROLE ( '' ) ;
#142 = AXIS2_PLACEMENT_3D ( 'NONE', #181, #155, #179 ) ;
#143 = APPROVAL_STATUS ( 'not_yet_approved' ) ;
#144 = DIRECTION ( 'NONE',  ( 0.0000000000000000000, 1.000000000000000000, 0.0000000000000000000 ) ) ;
#145 = CIRCLE ( 'NONE', #142, 1.499999999999992895 ) ;
#146 = ORGANIZATION ( 'UNSPECIFIED', 'UNSPECIFIED', '' ) ;
#147 = APPROVAL ( #218, 'UNSPECIFIED' ) ;
#148 = FACE_OUTER_BOUND ( 'NONE', #58, .T. ) ;
#149 = PERSON_AND_ORGANIZATION ( #88, #146 ) ;
#150 = ORIENTED_EDGE ( 'NONE', *, *, #138, .F. ) ;
#151 = CARTESIAN_POINT ( 'NONE',  ( 2.444036937190193601E-13, -8.572527594031472993E-15, 70.00000000000000000 ) ) ;
#152 = CIRCLE ( 'NONE', #56, 1.459999999999994191 ) ;
#153 = LOCAL_TIME ( 10, 35, 38.00000000000000000, #230 ) ;
#154 = ORIENTED_EDGE ( 'NONE', *, *, #93, .T. ) ;
#155 = DIRECTION ( 'NONE',  ( -3.491481338843133355E-15, 1.224646799147353207E-16, -1.000000000000000000 ) ) ;
#156 = DIRECTION ( 'NONE',  ( -3.491481338843133355E-15, 1.224646799147353207E-16, -1.000000000000000000 ) ) ;
#157 = FACE_BOUND ( 'NONE', #79, .T. ) ;
#158 = LOCAL_TIME ( 10, 35, 38.00000000000000000, #134 ) ;
#159 = DIRECTION ( 'NONE',  ( 0.0000000000000000000, 1.000000000000000000, 0.0000000000000000000 ) ) ;
#160 = CARTESIAN_POINT ( 'NONE',  ( 3.491481338843133355E-14, 1.709999999999993969, 10.00000000000000000 ) ) ;
#161 = CC_DESIGN_DATE_AND_TIME_ASSIGNMENT ( #202, #290, ( #175 ) ) ;
#162 = EDGE_LOOP ( 'NONE', ( #23 ) ) ;
#163 = APPLICATION_PROTOCOL_DEFINITION ( 'international standard', 'config_control_design', 1994, #227 ) ;
#164 =( LENGTH_UNIT ( ) NAMED_UNIT ( * ) SI_UNIT ( .MILLI., .METRE. ) );
#165 = ADVANCED_FACE ( 'NONE', ( #264, #183 ), #64, .T. ) ;
#166 = EDGE_LOOP ( 'NONE', ( #54 ) ) ;
#167 = AXIS2_PLACEMENT_3D ( 'NONE', #15, #109, #291 ) ;
#168 = DIRECTION ( 'NONE',  ( 4.505099285116354488E-31, 1.000000000000000000, 1.268072716357318874E-16 ) ) ;
#169 = DIRECTION ( 'NONE',  ( 4.275831445896958607E-31, 1.000000000000000000, 1.224646799147353207E-16 ) ) ;
#170 = AXIS2_PLACEMENT_3D ( 'NONE', #47, #293, #44 ) ;
#171 = ADVANCED_FACE ( 'NONE', ( #63, #244 ), #295, .T. ) ;
#172 = DIRECTION ( 'NONE',  ( -3.491481338843133355E-15, 1.224646799147353207E-16, -1.000000000000000000 ) ) ;
#173 = DIRECTION ( 'NONE',  ( -3.491481338843133355E-15, 1.224646799147353207E-16, -1.000000000000000000 ) ) ;
#174 = CLOSED_SHELL ( 'NONE', ( #165, #116, #171, #245, #184, #67, #210 ) ) ;
#175 = SECURITY_CLASSIFICATION ( '', '', #12 ) ;
#176 = CARTESIAN_POINT ( 'NONE',  ( 3.491481338843133355E-14, 1.282294614175882836E-32, 10.00000000000000000 ) ) ;
#177 = DIRECTION ( 'NONE',  ( 0.0000000000000000000, 1.000000000000000000, 0.0000000000000000000 ) ) ;
#178 = ADVANCED_FACE ( 'NONE', ( #222, #43 ), #8, .T. ) ;
#179 = DIRECTION ( 'NONE',  ( 0.0000000000000000000, 1.000000000000000000, 0.0000000000000000000 ) ) ;
#180 = CIRCLE ( 'NONE', #285, 1.709999999999995079 ) ;
#181 = CARTESIAN_POINT ( 'NONE',  ( 3.618477223366787275E-14, -1.269190959173799789E-15, 10.36373066958946687 ) ) ;
#182 = CC_DESIGN_APPROVAL ( #61, ( #175 ) ) ;
#183 = FACE_OUTER_BOUND ( 'NONE', #279, .T. ) ;
#184 = ADVANCED_FACE ( 'NONE', ( #262 ), #66, .F. ) ;
#185 = PERSON_AND_ORGANIZATION_ROLE ( 'design_owner' ) ;
#186 = ORIENTED_EDGE ( 'NONE', *, *, #126, .F. ) ;
#187 = AXIS2_PLACEMENT_3D ( 'NONE', #133, #223, #159 ) ;
#188 = ORIENTED_EDGE ( 'NONE', *, *, #45, .F. ) ;
#189 = CARTESIAN_POINT ( 'NONE',  ( 0.0000000000000000000, 0.0000000000000000000, 0.0000000000000000000 ) ) ;
#190 = VERTEX_POINT ( 'NONE', #140 ) ;
#191 = ORIENTED_EDGE ( 'NONE', *, *, #98, .T. ) ;
#192 = EDGE_LOOP ( 'NONE', ( #97 ) ) ;
#193 = PRODUCT ( '321568', '321568', '', ( #136 ) ) ;
#194 = PERSON_AND_ORGANIZATION_ROLE ( 'creator' ) ;
#195 = APPLICATION_CONTEXT ( 'configuration controlled 3d designs of mechanical parts and assemblies' ) ;
#196 = DIRECTION ( 'NONE',  ( -3.491481338843133355E-15, 1.224646799147353207E-16, -1.000000000000000000 ) ) ;
#197 = APPROVAL_ROLE ( '' ) ;
#198 = AXIS2_PLACEMENT_3D ( 'NONE', #253, #121, #177 ) ;
#199 = PERSON_AND_ORGANIZATION ( #88, #146 ) ;
#200 = DIRECTION ( 'NONE',  ( 0.0000000000000000000, 1.000000000000000000, 0.0000000000000000000 ) ) ;
#201 = FACE_OUTER_BOUND ( 'NONE', #211, .T. ) ;
#202 = DATE_AND_TIME ( #132, #158 ) ;
#203 = DIRECTION ( 'NONE',  ( 4.275831445896958607E-31, 1.000000000000000000, 1.224646799147353207E-16 ) ) ;
#204 = DIRECTION ( 'NONE',  ( 4.275831445896958607E-31, 1.000000000000000000, 1.224646799147353207E-16 ) ) ;
#205 = DIRECTION ( 'NONE',  ( -3.491481338843133355E-15, 1.224646799147353207E-16, -1.000000000000000000 ) ) ;
#206 = VERTEX_POINT ( 'NONE', #89 ) ;
#207 = APPLICATION_PROTOCOL_DEFINITION ( 'international standard', 'config_control_design', 1994, #195 ) ;
#208 = VERTEX_POINT ( 'NONE', #69 ) ;
#209 = AXIS2_PLACEMENT_3D ( 'NONE', #280, #219, #40 ) ;
#210 = ADVANCED_FACE ( 'NONE', ( #62, #201 ), #246, .T. ) ;
#211 = EDGE_LOOP ( 'NONE', ( #154 ) ) ;
#212 = ADVANCED_BREP_SHAPE_REPRESENTATION ( '321568', ( #50, #235, #232 ), #242 ) ;
#213 = CALENDAR_DATE ( 2021, 2, 12 ) ;
#214 = CC_DESIGN_PERSON_AND_ORGANIZATION_ASSIGNMENT ( #288, #292, ( #175 ) ) ;
#215 = AXIS2_PLACEMENT_3D ( 'NONE', #127, #4, #169 ) ;
#216 = CARTESIAN_POINT ( 'NONE',  ( 3.618477223366787275E-14, -1.269190959173799789E-15, 10.36373066958946687 ) ) ;
#217 = EDGE_CURVE ( 'NONE', #190, #190, #145, .T. ) ;
#218 = APPROVAL_STATUS ( 'not_yet_approved' ) ;
#219 = DIRECTION ( 'NONE',  ( -3.491481338843133355E-15, 1.224646799147353207E-16, -1.000000000000000000 ) ) ;
#220 = DIRECTION ( 'NONE',  ( 0.0000000000000000000, 1.000000000000000000, 0.0000000000000000000 ) ) ;
#221 = DIRECTION ( 'NONE',  ( -4.275831445896958607E-31, -1.000000000000000000, -1.224646799147353454E-16 ) ) ;
#222 = FACE_OUTER_BOUND ( 'NONE', #106, .T. ) ;
#223 = DIRECTION ( 'NONE',  ( -3.491481338843133355E-15, 1.224646799147353207E-16, -1.000000000000000000 ) ) ;
#224 = PERSON_AND_ORGANIZATION ( #88, #146 ) ;
#225 = APPROVAL ( #143, 'UNSPECIFIED' ) ;
#226 =( NAMED_UNIT ( * ) SI_UNIT ( $, .STERADIAN. ) SOLID_ANGLE_UNIT ( ) );
#227 = APPLICATION_CONTEXT ( 'configuration controlled 3d designs of mechanical parts and assemblies' ) ;
#228 = EDGE_LOOP ( 'NONE', ( #117 ) ) ;
#229 = ADVANCED_FACE ( 'NONE', ( #157, #113 ), #237, .T. ) ;
#230 = COORDINATED_UNIVERSAL_TIME_OFFSET ( 1, 0, .AHEAD. ) ;
#231 = FACE_OUTER_BOUND ( 'NONE', #192, .T. ) ;
#232 = AXIS2_PLACEMENT_3D ( 'NONE', #189, #115, #297 ) ;
#233 = APPROVAL_ROLE ( '' ) ;
#234 = EDGE_LOOP ( 'NONE', ( #302 ) ) ;
#235 = MANIFOLD_SOLID_BREP ( 'Corps-Déplacer/Copier1[2]', #174 ) ;
#236 = CARTESIAN_POINT ( 'NONE',  ( 8.728703347107827472E-16, -3.061616997868381169E-17, 0.2499999999999998335 ) ) ;
#237 = CONICAL_SURFACE ( 'NONE', #81, 1.709999999999995079, 0.5235987755983005920 ) ;
#238 = AXIS2_PLACEMENT_3D ( 'NONE', #296, #111, #221 ) ;
#239 = DIRECTION ( 'NONE',  ( -3.491481338843133355E-15, 1.224646799147353207E-16, -1.000000000000000000 ) ) ;
#240 = DIRECTION ( 'NONE',  ( 4.275831445896958607E-31, 1.000000000000000000, 1.224646799147353207E-16 ) ) ;
#241 = CARTESIAN_POINT ( 'NONE',  ( -3.121356955504767399E-31, 1.094824641343151866E-32, -8.939921633775643826E-17 ) ) ;
#242 =( GEOMETRIC_REPRESENTATION_CONTEXT ( 3 ) GLOBAL_UNCERTAINTY_ASSIGNED_CONTEXT ( ( #250 ) ) GLOBAL_UNIT_ASSIGNED_CONTEXT ( ( #164, #72, #226 ) ) REPRESENTATION_CONTEXT ( 'NONE', 'WORKASPACE' ) );
#243 = DIRECTION ( 'NONE',  ( -3.491481338843133355E-15, 1.224646799147353207E-16, -1.000000000000000000 ) ) ;
#244 = FACE_BOUND ( 'NONE', #162, .T. ) ;
#245 = ADVANCED_FACE ( 'NONE', ( #268 ), #289, .T. ) ;
#246 = CYLINDRICAL_SURFACE ( 'NONE', #167, 1.499999999999996891 ) ;
#247 = AXIS2_PLACEMENT_3D ( 'NONE', #176, #294, #86 ) ;
#248 = CARTESIAN_POINT ( 'NONE',  ( 3.618477223366787275E-14, 1.499999999999991562, 10.36373066958946687 ) ) ;
#249 = ORIENTED_EDGE ( 'NONE', *, *, #83, .T. ) ;
#250 = UNCERTAINTY_MEASURE_WITH_UNIT (LENGTH_MEASURE( 1.000000000000000082E-05 ), #164, 'distance_accuracy_value', 'NONE');
#251 = EDGE_LOOP ( 'NONE', ( #150 ) ) ;
#252 = VERTEX_POINT ( 'NONE', #274 ) ;
#253 = CARTESIAN_POINT ( 'NONE',  ( 2.433562493173664138E-13, -8.535788190057053710E-15, 69.70000000000001705 ) ) ;
#254 = LOCAL_TIME ( 10, 35, 38.00000000000000000, #46 ) ;
#255 = PERSON_AND_ORGANIZATION ( #88, #146 ) ;
#256 = EDGE_CURVE ( 'NONE', #20, #20, #276, .T. ) ;
#257 = PERSON_AND_ORGANIZATION_ROLE ( 'creator' ) ;
#258 = DIRECTION ( 'NONE',  ( 0.0000000000000000000, 1.000000000000000000, 0.0000000000000000000 ) ) ;
#259 = DIRECTION ( 'NONE',  ( -3.491481338843133355E-15, 1.224646799147353207E-16, -1.000000000000000000 ) ) ;
#260 = CIRCLE ( 'NONE', #123, 1.200000000000001510 ) ;
#261 = CC_DESIGN_PERSON_AND_ORGANIZATION_ASSIGNMENT ( #255, #128, ( #118 ) ) ;
#262 = FACE_OUTER_BOUND ( 'NONE', #251, .T. ) ;
#263 = DIRECTION ( 'NONE',  ( -3.491481338843133355E-15, 1.224646799147353207E-16, -1.000000000000000000 ) ) ;
#264 = FACE_BOUND ( 'NONE', #91, .T. ) ;
#265 = AXIS2_PLACEMENT_3D ( 'NONE', #108, #112, #204 ) ;
#266 = PERSON_AND_ORGANIZATION ( #88, #146 ) ;
#267 = EDGE_CURVE ( 'NONE', #252, #252, #152, .T. ) ;
#268 = FACE_OUTER_BOUND ( 'NONE', #234, .T. ) ;
#269 = CARTESIAN_POINT ( 'NONE',  ( 3.491481338843133355E-14, -1.224646799147353256E-15, 10.00000000000000000 ) ) ;
#270 = VERTEX_POINT ( 'NONE', #248 ) ;
#271 = CC_DESIGN_PERSON_AND_ORGANIZATION_ASSIGNMENT ( #224, #185, ( #193 ) ) ;
#272 = CIRCLE ( 'NONE', #1, 1.500000000000001110 ) ;
#273 = PRODUCT_DEFINITION_SHAPE ( 'NONE', 'NONE',  #27 ) ;
#274 = CARTESIAN_POINT ( 'NONE',  ( 0.0000000000000000000, 1.459999999999994191, 0.0000000000000000000 ) ) ;
#275 = EDGE_LOOP ( 'NONE', ( #28 ) ) ;
#276 = CIRCLE ( 'NONE', #187, 1.200000000000001510 ) ;
#277 = CARTESIAN_POINT ( 'NONE',  ( 2.433562493173664138E-13, 1.499999999999992673, 69.70000000000001705 ) ) ;
#278 = APPROVAL_PERSON_ORGANIZATION ( #298, #147, #197 ) ;
#279 = EDGE_LOOP ( 'NONE', ( #188 ) ) ;
#280 = CARTESIAN_POINT ( 'NONE',  ( 0.0000000000000000000, 0.0000000000000000000, 0.0000000000000000000 ) ) ;
#281 = CARTESIAN_POINT ( 'NONE',  ( 2.433562493173664138E-13, -8.535788190057053710E-15, 69.70000000000001705 ) ) ;
#282 = ADVANCED_FACE ( 'NONE', ( #11 ), #135, .F. ) ;
#283 = DATE_AND_TIME ( #119, #124 ) ;
#284 = ORIENTED_EDGE ( 'NONE', *, *, #126, .T. ) ;
#285 = AXIS2_PLACEMENT_3D ( 'NONE', #236, #259, #168 ) ;
#286 = ADVANCED_FACE ( 'NONE', ( #60 ), #41, .F. ) ;
#287 = CYLINDRICAL_SURFACE ( 'NONE', #209, 1.499999999999996891 ) ;
#288 = PERSON_AND_ORGANIZATION ( #88, #146 ) ;
#289 = PLANE ( 'NONE',  #114 ) ;
#290 = DATE_TIME_ROLE ( 'classification_date' ) ;
#291 = DIRECTION ( 'NONE',  ( 4.275831445896958607E-31, 1.000000000000000000, 1.224646799147353454E-16 ) ) ;
#292 = PERSON_AND_ORGANIZATION_ROLE ( 'classification_officer' ) ;
#293 = DIRECTION ( 'NONE',  ( -3.491481338843133355E-15, 1.224646799147353207E-16, -1.000000000000000000 ) ) ;
#294 = DIRECTION ( 'NONE',  ( 3.491481338843133355E-15, -1.224646799147353207E-16, 1.000000000000000000 ) ) ;
#295 = CONICAL_SURFACE ( 'NONE', #238, 1.459999999999994191, 0.7853981633974500554 ) ;
#296 = CARTESIAN_POINT ( 'NONE',  ( -6.242713911009534798E-31, 2.189649282686303732E-32, -1.787984326755128765E-16 ) ) ;
#297 = DIRECTION ( 'NONE',  ( 1.000000000000000000, 0.0000000000000000000, 0.0000000000000000000 ) ) ;
#298 = PERSON_AND_ORGANIZATION ( #88, #146 ) ;
#299 = EDGE_LOOP ( 'NONE', ( #249 ) ) ;
#300 = CONICAL_SURFACE ( 'NONE', #71, 1.200000000000001510, 0.7853981633974566057 ) ;
#301 = SHAPE_DEFINITION_REPRESENTATION ( #273, #212 ) ;
#302 = ORIENTED_EDGE ( 'NONE', *, *, #267, .T. ) ;
#303 = VERTEX_POINT ( 'NONE', #51 ) ;
ENDSEC;
END-ISO-10303-21;
