ISO-10303-21;
HEADER;
FILE_DESCRIPTION (( 'STEP AP203' ),
    '1' );
FILE_NAME ('321567.step',
    '2021-12-02T09:35:37',
    ( '' ),
    ( '' ),
    'SwSTEP 2.0',
    'SolidWorks 2019',
    '' );
FILE_SCHEMA (( 'CONFIG_CONTROL_DESIGN' ));
ENDSEC;

DATA;
#1 = VERTEX_POINT ( 'NONE', #47 ) ;
#2 = VERTEX_POINT ( 'NONE', #261 ) ;
#3 = VERTEX_POINT ( 'NONE', #151 ) ;
#4 = AXIS2_PLACEMENT_3D ( 'NONE', #118, #193, #71 ) ;
#5 = ADVANCED_FACE ( 'NONE', ( #134, #201 ), #200, .T. ) ;
#6 = APPLICATION_PROTOCOL_DEFINITION ( 'international standard', 'config_control_design', 1994, #137 ) ;
#7 = CALENDAR_DATE ( 2021, 2, 12 ) ;
#8 = COORDINATED_UNIVERSAL_TIME_OFFSET ( 1, 0, .AHEAD. ) ;
#9 = ORIENTED_EDGE ( 'NONE', *, *, #281, .F. ) ;
#10 = CIRCLE ( 'NONE', #222, 1.500000000000001110 ) ;
#11 = EDGE_LOOP ( 'NONE', ( #223 ) ) ;
#12 = DIRECTION ( 'NONE',  ( -3.491481338843133355E-15, 1.224646799147353207E-16, -1.000000000000000000 ) ) ;
#13 = PRODUCT_DEFINITION_FORMATION_WITH_SPECIFIED_SOURCE ( 'ANY', '', #72, .NOT_KNOWN. ) ;
#14 = EDGE_LOOP ( 'NONE', ( #157 ) ) ;
#15 = DIRECTION ( 'NONE',  ( 0.0000000000000000000, 1.000000000000000000, 0.0000000000000000000 ) ) ;
#16 = CALENDAR_DATE ( 2021, 2, 12 ) ;
#17 = DIRECTION ( 'NONE',  ( -4.275831445896958607E-31, -1.000000000000000000, -1.224646799147353207E-16 ) ) ;
#18 = LOCAL_TIME ( 10, 35, 37.00000000000000000, #301 ) ;
#19 = DESIGN_CONTEXT ( 'detailed design', #33, 'design' ) ;
#20 = DIRECTION ( 'NONE',  ( -3.491481338843133355E-15, 1.224646799147353207E-16, -1.000000000000000000 ) ) ;
#21 = DIRECTION ( 'NONE',  ( -3.491481338843133355E-15, 1.224646799147353207E-16, -1.000000000000000000 ) ) ;
#22 = PERSON_AND_ORGANIZATION_ROLE ( 'design_supplier' ) ;
#23 = CARTESIAN_POINT ( 'NONE',  ( 2.433562493173664138E-13, -8.535788190057053710E-15, 69.70000000000001705 ) ) ;
#24 = AXIS2_PLACEMENT_3D ( 'NONE', #275, #39, #232 ) ;
#25 = ADVANCED_FACE ( 'NONE', ( #202 ), #209, .F. ) ;
#26 = VERTEX_POINT ( 'NONE', #30 ) ;
#27 = AXIS2_PLACEMENT_3D ( 'NONE', #266, #57, #224 ) ;
#28 = VERTEX_POINT ( 'NONE', #100 ) ;
#29 = ADVANCED_FACE ( 'NONE', ( #155 ), #79, .T. ) ;
#30 = CARTESIAN_POINT ( 'NONE',  ( 8.552847072295026068E-47, 1.454999999999994076, 0.0000000000000000000 ) ) ;
#31 = AXIS2_PLACEMENT_3D ( 'NONE', #205, #287, #35 ) ;
#32 = FACE_OUTER_BOUND ( 'NONE', #180, .T. ) ;
#33 = APPLICATION_CONTEXT ( 'configuration controlled 3d designs of mechanical parts and assemblies' ) ;
#34 = ORIENTED_EDGE ( 'NONE', *, *, #297, .F. ) ;
#35 = DIRECTION ( 'NONE',  ( 1.000000000000000000, 0.0000000000000000000, 0.0000000000000000000 ) ) ;
#36 = PERSON_AND_ORGANIZATION ( #68, #278 ) ;
#37 = EDGE_LOOP ( 'NONE', ( #73 ) ) ;
#38 = APPROVAL_ROLE ( '' ) ;
#39 = DIRECTION ( 'NONE',  ( -3.491481338843133355E-15, 1.224646799147353207E-16, -1.000000000000000000 ) ) ;
#40 = DIRECTION ( 'NONE',  ( 4.275831445896958607E-31, 1.000000000000000000, 1.224646799147353454E-16 ) ) ;
#41 = CC_DESIGN_PERSON_AND_ORGANIZATION_ASSIGNMENT ( #286, #126, ( #162 ) ) ;
#42 = CYLINDRICAL_SURFACE ( 'NONE', #74, 1.499999999999996891 ) ;
#43 = APPROVAL_PERSON_ORGANIZATION ( #51, #203, #144 ) ;
#44 = CARTESIAN_POINT ( 'NONE',  ( -6.221334753780049208E-31, 2.182150483772993842E-32, -1.781861092759391643E-16 ) ) ;
#45 = CYLINDRICAL_SURFACE ( 'NONE', #262, 1.704999999999994964 ) ;
#46 = EDGE_CURVE ( 'NONE', #1, #1, #10, .T. ) ;
#47 = CARTESIAN_POINT ( 'NONE',  ( 2.433562493173664138E-13, 1.499999999999992673, 69.70000000000001705 ) ) ;
#48 = APPROVAL_PERSON_ORGANIZATION ( #179, #88, #289 ) ;
#49 = PRODUCT_DEFINITION_SHAPE ( 'NONE', 'NONE',  #162 ) ;
#50 = VERTEX_POINT ( 'NONE', #97 ) ;
#51 = PERSON_AND_ORGANIZATION ( #68, #278 ) ;
#52 = ADVANCED_FACE ( 'NONE', ( #108, #296 ), #184, .T. ) ;
#53 = CIRCLE ( 'NONE', #96, 1.499999999999992895 ) ;
#54 = EDGE_LOOP ( 'NONE', ( #130 ) ) ;
#55 = DIRECTION ( 'NONE',  ( 0.0000000000000000000, 1.000000000000000000, 0.0000000000000000000 ) ) ;
#56 = CC_DESIGN_SECURITY_CLASSIFICATION ( #191, ( #13 ) ) ;
#57 = DIRECTION ( 'NONE',  ( -3.491481338843133355E-15, 1.224646799147353207E-16, -1.000000000000000000 ) ) ;
#58 = DATE_AND_TIME ( #268, #283 ) ;
#59 = CC_DESIGN_PERSON_AND_ORGANIZATION_ASSIGNMENT ( #70, #121, ( #191 ) ) ;
#60 = ORIENTED_EDGE ( 'NONE', *, *, #260, .F. ) ;
#61 = CARTESIAN_POINT ( 'NONE',  ( 3.491481338843133355E-14, -1.224646799147353256E-15, 10.00000000000000000 ) ) ;
#62 = DIRECTION ( 'NONE',  ( -3.491481338843133355E-15, 1.224646799147353207E-16, -1.000000000000000000 ) ) ;
#63 = AXIS2_PLACEMENT_3D ( 'NONE', #61, #132, #249 ) ;
#64 = DIRECTION ( 'NONE',  ( -4.275831445896959482E-31, -1.000000000000000000, -1.224646799147353207E-16 ) ) ;
#65 = DIRECTION ( 'NONE',  ( 0.0000000000000000000, 1.000000000000000000, 0.0000000000000000000 ) ) ;
#66 = DIRECTION ( 'NONE',  ( -3.491481338843133355E-15, 1.224646799147353207E-16, -1.000000000000000000 ) ) ;
#67 = CC_DESIGN_APPROVAL ( #276, ( #13 ) ) ;
#68 = PERSON ( 'UNSPECIFIED', 'UNSPECIFIED', 'UNSPECIFIED', ('UNSPECIFIED'), ('UNSPECIFIED'), ('UNSPECIFIED') ) ;
#69 = FACE_BOUND ( 'NONE', #149, .T. ) ;
#70 = PERSON_AND_ORGANIZATION ( #68, #278 ) ;
#71 = DIRECTION ( 'NONE',  ( 0.0000000000000000000, 1.000000000000000000, 0.0000000000000000000 ) ) ;
#72 = PRODUCT ( '321567', '321567', '', ( #77 ) ) ;
#73 = ORIENTED_EDGE ( 'NONE', *, *, #136, .F. ) ;
#74 = AXIS2_PLACEMENT_3D ( 'NONE', #251, #210, #40 ) ;
#75 =( LENGTH_UNIT ( ) NAMED_UNIT ( * ) SI_UNIT ( .MILLI., .METRE. ) );
#76 = ORIENTED_EDGE ( 'NONE', *, *, #46, .F. ) ;
#77 = MECHANICAL_CONTEXT ( 'NONE', #137, 'mechanical' ) ;
#78 = CC_DESIGN_PERSON_AND_ORGANIZATION_ASSIGNMENT ( #129, #264, ( #72 ) ) ;
#79 = PLANE ( 'NONE',  #236 ) ;
#80 = EDGE_LOOP ( 'NONE', ( #221 ) ) ;
#81 = APPLICATION_PROTOCOL_DEFINITION ( 'international standard', 'config_control_design', 1994, #33 ) ;
#82 = CIRCLE ( 'NONE', #107, 1.200000000000001510 ) ;
#83 = ORIENTED_EDGE ( 'NONE', *, *, #281, .T. ) ;
#84 = DIRECTION ( 'NONE',  ( -3.491481338843133355E-15, 1.224646799147353207E-16, -1.000000000000000000 ) ) ;
#85 = DIRECTION ( 'NONE',  ( -3.491481338843133355E-15, 1.224646799147353207E-16, -1.000000000000000000 ) ) ;
#86 = DIRECTION ( 'NONE',  ( 0.0000000000000000000, 1.000000000000000000, 0.0000000000000000000 ) ) ;
#87 = AXIS2_PLACEMENT_3D ( 'NONE', #145, #214, #65 ) ;
#88 = APPROVAL ( #156, 'UNSPECIFIED' ) ;
#89 = DATE_AND_TIME ( #16, #18 ) ;
#90 = FACE_OUTER_BOUND ( 'NONE', #219, .T. ) ;
#91 = APPROVAL_DATE_TIME ( #89, #276 ) ;
#92 = UNCERTAINTY_MEASURE_WITH_UNIT (LENGTH_MEASURE( 1.000000000000000082E-05 ), #75, 'distance_accuracy_value', 'NONE');
#93 = CARTESIAN_POINT ( 'NONE',  ( -6.221334753780049208E-31, 2.182150483772993842E-32, -1.781861092759391643E-16 ) ) ;
#94 = ADVANCED_FACE ( 'NONE', ( #242, #32 ), #153, .T. ) ;
#95 = DIRECTION ( 'NONE',  ( -3.491481338843133355E-15, 1.224646799147353207E-16, -1.000000000000000000 ) ) ;
#96 = AXIS2_PLACEMENT_3D ( 'NONE', #272, #62, #86 ) ;
#97 = CARTESIAN_POINT ( 'NONE',  ( 8.728703347107835360E-16, 1.704999999999994964, 0.2500000000000000555 ) ) ;
#98 = CIRCLE ( 'NONE', #185, 1.454999999999994076 ) ;
#99 = COORDINATED_UNIVERSAL_TIME_OFFSET ( 1, 0, .AHEAD. ) ;
#100 = CARTESIAN_POINT ( 'NONE',  ( 2.444036937190193601E-13, 1.199999999999992628, 70.00000000000000000 ) ) ;
#101 = EDGE_LOOP ( 'NONE', ( #124 ) ) ;
#102 = ADVANCED_FACE ( 'NONE', ( #228 ), #213, .F. ) ;
#103 = AXIS2_PLACEMENT_3D ( 'NONE', #256, #111, #160 ) ;
#104 = DIRECTION ( 'NONE',  ( -3.491481338843133355E-15, 1.224646799147353207E-16, -1.000000000000000000 ) ) ;
#105 = EDGE_LOOP ( 'NONE', ( #158 ) ) ;
#106 = EDGE_LOOP ( 'NONE', ( #109 ) ) ;
#107 = AXIS2_PLACEMENT_3D ( 'NONE', #230, #20, #15 ) ;
#108 = FACE_BOUND ( 'NONE', #54, .T. ) ;
#109 = ORIENTED_EDGE ( 'NONE', *, *, #273, .F. ) ;
#110 = DIRECTION ( 'NONE',  ( -3.491481338843133355E-15, 1.224646799147353207E-16, -1.000000000000000000 ) ) ;
#111 = DIRECTION ( 'NONE',  ( -3.491481338843133355E-15, 1.224646799147353207E-16, -1.000000000000000000 ) ) ;
#112 = AXIS2_PLACEMENT_3D ( 'NONE', #250, #95, #303 ) ;
#113 = AXIS2_PLACEMENT_3D ( 'NONE', #44, #274, #64 ) ;
#114 = CARTESIAN_POINT ( 'NONE',  ( 3.491481338843133355E-14, 1.278545214719227617E-32, 10.00000000000000000 ) ) ;
#115 = DIRECTION ( 'NONE',  ( -3.491481338843133355E-15, 1.224646799147353207E-16, -1.000000000000000000 ) ) ;
#116 = DIRECTION ( 'NONE',  ( 0.0000000000000000000, 1.000000000000000000, 0.0000000000000000000 ) ) ;
#117 = CC_DESIGN_APPROVAL ( #203, ( #191 ) ) ;
#118 = CARTESIAN_POINT ( 'NONE',  ( 2.444036937190193601E-13, -8.572527594031472993E-15, 70.00000000000000000 ) ) ;
#119 = CLOSED_SHELL ( 'NONE', ( #102, #5, #94, #284, #248 ) ) ;
#120 = COORDINATED_UNIVERSAL_TIME_OFFSET ( 1, 0, .AHEAD. ) ;
#121 = PERSON_AND_ORGANIZATION_ROLE ( 'classification_officer' ) ;
#122 = CIRCLE ( 'NONE', #4, 1.200000000000001510 ) ;
#123 = VERTEX_POINT ( 'NONE', #282 ) ;
#124 = ORIENTED_EDGE ( 'NONE', *, *, #260, .T. ) ;
#125 = VERTEX_POINT ( 'NONE', #147 ) ;
#126 = PERSON_AND_ORGANIZATION_ROLE ( 'creator' ) ;
#127 = ORIENTED_EDGE ( 'NONE', *, *, #263, .F. ) ;
#128 = CONICAL_SURFACE ( 'NONE', #113, 1.454999999999994076, 0.7853981633974500554 ) ;
#129 = PERSON_AND_ORGANIZATION ( #68, #278 ) ;
#130 = ORIENTED_EDGE ( 'NONE', *, *, #263, .T. ) ;
#131 = DATE_AND_TIME ( #7, #154 ) ;
#132 = DIRECTION ( 'NONE',  ( -3.491481338843133355E-15, 1.224646799147353207E-16, -1.000000000000000000 ) ) ;
#133 = APPROVAL_DATE_TIME ( #58, #88 ) ;
#134 = FACE_BOUND ( 'NONE', #80, .T. ) ;
#135 = EDGE_LOOP ( 'NONE', ( #294 ) ) ;
#136 = EDGE_CURVE ( 'NONE', #125, #125, #211, .T. ) ;
#137 = APPLICATION_CONTEXT ( 'configuration controlled 3d designs of mechanical parts and assemblies' ) ;
#138 = FACE_OUTER_BOUND ( 'NONE', #243, .T. ) ;
#139 = DIRECTION ( 'NONE',  ( 3.491481338843133355E-15, -1.224646799147353207E-16, 1.000000000000000000 ) ) ;
#140 = APPROVAL_STATUS ( 'not_yet_approved' ) ;
#141 = CARTESIAN_POINT ( 'NONE',  ( 8.728703347107827472E-16, -3.061616997868381169E-17, 0.2499999999999998335 ) ) ;
#142 = CIRCLE ( 'NONE', #87, 1.704999999999994964 ) ;
#143 = FACE_OUTER_BOUND ( 'NONE', #101, .T. ) ;
#144 = APPROVAL_ROLE ( '' ) ;
#145 = CARTESIAN_POINT ( 'NONE',  ( 3.491481338843133355E-14, -1.224646799147353256E-15, 10.00000000000000000 ) ) ;
#146 = ADVANCED_FACE ( 'NONE', ( #279, #69 ), #212, .T. ) ;
#147 = CARTESIAN_POINT ( 'NONE',  ( 3.491481338843133355E-14, 1.704999999999993632, 10.00000000000000000 ) ) ;
#148 = CLOSED_SHELL ( 'NONE', ( #52, #171, #293, #29, #25, #146, #188 ) ) ;
#149 = EDGE_LOOP ( 'NONE', ( #271 ) ) ;
#150 = CALENDAR_DATE ( 2021, 2, 12 ) ;
#151 = CARTESIAN_POINT ( 'NONE',  ( 3.615453511830509770E-14, 1.499999999999991562, 10.35507041555162111 ) ) ;
#152 = CARTESIAN_POINT ( 'NONE',  ( 3.491481338843133355E-14, -1.224646799147353256E-15, 10.00000000000000000 ) ) ;
#153 = CYLINDRICAL_SURFACE ( 'NONE', #169, 1.499999999999996891 ) ;
#154 = LOCAL_TIME ( 10, 35, 37.00000000000000000, #291 ) ;
#155 = FACE_OUTER_BOUND ( 'NONE', #135, .T. ) ;
#156 = APPROVAL_STATUS ( 'not_yet_approved' ) ;
#157 = ORIENTED_EDGE ( 'NONE', *, *, #136, .T. ) ;
#158 = ORIENTED_EDGE ( 'NONE', *, *, #227, .T. ) ;
#159 = FACE_OUTER_BOUND ( 'NONE', #174, .T. ) ;
#160 = DIRECTION ( 'NONE',  ( 0.0000000000000000000, 1.000000000000000000, 0.0000000000000000000 ) ) ;
#161 = CARTESIAN_POINT ( 'NONE',  ( 3.615453511830509770E-14, -1.268130383935074745E-15, 10.35507041555162111 ) ) ;
#162 = PRODUCT_DEFINITION ( 'UNKNOWN', '', #13, #19 ) ;
#163 = DIRECTION ( 'NONE',  ( 0.0000000000000000000, 1.000000000000000000, 0.0000000000000000000 ) ) ;
#164 = APPROVAL_STATUS ( 'not_yet_approved' ) ;
#165 = CARTESIAN_POINT ( 'NONE',  ( 0.0000000000000000000, 0.0000000000000000000, 0.0000000000000000000 ) ) ;
#166 = CALENDAR_DATE ( 2021, 2, 12 ) ;
#167 = CC_DESIGN_PERSON_AND_ORGANIZATION_ASSIGNMENT ( #36, #233, ( #13 ) ) ;
#168 = VERTEX_POINT ( 'NONE', #196 ) ;
#169 = AXIS2_PLACEMENT_3D ( 'NONE', #189, #115, #187 ) ;
#170 = AXIS2_PLACEMENT_3D ( 'NONE', #302, #110, #163 ) ;
#171 = ADVANCED_FACE ( 'NONE', ( #143, #159 ), #45, .T. ) ;
#172 = PERSON_AND_ORGANIZATION ( #68, #278 ) ;
#173 = CARTESIAN_POINT ( 'NONE',  ( 2.433562493173664138E-13, 1.499999999999992673, 69.70000000000001705 ) ) ;
#174 = EDGE_LOOP ( 'NONE', ( #292 ) ) ;
#175 = DIRECTION ( 'NONE',  ( 4.275831445896958607E-31, 1.000000000000000000, 1.224646799147353207E-16 ) ) ;
#176 = CARTESIAN_POINT ( 'NONE',  ( 2.433562493173664138E-13, -8.535788190057053710E-15, 69.70000000000001705 ) ) ;
#177 = ORIENTED_EDGE ( 'NONE', *, *, #46, .T. ) ;
#178 = CC_DESIGN_APPROVAL ( #88, ( #162 ) ) ;
#179 = PERSON_AND_ORGANIZATION ( #68, #278 ) ;
#180 = EDGE_LOOP ( 'NONE', ( #247 ) ) ;
#181 = CC_DESIGN_PERSON_AND_ORGANIZATION_ASSIGNMENT ( #172, #22, ( #13 ) ) ;
#182 = EDGE_LOOP ( 'NONE', ( #60 ) ) ;
#183 = PLANE ( 'NONE',  #24 ) ;
#184 = CONICAL_SURFACE ( 'NONE', #220, 1.704999999999994964, 0.5235987755983010361 ) ;
#185 = AXIS2_PLACEMENT_3D ( 'NONE', #93, #252, #277 ) ;
#186 = FACE_OUTER_BOUND ( 'NONE', #105, .T. ) ;
#187 = DIRECTION ( 'NONE',  ( 4.275831445896958607E-31, 1.000000000000000000, 1.224646799147353454E-16 ) ) ;
#188 = ADVANCED_FACE ( 'NONE', ( #190, #90 ), #42, .T. ) ;
#189 = CARTESIAN_POINT ( 'NONE',  ( 0.0000000000000000000, 0.0000000000000000000, 0.0000000000000000000 ) ) ;
#190 = FACE_OUTER_BOUND ( 'NONE', #206, .T. ) ;
#191 = SECURITY_CLASSIFICATION ( '', '', #280 ) ;
#192 = SHAPE_DEFINITION_REPRESENTATION ( #49, #244 ) ;
#193 = DIRECTION ( 'NONE',  ( -3.491481338843133355E-15, 1.224646799147353207E-16, -1.000000000000000000 ) ) ;
#194 = DATE_AND_TIME ( #166, #240 ) ;
#195 = LOCAL_TIME ( 10, 35, 37.00000000000000000, #99 ) ;
#196 = CARTESIAN_POINT ( 'NONE',  ( 3.491481338843133355E-14, 1.704999999999993632, 10.00000000000000000 ) ) ;
#197 = CIRCLE ( 'NONE', #245, 1.499999999999992895 ) ;
#198 = DATE_TIME_ROLE ( 'creation_date' ) ;
#199 = ORIENTED_EDGE ( 'NONE', *, *, #218, .F. ) ;
#200 = CONICAL_SURFACE ( 'NONE', #63, 1.704999999999994964, 0.5235987755983010361 ) ;
#201 = FACE_OUTER_BOUND ( 'NONE', #37, .T. ) ;
#202 = FACE_OUTER_BOUND ( 'NONE', #225, .T. ) ;
#203 = APPROVAL ( #164, 'UNSPECIFIED' ) ;
#204 = APPROVAL_PERSON_ORGANIZATION ( #288, #276, #38 ) ;
#205 = CARTESIAN_POINT ( 'NONE',  ( 0.0000000000000000000, 0.0000000000000000000, 0.0000000000000000000 ) ) ;
#206 = EDGE_LOOP ( 'NONE', ( #127 ) ) ;
#207 = MANIFOLD_SOLID_BREP ( 'Corps-Déplacer/Copier1[2]', #148 ) ;
#208 = MANIFOLD_SOLID_BREP ( 'Corps-Déplacer/Copier1[1]', #119 ) ;
#209 = PLANE ( 'NONE',  #27 ) ;
#210 = DIRECTION ( 'NONE',  ( -3.491481338843133355E-15, 1.224646799147353207E-16, -1.000000000000000000 ) ) ;
#211 = CIRCLE ( 'NONE', #112, 1.704999999999994964 ) ;
#212 = CONICAL_SURFACE ( 'NONE', #103, 1.200000000000001510, 0.7853981633974566057 ) ;
#213 = PLANE ( 'NONE',  #257 ) ;
#214 = DIRECTION ( 'NONE',  ( -3.491481338843133355E-15, 1.224646799147353207E-16, -1.000000000000000000 ) ) ;
#215 = DIRECTION ( 'NONE',  ( 4.275831445896958607E-31, 1.000000000000000000, 1.224646799147353207E-16 ) ) ;
#216 = PRODUCT_RELATED_PRODUCT_CATEGORY ( 'detail', '', ( #72 ) ) ;
#217 = DIRECTION ( 'NONE',  ( -3.491481338843133355E-15, 1.224646799147353207E-16, -1.000000000000000000 ) ) ;
#218 = EDGE_CURVE ( 'NONE', #234, #234, #235, .T. ) ;
#219 = EDGE_LOOP ( 'NONE', ( #177 ) ) ;
#220 = AXIS2_PLACEMENT_3D ( 'NONE', #152, #84, #55 ) ;
#221 = ORIENTED_EDGE ( 'NONE', *, *, #273, .T. ) ;
#222 = AXIS2_PLACEMENT_3D ( 'NONE', #176, #12, #265 ) ;
#223 = ORIENTED_EDGE ( 'NONE', *, *, #269, .F. ) ;
#224 = DIRECTION ( 'NONE',  ( 4.275831445896958607E-31, 1.000000000000000000, 1.224646799147353207E-16 ) ) ;
#225 = EDGE_LOOP ( 'NONE', ( #34 ) ) ;
#226 = FACE_BOUND ( 'NONE', #290, .T. ) ;
#227 = EDGE_CURVE ( 'NONE', #50, #50, #295, .T. ) ;
#228 = FACE_OUTER_BOUND ( 'NONE', #14, .T. ) ;
#229 = FACE_OUTER_BOUND ( 'NONE', #270, .T. ) ;
#230 = CARTESIAN_POINT ( 'NONE',  ( 2.444036937190193601E-13, -8.572527594031472993E-15, 70.00000000000000000 ) ) ;
#231 = APPROVAL_DATE_TIME ( #194, #203 ) ;
#232 = DIRECTION ( 'NONE',  ( 4.275831445896958607E-31, 1.000000000000000000, 1.224646799147353207E-16 ) ) ;
#233 = PERSON_AND_ORGANIZATION_ROLE ( 'creator' ) ;
#234 = VERTEX_POINT ( 'NONE', #173 ) ;
#235 = CIRCLE ( 'NONE', #239, 1.500000000000001110 ) ;
#236 = AXIS2_PLACEMENT_3D ( 'NONE', #246, #104, #175 ) ;
#237 = CC_DESIGN_DATE_AND_TIME_ASSIGNMENT ( #131, #198, ( #162 ) ) ;
#238 = DATE_AND_TIME ( #150, #195 ) ;
#239 = AXIS2_PLACEMENT_3D ( 'NONE', #23, #21, #116 ) ;
#240 = LOCAL_TIME ( 10, 35, 37.00000000000000000, #120 ) ;
#241 =( NAMED_UNIT ( * ) PLANE_ANGLE_UNIT ( ) SI_UNIT ( $, .RADIAN. ) );
#242 = FACE_OUTER_BOUND ( 'NONE', #106, .T. ) ;
#243 = EDGE_LOOP ( 'NONE', ( #199 ) ) ;
#244 = ADVANCED_BREP_SHAPE_REPRESENTATION ( '321567', ( #208, #207, #31 ), #259 ) ;
#245 = AXIS2_PLACEMENT_3D ( 'NONE', #161, #66, #299 ) ;
#246 = CARTESIAN_POINT ( 'NONE',  ( -3.110667376890024604E-31, 1.091075241886496921E-32, -8.909305463796958214E-17 ) ) ;
#247 = ORIENTED_EDGE ( 'NONE', *, *, #218, .T. ) ;
#248 = ADVANCED_FACE ( 'NONE', ( #229 ), #183, .F. ) ;
#249 = DIRECTION ( 'NONE',  ( 0.0000000000000000000, 1.000000000000000000, 0.0000000000000000000 ) ) ;
#250 = CARTESIAN_POINT ( 'NONE',  ( 3.491481338843133355E-14, -1.224646799147353256E-15, 10.00000000000000000 ) ) ;
#251 = CARTESIAN_POINT ( 'NONE',  ( 0.0000000000000000000, 0.0000000000000000000, 0.0000000000000000000 ) ) ;
#252 = DIRECTION ( 'NONE',  ( -3.491481338843133355E-15, 1.224646799147353207E-16, -1.000000000000000000 ) ) ;
#253 = AXIS2_PLACEMENT_3D ( 'NONE', #141, #217, #300 ) ;
#254 = FACE_BOUND ( 'NONE', #11, .T. ) ;
#255 = CC_DESIGN_DATE_AND_TIME_ASSIGNMENT ( #238, #285, ( #191 ) ) ;
#256 = CARTESIAN_POINT ( 'NONE',  ( 2.444036937190193601E-13, -8.572527594031472993E-15, 70.00000000000000000 ) ) ;
#257 = AXIS2_PLACEMENT_3D ( 'NONE', #114, #139, #17 ) ;
#258 =( NAMED_UNIT ( * ) SI_UNIT ( $, .STERADIAN. ) SOLID_ANGLE_UNIT ( ) );
#259 =( GEOMETRIC_REPRESENTATION_CONTEXT ( 3 ) GLOBAL_UNCERTAINTY_ASSIGNED_CONTEXT ( ( #92 ) ) GLOBAL_UNIT_ASSIGNED_CONTEXT ( ( #75, #241, #258 ) ) REPRESENTATION_CONTEXT ( 'NONE', 'WORKASPACE' ) );
#260 = EDGE_CURVE ( 'NONE', #168, #168, #142, .T. ) ;
#261 = CARTESIAN_POINT ( 'NONE',  ( 3.615453511830509770E-14, 1.499999999999991562, 10.35507041555162111 ) ) ;
#262 = AXIS2_PLACEMENT_3D ( 'NONE', #165, #85, #215 ) ;
#263 = EDGE_CURVE ( 'NONE', #2, #2, #197, .T. ) ;
#264 = PERSON_AND_ORGANIZATION_ROLE ( 'design_owner' ) ;
#265 = DIRECTION ( 'NONE',  ( 0.0000000000000000000, 1.000000000000000000, 0.0000000000000000000 ) ) ;
#266 = CARTESIAN_POINT ( 'NONE',  ( 2.444036937190193601E-13, -8.572527594031472993E-15, 70.00000000000000000 ) ) ;
#267 = CONICAL_SURFACE ( 'NONE', #170, 1.200000000000001510, 0.7853981633974566057 ) ;
#268 = CALENDAR_DATE ( 2021, 2, 12 ) ;
#269 = EDGE_CURVE ( 'NONE', #26, #26, #98, .T. ) ;
#270 = EDGE_LOOP ( 'NONE', ( #9 ) ) ;
#271 = ORIENTED_EDGE ( 'NONE', *, *, #297, .T. ) ;
#272 = CARTESIAN_POINT ( 'NONE',  ( 3.615453511830509770E-14, -1.268130383935074745E-15, 10.35507041555162111 ) ) ;
#273 = EDGE_CURVE ( 'NONE', #3, #3, #53, .T. ) ;
#274 = DIRECTION ( 'NONE',  ( 3.491481338843133355E-15, -1.224646799147353207E-16, 1.000000000000000000 ) ) ;
#275 = CARTESIAN_POINT ( 'NONE',  ( 2.444036937190193601E-13, 8.998558695971026591E-33, 70.00000000000000000 ) ) ;
#276 = APPROVAL ( #140, 'UNSPECIFIED' ) ;
#277 = DIRECTION ( 'NONE',  ( 4.275831445896959482E-31, 1.000000000000000000, 1.224646799147353207E-16 ) ) ;
#278 = ORGANIZATION ( 'UNSPECIFIED', 'UNSPECIFIED', '' ) ;
#279 = FACE_OUTER_BOUND ( 'NONE', #298, .T. ) ;
#280 = SECURITY_CLASSIFICATION_LEVEL ( 'unclassified' ) ;
#281 = EDGE_CURVE ( 'NONE', #123, #123, #82, .T. ) ;
#282 = CARTESIAN_POINT ( 'NONE',  ( 2.444036937190193601E-13, 1.199999999999992628, 70.00000000000000000 ) ) ;
#283 = LOCAL_TIME ( 10, 35, 37.00000000000000000, #8 ) ;
#284 = ADVANCED_FACE ( 'NONE', ( #138, #226 ), #267, .T. ) ;
#285 = DATE_TIME_ROLE ( 'classification_date' ) ;
#286 = PERSON_AND_ORGANIZATION ( #68, #278 ) ;
#287 = DIRECTION ( 'NONE',  ( 0.0000000000000000000, 0.0000000000000000000, 1.000000000000000000 ) ) ;
#288 = PERSON_AND_ORGANIZATION ( #68, #278 ) ;
#289 = APPROVAL_ROLE ( '' ) ;
#290 = EDGE_LOOP ( 'NONE', ( #83 ) ) ;
#291 = COORDINATED_UNIVERSAL_TIME_OFFSET ( 1, 0, .AHEAD. ) ;
#292 = ORIENTED_EDGE ( 'NONE', *, *, #227, .F. ) ;
#293 = ADVANCED_FACE ( 'NONE', ( #186, #254 ), #128, .T. ) ;
#294 = ORIENTED_EDGE ( 'NONE', *, *, #269, .T. ) ;
#295 = CIRCLE ( 'NONE', #253, 1.704999999999994964 ) ;
#296 = FACE_OUTER_BOUND ( 'NONE', #182, .T. ) ;
#297 = EDGE_CURVE ( 'NONE', #28, #28, #122, .T. ) ;
#298 = EDGE_LOOP ( 'NONE', ( #76 ) ) ;
#299 = DIRECTION ( 'NONE',  ( 0.0000000000000000000, 1.000000000000000000, 0.0000000000000000000 ) ) ;
#300 = DIRECTION ( 'NONE',  ( 4.518310719970067852E-31, 1.000000000000000000, 1.271791404675082193E-16 ) ) ;
#301 = COORDINATED_UNIVERSAL_TIME_OFFSET ( 1, 0, .AHEAD. ) ;
#302 = CARTESIAN_POINT ( 'NONE',  ( 2.444036937190193601E-13, -8.572527594031472993E-15, 70.00000000000000000 ) ) ;
#303 = DIRECTION ( 'NONE',  ( 0.0000000000000000000, 1.000000000000000000, 0.0000000000000000000 ) ) ;
ENDSEC;
END-ISO-10303-21;
