ISO-10303-21;
HEADER;
FILE_DESCRIPTION (( 'STEP AP203' ),
    '1' );
FILE_NAME ('321566.step',
    '2021-12-02T09:35:36',
    ( '' ),
    ( '' ),
    'SwSTEP 2.0',
    'SolidWorks 2019',
    '' );
FILE_SCHEMA (( 'CONFIG_CONTROL_DESIGN' ));
ENDSEC;

DATA;
#1 = COORDINATED_UNIVERSAL_TIME_OFFSET ( 1, 0, .AHEAD. ) ;
#2 = EDGE_CURVE ( 'NONE', #182, #182, #205, .T. ) ;
#3 = DIRECTION ( 'NONE',  ( -3.491481338843133355E-15, 1.224646799147353207E-16, -1.000000000000000000 ) ) ;
#4 = CALENDAR_DATE ( 2021, 2, 12 ) ;
#5 = FACE_BOUND ( 'NONE', #223, .T. ) ;
#6 = AXIS2_PLACEMENT_3D ( 'NONE', #261, #111, #184 ) ;
#7 = DIRECTION ( 'NONE',  ( 0.0000000000000000000, 1.000000000000000000, 0.0000000000000000000 ) ) ;
#8 = CARTESIAN_POINT ( 'NONE',  ( 3.612429800294232266E-14, -1.267069808696349701E-15, 10.34641016151377890 ) ) ;
#9 = DIRECTION ( 'NONE',  ( -3.491481338843133355E-15, 1.224646799147353207E-16, -1.000000000000000000 ) ) ;
#10 = APPLICATION_PROTOCOL_DEFINITION ( 'international standard', 'config_control_design', 1994, #22 ) ;
#11 = DIRECTION ( 'NONE',  ( -3.491481338843133355E-15, 1.224646799147353207E-16, -1.000000000000000000 ) ) ;
#12 = DIRECTION ( 'NONE',  ( 0.0000000000000000000, 1.000000000000000000, 0.0000000000000000000 ) ) ;
#13 = DIRECTION ( 'NONE',  ( -3.491481338843133355E-15, 1.224646799147353207E-16, -1.000000000000000000 ) ) ;
#14 = VERTEX_POINT ( 'NONE', #162 ) ;
#15 = AXIS2_PLACEMENT_3D ( 'NONE', #28, #78, #280 ) ;
#16 = APPROVAL ( #100, 'UNSPECIFIED' ) ;
#17 = DIRECTION ( 'NONE',  ( 0.0000000000000000000, 1.000000000000000000, 0.0000000000000000000 ) ) ;
#18 = CONICAL_SURFACE ( 'NONE', #269, 1.699999999999995071, 0.5235987755983003700 ) ;
#19 = DATE_AND_TIME ( #91, #26 ) ;
#20 = APPLICATION_PROTOCOL_DEFINITION ( 'international standard', 'config_control_design', 1994, #279 ) ;
#21 = APPROVAL_PERSON_ORGANIZATION ( #171, #16, #77 ) ;
#22 = APPLICATION_CONTEXT ( 'configuration controlled 3d designs of mechanical parts and assemblies' ) ;
#23 = AXIS2_PLACEMENT_3D ( 'NONE', #34, #230, #216 ) ;
#24 = ORIENTED_EDGE ( 'NONE', *, *, #71, .T. ) ;
#25 = EDGE_LOOP ( 'NONE', ( #300 ) ) ;
#26 = LOCAL_TIME ( 10, 35, 36.00000000000000000, #143 ) ;
#27 = APPROVAL ( #290, 'UNSPECIFIED' ) ;
#28 = CARTESIAN_POINT ( 'NONE',  ( 2.433562493173664138E-13, -8.535788190057053710E-15, 69.70000000000001705 ) ) ;
#29 = DIRECTION ( 'NONE',  ( 0.0000000000000000000, 1.000000000000000000, 0.0000000000000000000 ) ) ;
#30 = CARTESIAN_POINT ( 'NONE',  ( 3.491481338843133355E-14, -1.224646799147353256E-15, 10.00000000000000000 ) ) ;
#31 = PRODUCT_RELATED_PRODUCT_CATEGORY ( 'detail', '', ( #130 ) ) ;
#32 = CONICAL_SURFACE ( 'NONE', #220, 1.200000000000001510, 0.7853981633974566057 ) ;
#33 = DATE_AND_TIME ( #235, #263 ) ;
#34 = CARTESIAN_POINT ( 'NONE',  ( -6.199955596550565369E-31, 2.174651684859685047E-32, -1.775737858763655014E-16 ) ) ;
#35 = AXIS2_PLACEMENT_3D ( 'NONE', #151, #288, #36 ) ;
#36 = DIRECTION ( 'NONE',  ( 0.0000000000000000000, 1.000000000000000000, 0.0000000000000000000 ) ) ;
#37 = VERTEX_POINT ( 'NONE', #219 ) ;
#38 = EDGE_CURVE ( 'NONE', #245, #245, #161, .T. ) ;
#39 = FACE_OUTER_BOUND ( 'NONE', #142, .T. ) ;
#40 = APPROVAL ( #128, 'UNSPECIFIED' ) ;
#41 = COORDINATED_UNIVERSAL_TIME_OFFSET ( 1, 0, .AHEAD. ) ;
#42 = DIRECTION ( 'NONE',  ( -3.491481338843133355E-15, 1.224646799147353207E-16, -1.000000000000000000 ) ) ;
#43 =( GEOMETRIC_REPRESENTATION_CONTEXT ( 3 ) GLOBAL_UNCERTAINTY_ASSIGNED_CONTEXT ( ( #249 ) ) GLOBAL_UNIT_ASSIGNED_CONTEXT ( ( #275, #188, #185 ) ) REPRESENTATION_CONTEXT ( 'NONE', 'WORKASPACE' ) );
#44 = APPROVAL_DATE_TIME ( #19, #27 ) ;
#45 = CARTESIAN_POINT ( 'NONE',  ( 0.0000000000000000000, 1.449999999999994182, 0.0000000000000000000 ) ) ;
#46 = ORIENTED_EDGE ( 'NONE', *, *, #59, .T. ) ;
#47 = ADVANCED_FACE ( 'NONE', ( #154, #256 ), #284, .T. ) ;
#48 = EDGE_LOOP ( 'NONE', ( #24 ) ) ;
#49 = DIRECTION ( 'NONE',  ( 0.0000000000000000000, 1.000000000000000000, 0.0000000000000000000 ) ) ;
#50 = APPROVAL_PERSON_ORGANIZATION ( #174, #40, #150 ) ;
#51 = PERSON_AND_ORGANIZATION_ROLE ( 'classification_officer' ) ;
#52 = FACE_BOUND ( 'NONE', #98, .T. ) ;
#53 = APPROVAL_DATE_TIME ( #211, #40 ) ;
#54 = DIRECTION ( 'NONE',  ( 0.0000000000000000000, 1.000000000000000000, 0.0000000000000000000 ) ) ;
#55 = PRODUCT_DEFINITION ( 'UNKNOWN', '', #281, #93 ) ;
#56 = DIRECTION ( 'NONE',  ( 4.275831445896958607E-31, 1.000000000000000000, 1.224646799147353207E-16 ) ) ;
#57 = DIRECTION ( 'NONE',  ( -3.491481338843133355E-15, 1.224646799147353207E-16, -1.000000000000000000 ) ) ;
#58 = CARTESIAN_POINT ( 'NONE',  ( 8.728703347107835360E-16, 1.699999999999995071, 0.2500000000000000555 ) ) ;
#59 = EDGE_CURVE ( 'NONE', #63, #63, #168, .T. ) ;
#60 = CARTESIAN_POINT ( 'NONE',  ( 2.444036937190193601E-13, -8.572527594031472993E-15, 70.00000000000000000 ) ) ;
#61 = LOCAL_TIME ( 10, 35, 36.00000000000000000, #233 ) ;
#62 = MECHANICAL_CONTEXT ( 'NONE', #279, 'mechanical' ) ;
#63 = VERTEX_POINT ( 'NONE', #266 ) ;
#64 = DIRECTION ( 'NONE',  ( -3.491481338843133355E-15, 1.224646799147353207E-16, -1.000000000000000000 ) ) ;
#65 = CC_DESIGN_APPROVAL ( #27, ( #55 ) ) ;
#66 = LOCAL_TIME ( 10, 35, 36.00000000000000000, #1 ) ;
#67 = EDGE_LOOP ( 'NONE', ( #278 ) ) ;
#68 = EDGE_LOOP ( 'NONE', ( #122 ) ) ;
#69 = CIRCLE ( 'NONE', #246, 1.200000000000001510 ) ;
#70 = ORIENTED_EDGE ( 'NONE', *, *, #208, .F. ) ;
#71 = EDGE_CURVE ( 'NONE', #135, #135, #194, .T. ) ;
#72 = ORIENTED_EDGE ( 'NONE', *, *, #38, .F. ) ;
#73 = DATE_AND_TIME ( #213, #61 ) ;
#74 = PERSON_AND_ORGANIZATION ( #146, #108 ) ;
#75 = FACE_OUTER_BOUND ( 'NONE', #147, .T. ) ;
#76 = AXIS2_PLACEMENT_3D ( 'NONE', #112, #64, #160 ) ;
#77 = APPROVAL_ROLE ( '' ) ;
#78 = DIRECTION ( 'NONE',  ( -3.491481338843133355E-15, 1.224646799147353207E-16, -1.000000000000000000 ) ) ;
#79 = DATE_TIME_ROLE ( 'creation_date' ) ;
#80 = CARTESIAN_POINT ( 'NONE',  ( 3.491481338843133355E-14, -1.224646799147353256E-15, 10.00000000000000000 ) ) ;
#81 = CARTESIAN_POINT ( 'NONE',  ( 2.444036937190193601E-13, -8.572527594031472993E-15, 70.00000000000000000 ) ) ;
#82 = APPROVAL_PERSON_ORGANIZATION ( #198, #27, #291 ) ;
#83 = FACE_OUTER_BOUND ( 'NONE', #68, .T. ) ;
#84 = ADVANCED_FACE ( 'NONE', ( #52, #83 ), #18, .T. ) ;
#85 = DIRECTION ( 'NONE',  ( 4.275831445896958607E-31, 1.000000000000000000, 1.224646799147353454E-16 ) ) ;
#86 = AXIS2_PLACEMENT_3D ( 'NONE', #289, #191, #49 ) ;
#87 = DIRECTION ( 'NONE',  ( 4.531599869146450542E-31, 1.000000000000000000, 1.275531967630008943E-16 ) ) ;
#88 = CARTESIAN_POINT ( 'NONE',  ( 3.491481338843133355E-14, 1.699999999999993738, 10.00000000000000000 ) ) ;
#89 = AXIS2_PLACEMENT_3D ( 'NONE', #8, #103, #29 ) ;
#90 = EDGE_CURVE ( 'NONE', #14, #14, #277, .T. ) ;
#91 = CALENDAR_DATE ( 2021, 2, 12 ) ;
#92 = PERSON_AND_ORGANIZATION_ROLE ( 'creator' ) ;
#93 = DESIGN_CONTEXT ( 'detailed design', #22, 'design' ) ;
#94 = EDGE_LOOP ( 'NONE', ( #252 ) ) ;
#95 = CC_DESIGN_DATE_AND_TIME_ASSIGNMENT ( #73, #169, ( #165 ) ) ;
#96 = ORIENTED_EDGE ( 'NONE', *, *, #90, .T. ) ;
#97 = CC_DESIGN_APPROVAL ( #16, ( #281 ) ) ;
#98 = EDGE_LOOP ( 'NONE', ( #117 ) ) ;
#99 = FACE_OUTER_BOUND ( 'NONE', #302, .T. ) ;
#100 = APPROVAL_STATUS ( 'not_yet_approved' ) ;
#101 = FACE_BOUND ( 'NONE', #118, .T. ) ;
#102 = AXIS2_PLACEMENT_3D ( 'NONE', #133, #124, #217 ) ;
#103 = DIRECTION ( 'NONE',  ( -3.491481338843133355E-15, 1.224646799147353207E-16, -1.000000000000000000 ) ) ;
#104 = PRODUCT_DEFINITION_SHAPE ( 'NONE', 'NONE',  #55 ) ;
#105 = FACE_OUTER_BOUND ( 'NONE', #167, .T. ) ;
#106 = EDGE_CURVE ( 'NONE', #113, #113, #172, .T. ) ;
#107 = DIRECTION ( 'NONE',  ( 0.0000000000000000000, 1.000000000000000000, 0.0000000000000000000 ) ) ;
#108 = ORGANIZATION ( 'UNSPECIFIED', 'UNSPECIFIED', '' ) ;
#109 = FACE_OUTER_BOUND ( 'NONE', #25, .T. ) ;
#110 = CLOSED_SHELL ( 'NONE', ( #272, #132, #47, #228, #183, #159, #244 ) ) ;
#111 = DIRECTION ( 'NONE',  ( -3.491481338843133355E-15, 1.224646799147353207E-16, -1.000000000000000000 ) ) ;
#112 = CARTESIAN_POINT ( 'NONE',  ( -6.199955596550565369E-31, 2.174651684859685047E-32, -1.775737858763655014E-16 ) ) ;
#113 = VERTEX_POINT ( 'NONE', #139 ) ;
#114 = ADVANCED_FACE ( 'NONE', ( #254 ), #193, .F. ) ;
#115 = EDGE_LOOP ( 'NONE', ( #186 ) ) ;
#116 = CIRCLE ( 'NONE', #15, 1.500000000000001110 ) ;
#117 = ORIENTED_EDGE ( 'NONE', *, *, #106, .T. ) ;
#118 = EDGE_LOOP ( 'NONE', ( #271 ) ) ;
#119 = DIRECTION ( 'NONE',  ( 0.0000000000000000000, 0.0000000000000000000, 1.000000000000000000 ) ) ;
#120 = EDGE_LOOP ( 'NONE', ( #273 ) ) ;
#121 = AXIS2_PLACEMENT_3D ( 'NONE', #163, #13, #85 ) ;
#122 = ORIENTED_EDGE ( 'NONE', *, *, #2, .F. ) ;
#123 = DATE_AND_TIME ( #4, #297 ) ;
#124 = DIRECTION ( 'NONE',  ( -3.491481338843133355E-15, 1.224646799147353207E-16, -1.000000000000000000 ) ) ;
#125 = SECURITY_CLASSIFICATION_LEVEL ( 'unclassified' ) ;
#126 = CC_DESIGN_PERSON_AND_ORGANIZATION_ASSIGNMENT ( #282, #287, ( #281 ) ) ;
#127 = DIRECTION ( 'NONE',  ( 4.275831445896958607E-31, 1.000000000000000000, 1.224646799147353207E-16 ) ) ;
#128 = APPROVAL_STATUS ( 'not_yet_approved' ) ;
#129 = FACE_OUTER_BOUND ( 'NONE', #227, .T. ) ;
#130 = PRODUCT ( '321566', '321566', '', ( #62 ) ) ;
#131 = DIRECTION ( 'NONE',  ( 0.0000000000000000000, 1.000000000000000000, 0.0000000000000000000 ) ) ;
#132 = ADVANCED_FACE ( 'NONE', ( #214, #99 ), #173, .T. ) ;
#133 = CARTESIAN_POINT ( 'NONE',  ( 2.444036937190193601E-13, -8.572527594031472993E-15, 70.00000000000000000 ) ) ;
#134 = PERSON_AND_ORGANIZATION_ROLE ( 'design_owner' ) ;
#135 = VERTEX_POINT ( 'NONE', #140 ) ;
#136 = AXIS2_PLACEMENT_3D ( 'NONE', #175, #197, #127 ) ;
#137 = CYLINDRICAL_SURFACE ( 'NONE', #148, 1.499999999999996891 ) ;
#138 = PERSON_AND_ORGANIZATION ( #146, #108 ) ;
#139 = CARTESIAN_POINT ( 'NONE',  ( 3.612429800294232266E-14, 1.499999999999991562, 10.34641016151377890 ) ) ;
#140 = CARTESIAN_POINT ( 'NONE',  ( 3.491481338843133355E-14, 1.699999999999993738, 10.00000000000000000 ) ) ;
#141 = ADVANCED_FACE ( 'NONE', ( #152, #5 ), #262, .T. ) ;
#142 = EDGE_LOOP ( 'NONE', ( #46 ) ) ;
#143 = COORDINATED_UNIVERSAL_TIME_OFFSET ( 1, 0, .AHEAD. ) ;
#144 = AXIS2_PLACEMENT_3D ( 'NONE', #258, #153, #236 ) ;
#145 = CARTESIAN_POINT ( 'NONE',  ( 0.0000000000000000000, 0.0000000000000000000, 0.0000000000000000000 ) ) ;
#146 = PERSON ( 'UNSPECIFIED', 'UNSPECIFIED', 'UNSPECIFIED', ('UNSPECIFIED'), ('UNSPECIFIED'), ('UNSPECIFIED') ) ;
#147 = EDGE_LOOP ( 'NONE', ( #276 ) ) ;
#148 = AXIS2_PLACEMENT_3D ( 'NONE', #199, #201, #242 ) ;
#149 = CARTESIAN_POINT ( 'NONE',  ( 2.444036937190193601E-13, -8.572527594031472993E-15, 70.00000000000000000 ) ) ;
#150 = APPROVAL_ROLE ( '' ) ;
#151 = CARTESIAN_POINT ( 'NONE',  ( 3.491481338843133355E-14, -1.224646799147353256E-15, 10.00000000000000000 ) ) ;
#152 = FACE_OUTER_BOUND ( 'NONE', #251, .T. ) ;
#153 = DIRECTION ( 'NONE',  ( 3.491481338843133355E-15, -1.224646799147353207E-16, 1.000000000000000000 ) ) ;
#154 = FACE_OUTER_BOUND ( 'NONE', #166, .T. ) ;
#155 = CLOSED_SHELL ( 'NONE', ( #200, #84, #286, #141, #114 ) ) ;
#156 = FACE_OUTER_BOUND ( 'NONE', #67, .T. ) ;
#157 = CIRCLE ( 'NONE', #189, 1.699999999999995071 ) ;
#158 = MANIFOLD_SOLID_BREP ( 'Corps-Déplacer/Copier1[2]', #110 ) ;
#159 = ADVANCED_FACE ( 'NONE', ( #105, #101 ), #32, .T. ) ;
#160 = DIRECTION ( 'NONE',  ( 4.275831445896958607E-31, 1.000000000000000000, 1.224646799147353207E-16 ) ) ;
#161 = CIRCLE ( 'NONE', #187, 1.499999999999992895 ) ;
#162 = CARTESIAN_POINT ( 'NONE',  ( 2.444036937190193601E-13, 1.199999999999992628, 70.00000000000000000 ) ) ;
#163 = CARTESIAN_POINT ( 'NONE',  ( 0.0000000000000000000, 0.0000000000000000000, 0.0000000000000000000 ) ) ;
#164 = AXIS2_PLACEMENT_3D ( 'NONE', #145, #119, #264 ) ;
#165 = SECURITY_CLASSIFICATION ( '', '', #125 ) ;
#166 = EDGE_LOOP ( 'NONE', ( #190 ) ) ;
#167 = EDGE_LOOP ( 'NONE', ( #206 ) ) ;
#168 = CIRCLE ( 'NONE', #176, 1.500000000000001110 ) ;
#169 = DATE_TIME_ROLE ( 'classification_date' ) ;
#170 = CC_DESIGN_PERSON_AND_ORGANIZATION_ASSIGNMENT ( #138, #134, ( #130 ) ) ;
#171 = PERSON_AND_ORGANIZATION ( #146, #108 ) ;
#172 = CIRCLE ( 'NONE', #89, 1.499999999999992895 ) ;
#173 = CYLINDRICAL_SURFACE ( 'NONE', #225, 1.699999999999995071 ) ;
#174 = PERSON_AND_ORGANIZATION ( #146, #108 ) ;
#175 = CARTESIAN_POINT ( 'NONE',  ( 2.444036937190193601E-13, 8.998558695971026591E-33, 70.00000000000000000 ) ) ;
#176 = AXIS2_PLACEMENT_3D ( 'NONE', #215, #237, #54 ) ;
#177 = PLANE ( 'NONE',  #144 ) ;
#178 = CARTESIAN_POINT ( 'NONE',  ( 8.728703347107827472E-16, -3.061616997868381169E-17, 0.2499999999999998335 ) ) ;
#179 = CARTESIAN_POINT ( 'NONE',  ( 2.433562493173664138E-13, 1.499999999999992673, 69.70000000000001705 ) ) ;
#180 = EDGE_CURVE ( 'NONE', #295, #295, #116, .T. ) ;
#181 = FACE_OUTER_BOUND ( 'NONE', #120, .T. ) ;
#182 = VERTEX_POINT ( 'NONE', #88 ) ;
#183 = ADVANCED_FACE ( 'NONE', ( #129 ), #196, .F. ) ;
#184 = DIRECTION ( 'NONE',  ( 4.275831445896958607E-31, 1.000000000000000000, 1.224646799147353207E-16 ) ) ;
#185 =( NAMED_UNIT ( * ) SI_UNIT ( $, .STERADIAN. ) SOLID_ANGLE_UNIT ( ) );
#186 = ORIENTED_EDGE ( 'NONE', *, *, #71, .F. ) ;
#187 = AXIS2_PLACEMENT_3D ( 'NONE', #234, #9, #107 ) ;
#188 =( NAMED_UNIT ( * ) PLANE_ANGLE_UNIT ( ) SI_UNIT ( $, .RADIAN. ) );
#189 = AXIS2_PLACEMENT_3D ( 'NONE', #178, #11, #87 ) ;
#190 = ORIENTED_EDGE ( 'NONE', *, *, #208, .T. ) ;
#191 = DIRECTION ( 'NONE',  ( -3.491481338843133355E-15, 1.224646799147353207E-16, -1.000000000000000000 ) ) ;
#192 = DIRECTION ( 'NONE',  ( -3.491481338843133355E-15, 1.224646799147353207E-16, -1.000000000000000000 ) ) ;
#193 = PLANE ( 'NONE',  #136 ) ;
#194 = CIRCLE ( 'NONE', #35, 1.699999999999995071 ) ;
#195 = PERSON_AND_ORGANIZATION_ROLE ( 'creator' ) ;
#196 = PLANE ( 'NONE',  #203 ) ;
#197 = DIRECTION ( 'NONE',  ( -3.491481338843133355E-15, 1.224646799147353207E-16, -1.000000000000000000 ) ) ;
#198 = PERSON_AND_ORGANIZATION ( #146, #108 ) ;
#199 = CARTESIAN_POINT ( 'NONE',  ( 0.0000000000000000000, 0.0000000000000000000, 0.0000000000000000000 ) ) ;
#200 = ADVANCED_FACE ( 'NONE', ( #75 ), #177, .F. ) ;
#201 = DIRECTION ( 'NONE',  ( -3.491481338843133355E-15, 1.224646799147353207E-16, -1.000000000000000000 ) ) ;
#202 = ORIENTED_EDGE ( 'NONE', *, *, #38, .T. ) ;
#203 = AXIS2_PLACEMENT_3D ( 'NONE', #81, #3, #56 ) ;
#204 = ORIENTED_EDGE ( 'NONE', *, *, #180, .F. ) ;
#205 = CIRCLE ( 'NONE', #270, 1.699999999999995071 ) ;
#206 = ORIENTED_EDGE ( 'NONE', *, *, #59, .F. ) ;
#207 = ORIENTED_EDGE ( 'NONE', *, *, #224, .F. ) ;
#208 = EDGE_CURVE ( 'NONE', #260, #260, #157, .T. ) ;
#209 = AXIS2_PLACEMENT_3D ( 'NONE', #293, #243, #17 ) ;
#210 = ORIENTED_EDGE ( 'NONE', *, *, #250, .F. ) ;
#211 = DATE_AND_TIME ( #257, #66 ) ;
#212 = DIRECTION ( 'NONE',  ( 4.275831445896958607E-31, 1.000000000000000000, 1.224646799147353207E-16 ) ) ;
#213 = CALENDAR_DATE ( 2021, 2, 12 ) ;
#214 = FACE_OUTER_BOUND ( 'NONE', #48, .T. ) ;
#215 = CARTESIAN_POINT ( 'NONE',  ( 2.433562493173664138E-13, -8.535788190057053710E-15, 69.70000000000001705 ) ) ;
#216 = DIRECTION ( 'NONE',  ( -4.275831445896958607E-31, -1.000000000000000000, -1.224646799147353207E-16 ) ) ;
#217 = DIRECTION ( 'NONE',  ( 0.0000000000000000000, 1.000000000000000000, 0.0000000000000000000 ) ) ;
#218 = CC_DESIGN_DATE_AND_TIME_ASSIGNMENT ( #123, #79, ( #55 ) ) ;
#219 = CARTESIAN_POINT ( 'NONE',  ( 2.444036937190193601E-13, 1.199999999999992628, 70.00000000000000000 ) ) ;
#220 = AXIS2_PLACEMENT_3D ( 'NONE', #149, #192, #131 ) ;
#221 = CC_DESIGN_SECURITY_CLASSIFICATION ( #165, ( #281 ) ) ;
#222 = FACE_OUTER_BOUND ( 'NONE', #226, .T. ) ;
#223 = EDGE_LOOP ( 'NONE', ( #96 ) ) ;
#224 = EDGE_CURVE ( 'NONE', #37, #37, #69, .T. ) ;
#225 = AXIS2_PLACEMENT_3D ( 'NONE', #259, #285, #212 ) ;
#226 = EDGE_LOOP ( 'NONE', ( #72 ) ) ;
#227 = EDGE_LOOP ( 'NONE', ( #207 ) ) ;
#228 = ADVANCED_FACE ( 'NONE', ( #156 ), #238, .T. ) ;
#229 = APPROVAL_DATE_TIME ( #33, #16 ) ;
#230 = DIRECTION ( 'NONE',  ( 3.491481338843133355E-15, -1.224646799147353207E-16, 1.000000000000000000 ) ) ;
#231 = PERSON_AND_ORGANIZATION ( #146, #108 ) ;
#232 = DIRECTION ( 'NONE',  ( 0.0000000000000000000, 1.000000000000000000, 0.0000000000000000000 ) ) ;
#233 = COORDINATED_UNIVERSAL_TIME_OFFSET ( 1, 0, .AHEAD. ) ;
#234 = CARTESIAN_POINT ( 'NONE',  ( 3.612429800294232266E-14, -1.267069808696349701E-15, 10.34641016151377890 ) ) ;
#235 = CALENDAR_DATE ( 2021, 2, 12 ) ;
#236 = DIRECTION ( 'NONE',  ( -4.275831445896958607E-31, -1.000000000000000000, -1.224646799147353207E-16 ) ) ;
#237 = DIRECTION ( 'NONE',  ( -3.491481338843133355E-15, 1.224646799147353207E-16, -1.000000000000000000 ) ) ;
#238 = PLANE ( 'NONE',  #6 ) ;
#239 = FACE_OUTER_BOUND ( 'NONE', #115, .T. ) ;
#240 = CC_DESIGN_APPROVAL ( #40, ( #165 ) ) ;
#241 = MANIFOLD_SOLID_BREP ( 'Corps-Déplacer/Copier1[1]', #155 ) ;
#242 = DIRECTION ( 'NONE',  ( 4.275831445896958607E-31, 1.000000000000000000, 1.224646799147353454E-16 ) ) ;
#243 = DIRECTION ( 'NONE',  ( -3.491481338843133355E-15, 1.224646799147353207E-16, -1.000000000000000000 ) ) ;
#244 = ADVANCED_FACE ( 'NONE', ( #222, #39 ), #292, .T. ) ;
#245 = VERTEX_POINT ( 'NONE', #265 ) ;
#246 = AXIS2_PLACEMENT_3D ( 'NONE', #60, #42, #12 ) ;
#247 = VERTEX_POINT ( 'NONE', #45 ) ;
#248 = CC_DESIGN_PERSON_AND_ORGANIZATION_ASSIGNMENT ( #74, #195, ( #281 ) ) ;
#249 = UNCERTAINTY_MEASURE_WITH_UNIT (LENGTH_MEASURE( 1.000000000000000082E-05 ), #275, 'distance_accuracy_value', 'NONE');
#250 = EDGE_CURVE ( 'NONE', #247, #247, #274, .T. ) ;
#251 = EDGE_LOOP ( 'NONE', ( #204 ) ) ;
#252 = ORIENTED_EDGE ( 'NONE', *, *, #90, .F. ) ;
#253 = SHAPE_DEFINITION_REPRESENTATION ( #104, #267 ) ;
#254 = FACE_OUTER_BOUND ( 'NONE', #94, .T. ) ;
#255 = COORDINATED_UNIVERSAL_TIME_OFFSET ( 1, 0, .AHEAD. ) ;
#256 = FACE_BOUND ( 'NONE', #296, .T. ) ;
#257 = CALENDAR_DATE ( 2021, 2, 12 ) ;
#258 = CARTESIAN_POINT ( 'NONE',  ( 3.491481338843133355E-14, 1.274795815262573493E-32, 10.00000000000000000 ) ) ;
#259 = CARTESIAN_POINT ( 'NONE',  ( 0.0000000000000000000, 0.0000000000000000000, 0.0000000000000000000 ) ) ;
#260 = VERTEX_POINT ( 'NONE', #58 ) ;
#261 = CARTESIAN_POINT ( 'NONE',  ( -3.099977798275282685E-31, 1.087325842429842523E-32, -8.878689293818275068E-17 ) ) ;
#262 = CONICAL_SURFACE ( 'NONE', #86, 1.200000000000001510, 0.7853981633974566057 ) ;
#263 = LOCAL_TIME ( 10, 35, 36.00000000000000000, #255 ) ;
#264 = DIRECTION ( 'NONE',  ( 1.000000000000000000, 0.0000000000000000000, 0.0000000000000000000 ) ) ;
#265 = CARTESIAN_POINT ( 'NONE',  ( 3.612429800294232266E-14, 1.499999999999991562, 10.34641016151377890 ) ) ;
#266 = CARTESIAN_POINT ( 'NONE',  ( 2.433562493173664138E-13, 1.499999999999992673, 69.70000000000001705 ) ) ;
#267 = ADVANCED_BREP_SHAPE_REPRESENTATION ( '321566', ( #241, #158, #164 ), #43 ) ;
#268 = CC_DESIGN_PERSON_AND_ORGANIZATION_ASSIGNMENT ( #231, #51, ( #165 ) ) ;
#269 = AXIS2_PLACEMENT_3D ( 'NONE', #30, #283, #232 ) ;
#270 = AXIS2_PLACEMENT_3D ( 'NONE', #80, #57, #7 ) ;
#271 = ORIENTED_EDGE ( 'NONE', *, *, #224, .T. ) ;
#272 = ADVANCED_FACE ( 'NONE', ( #294, #239 ), #303, .T. ) ;
#273 = ORIENTED_EDGE ( 'NONE', *, *, #106, .F. ) ;
#274 = CIRCLE ( 'NONE', #76, 1.449999999999994182 ) ;
#275 =( LENGTH_UNIT ( ) NAMED_UNIT ( * ) SI_UNIT ( .MILLI., .METRE. ) );
#276 = ORIENTED_EDGE ( 'NONE', *, *, #2, .T. ) ;
#277 = CIRCLE ( 'NONE', #102, 1.200000000000001510 ) ;
#278 = ORIENTED_EDGE ( 'NONE', *, *, #250, .T. ) ;
#279 = APPLICATION_CONTEXT ( 'configuration controlled 3d designs of mechanical parts and assemblies' ) ;
#280 = DIRECTION ( 'NONE',  ( 0.0000000000000000000, 1.000000000000000000, 0.0000000000000000000 ) ) ;
#281 = PRODUCT_DEFINITION_FORMATION_WITH_SPECIFIED_SOURCE ( 'ANY', '', #130, .NOT_KNOWN. ) ;
#282 = PERSON_AND_ORGANIZATION ( #146, #108 ) ;
#283 = DIRECTION ( 'NONE',  ( -3.491481338843133355E-15, 1.224646799147353207E-16, -1.000000000000000000 ) ) ;
#284 = CONICAL_SURFACE ( 'NONE', #23, 1.449999999999994182, 0.7853981633974500554 ) ;
#285 = DIRECTION ( 'NONE',  ( -3.491481338843133355E-15, 1.224646799147353207E-16, -1.000000000000000000 ) ) ;
#286 = ADVANCED_FACE ( 'NONE', ( #181, #109 ), #137, .T. ) ;
#287 = PERSON_AND_ORGANIZATION_ROLE ( 'design_supplier' ) ;
#288 = DIRECTION ( 'NONE',  ( -3.491481338843133355E-15, 1.224646799147353207E-16, -1.000000000000000000 ) ) ;
#289 = CARTESIAN_POINT ( 'NONE',  ( 2.444036937190193601E-13, -8.572527594031472993E-15, 70.00000000000000000 ) ) ;
#290 = APPROVAL_STATUS ( 'not_yet_approved' ) ;
#291 = APPROVAL_ROLE ( '' ) ;
#292 = CYLINDRICAL_SURFACE ( 'NONE', #121, 1.499999999999996891 ) ;
#293 = CARTESIAN_POINT ( 'NONE',  ( 3.491481338843133355E-14, -1.224646799147353256E-15, 10.00000000000000000 ) ) ;
#294 = FACE_BOUND ( 'NONE', #298, .T. ) ;
#295 = VERTEX_POINT ( 'NONE', #179 ) ;
#296 = EDGE_LOOP ( 'NONE', ( #210 ) ) ;
#297 = LOCAL_TIME ( 10, 35, 36.00000000000000000, #41 ) ;
#298 = EDGE_LOOP ( 'NONE', ( #202 ) ) ;
#299 = PERSON_AND_ORGANIZATION ( #146, #108 ) ;
#300 = ORIENTED_EDGE ( 'NONE', *, *, #180, .T. ) ;
#301 = CC_DESIGN_PERSON_AND_ORGANIZATION_ASSIGNMENT ( #299, #92, ( #55 ) ) ;
#302 = EDGE_LOOP ( 'NONE', ( #70 ) ) ;
#303 = CONICAL_SURFACE ( 'NONE', #209, 1.699999999999995071, 0.5235987755983003700 ) ;
ENDSEC;
END-ISO-10303-21;
