ISO-10303-21;
HEADER;
FILE_DESCRIPTION (( 'STEP AP203' ),
    '1' );
FILE_NAME ('321565.step',
    '2021-12-02T09:35:36',
    ( '' ),
    ( '' ),
    'SwSTEP 2.0',
    'SolidWorks 2019',
    '' );
FILE_SCHEMA (( 'CONFIG_CONTROL_DESIGN' ));
ENDSEC;

DATA;
#1 = AXIS2_PLACEMENT_3D ( 'NONE', #205, #295, #157 ) ;
#2 = ORIENTED_EDGE ( 'NONE', *, *, #299, .T. ) ;
#3 = APPROVAL_DATE_TIME ( #91, #147 ) ;
#4 = PERSON_AND_ORGANIZATION_ROLE ( 'creator' ) ;
#5 = AXIS2_PLACEMENT_3D ( 'NONE', #235, #302, #216 ) ;
#6 = DIRECTION ( 'NONE',  ( 1.000000000000000000, 0.0000000000000000000, 0.0000000000000000000 ) ) ;
#7 = EDGE_LOOP ( 'NONE', ( #186 ) ) ;
#8 = ORIENTED_EDGE ( 'NONE', *, *, #154, .T. ) ;
#9 = APPROVAL_STATUS ( 'not_yet_approved' ) ;
#10 = DIRECTION ( 'NONE',  ( -3.491481338843133355E-15, 1.224646799147353207E-16, -1.000000000000000000 ) ) ;
#11 = CONICAL_SURFACE ( 'NONE', #36, 1.200000000000001510, 0.7853981633974566057 ) ;
#12 = DIRECTION ( 'NONE',  ( -3.491481338843133355E-15, 1.224646799147353207E-16, -1.000000000000000000 ) ) ;
#13 = CARTESIAN_POINT ( 'NONE',  ( 2.433562493173664138E-13, -8.535788190057053710E-15, 69.70000000000001705 ) ) ;
#14 = ADVANCED_FACE ( 'NONE', ( #38 ), #164, .F. ) ;
#15 = DIRECTION ( 'NONE',  ( 0.0000000000000000000, 1.000000000000000000, 0.0000000000000000000 ) ) ;
#16 = CIRCLE ( 'NONE', #82, 1.694999999999994955 ) ;
#17 = CC_DESIGN_APPROVAL ( #147, ( #241 ) ) ;
#18 = FACE_OUTER_BOUND ( 'NONE', #33, .T. ) ;
#19 = VERTEX_POINT ( 'NONE', #68 ) ;
#20 = CALENDAR_DATE ( 2021, 2, 12 ) ;
#21 = AXIS2_PLACEMENT_3D ( 'NONE', #215, #257, #141 ) ;
#22 = SECURITY_CLASSIFICATION ( '', '', #123 ) ;
#23 = FACE_OUTER_BOUND ( 'NONE', #99, .T. ) ;
#24 = CARTESIAN_POINT ( 'NONE',  ( 8.728703347107827472E-16, -3.061616997868381169E-17, 0.2499999999999998335 ) ) ;
#25 = ADVANCED_FACE ( 'NONE', ( #230, #18 ), #190, .T. ) ;
#26 = AXIS2_PLACEMENT_3D ( 'NONE', #203, #270, #292 ) ;
#27 =( NAMED_UNIT ( * ) SI_UNIT ( $, .STERADIAN. ) SOLID_ANGLE_UNIT ( ) );
#28 = CC_DESIGN_PERSON_AND_ORGANIZATION_ASSIGNMENT ( #98, #199, ( #241 ) ) ;
#29 = ORIENTED_EDGE ( 'NONE', *, *, #125, .T. ) ;
#30 = EDGE_LOOP ( 'NONE', ( #224 ) ) ;
#31 = CC_DESIGN_SECURITY_CLASSIFICATION ( #22, ( #241 ) ) ;
#32 = EDGE_LOOP ( 'NONE', ( #222 ) ) ;
#33 = EDGE_LOOP ( 'NONE', ( #243 ) ) ;
#34 = ADVANCED_FACE ( 'NONE', ( #185, #181 ), #196, .T. ) ;
#35 = CYLINDRICAL_SURFACE ( 'NONE', #78, 1.499999999999996891 ) ;
#36 = AXIS2_PLACEMENT_3D ( 'NONE', #144, #69, #140 ) ;
#37 = CC_DESIGN_APPROVAL ( #137, ( #22 ) ) ;
#38 = FACE_OUTER_BOUND ( 'NONE', #30, .T. ) ;
#39 = CC_DESIGN_PERSON_AND_ORGANIZATION_ASSIGNMENT ( #293, #129, ( #242 ) ) ;
#40 = FACE_BOUND ( 'NONE', #221, .T. ) ;
#41 = DATE_TIME_ROLE ( 'creation_date' ) ;
#42 = CARTESIAN_POINT ( 'NONE',  ( 2.433562493173664138E-13, -8.535788190057053710E-15, 69.70000000000001705 ) ) ;
#43 = PERSON_AND_ORGANIZATION_ROLE ( 'creator' ) ;
#44 = AXIS2_PLACEMENT_3D ( 'NONE', #249, #130, #56 ) ;
#45 = VERTEX_POINT ( 'NONE', #232 ) ;
#46 = ADVANCED_FACE ( 'NONE', ( #106 ), #63, .F. ) ;
#47 = FACE_OUTER_BOUND ( 'NONE', #171, .T. ) ;
#48 = FACE_OUTER_BOUND ( 'NONE', #128, .T. ) ;
#49 = DIRECTION ( 'NONE',  ( -3.491481338843133355E-15, 1.224646799147353207E-16, -1.000000000000000000 ) ) ;
#50 = CIRCLE ( 'NONE', #75, 1.694999999999994955 ) ;
#51 = ORGANIZATION ( 'UNSPECIFIED', 'UNSPECIFIED', '' ) ;
#52 = CALENDAR_DATE ( 2021, 2, 12 ) ;
#53 = MECHANICAL_CONTEXT ( 'NONE', #219, 'mechanical' ) ;
#54 = ORIENTED_EDGE ( 'NONE', *, *, #227, .F. ) ;
#55 =( LENGTH_UNIT ( ) NAMED_UNIT ( * ) SI_UNIT ( .MILLI., .METRE. ) );
#56 = DIRECTION ( 'NONE',  ( 0.0000000000000000000, 1.000000000000000000, 0.0000000000000000000 ) ) ;
#57 = MANIFOLD_SOLID_BREP ( 'Corps-Déplacer/Copier1[1]', #139 ) ;
#58 = FACE_OUTER_BOUND ( 'NONE', #264, .T. ) ;
#59 = CC_DESIGN_DATE_AND_TIME_ASSIGNMENT ( #87, #41, ( #194 ) ) ;
#60 = APPROVAL_ROLE ( '' ) ;
#61 = AXIS2_PLACEMENT_3D ( 'NONE', #250, #182, #138 ) ;
#62 = DIRECTION ( 'NONE',  ( -3.491481338843133355E-15, 1.224646799147353207E-16, -1.000000000000000000 ) ) ;
#63 = PLANE ( 'NONE',  #231 ) ;
#64 = DIRECTION ( 'NONE',  ( 4.275831445896958607E-31, 1.000000000000000000, 1.224646799147353207E-16 ) ) ;
#65 = LOCAL_TIME ( 10, 35, 36.00000000000000000, #71 ) ;
#66 = VERTEX_POINT ( 'NONE', #170 ) ;
#67 = DIRECTION ( 'NONE',  ( -3.491481338843133355E-15, 1.224646799147353207E-16, -1.000000000000000000 ) ) ;
#68 = CARTESIAN_POINT ( 'NONE',  ( 3.491481338843133355E-14, 1.694999999999993623, 10.00000000000000000 ) ) ;
#69 = DIRECTION ( 'NONE',  ( -3.491481338843133355E-15, 1.224646799147353207E-16, -1.000000000000000000 ) ) ;
#70 = DESIGN_CONTEXT ( 'detailed design', #263, 'design' ) ;
#71 = COORDINATED_UNIVERSAL_TIME_OFFSET ( 1, 0, .AHEAD. ) ;
#72 = CARTESIAN_POINT ( 'NONE',  ( 3.491481338843133355E-14, 1.694999999999993623, 10.00000000000000000 ) ) ;
#73 = EDGE_LOOP ( 'NONE', ( #177 ) ) ;
#74 = SHAPE_DEFINITION_REPRESENTATION ( #150, #261 ) ;
#75 = AXIS2_PLACEMENT_3D ( 'NONE', #24, #117, #113 ) ;
#76 = ORIENTED_EDGE ( 'NONE', *, *, #162, .T. ) ;
#77 = EDGE_LOOP ( 'NONE', ( #245 ) ) ;
#78 = AXIS2_PLACEMENT_3D ( 'NONE', #253, #12, #107 ) ;
#79 = DIRECTION ( 'NONE',  ( -3.491481338843133355E-15, 1.224646799147353207E-16, -1.000000000000000000 ) ) ;
#80 = EDGE_LOOP ( 'NONE', ( #100 ) ) ;
#81 = FACE_OUTER_BOUND ( 'NONE', #77, .T. ) ;
#82 = AXIS2_PLACEMENT_3D ( 'NONE', #228, #158, #266 ) ;
#83 = PLANE ( 'NONE',  #165 ) ;
#84 = CARTESIAN_POINT ( 'NONE',  ( 2.444036937190193601E-13, 8.998558695971026591E-33, 70.00000000000000000 ) ) ;
#85 = COORDINATED_UNIVERSAL_TIME_OFFSET ( 1, 0, .AHEAD. ) ;
#86 = CONICAL_SURFACE ( 'NONE', #156, 1.694999999999994955, 0.5235987755983009251 ) ;
#87 = DATE_AND_TIME ( #20, #204 ) ;
#88 = CARTESIAN_POINT ( 'NONE',  ( 2.444036937190193601E-13, 1.199999999999992628, 70.00000000000000000 ) ) ;
#89 = EDGE_CURVE ( 'NONE', #211, #211, #92, .T. ) ;
#90 = FACE_BOUND ( 'NONE', #220, .T. ) ;
#91 = DATE_AND_TIME ( #244, #168 ) ;
#92 = CIRCLE ( 'NONE', #179, 1.499999999999992895 ) ;
#93 = CARTESIAN_POINT ( 'NONE',  ( 2.433562493173664138E-13, 1.499999999999992673, 69.70000000000001705 ) ) ;
#94 = ADVANCED_FACE ( 'NONE', ( #40, #58 ), #86, .T. ) ;
#95 = PERSON_AND_ORGANIZATION_ROLE ( 'classification_officer' ) ;
#96 = EDGE_LOOP ( 'NONE', ( #153 ) ) ;
#97 = DATE_TIME_ROLE ( 'classification_date' ) ;
#98 = PERSON_AND_ORGANIZATION ( #236, #51 ) ;
#99 = EDGE_LOOP ( 'NONE', ( #8 ) ) ;
#100 = ORIENTED_EDGE ( 'NONE', *, *, #272, .F. ) ;
#101 = APPROVAL ( #9, 'UNSPECIFIED' ) ;
#102 = FACE_OUTER_BOUND ( 'NONE', #151, .T. ) ;
#103 = CLOSED_SHELL ( 'NONE', ( #25, #189, #34, #169, #14, #247, #105 ) ) ;
#104 = AXIS2_PLACEMENT_3D ( 'NONE', #126, #223, #6 ) ;
#105 = ADVANCED_FACE ( 'NONE', ( #208, #207 ), #35, .T. ) ;
#106 = FACE_OUTER_BOUND ( 'NONE', #80, .T. ) ;
#107 = DIRECTION ( 'NONE',  ( 4.275831445896958607E-31, 1.000000000000000000, 1.224646799147353454E-16 ) ) ;
#108 = DIRECTION ( 'NONE',  ( 0.0000000000000000000, 1.000000000000000000, 0.0000000000000000000 ) ) ;
#109 = APPROVAL_PERSON_ORGANIZATION ( #238, #137, #121 ) ;
#110 = DIRECTION ( 'NONE',  ( 0.0000000000000000000, 1.000000000000000000, 0.0000000000000000000 ) ) ;
#111 = EDGE_CURVE ( 'NONE', #300, #300, #159, .T. ) ;
#112 = CARTESIAN_POINT ( 'NONE',  ( 8.728703347107835360E-16, 1.694999999999994955, 0.2500000000000000555 ) ) ;
#113 = DIRECTION ( 'NONE',  ( 4.544967420382871140E-31, 1.000000000000000000, 1.279294598802958932E-16 ) ) ;
#114 = EDGE_CURVE ( 'NONE', #192, #192, #16, .T. ) ;
#115 = CARTESIAN_POINT ( 'NONE',  ( 0.0000000000000000000, 1.444999999999994067, 0.0000000000000000000 ) ) ;
#116 = PLANE ( 'NONE',  #149 ) ;
#117 = DIRECTION ( 'NONE',  ( -3.491481338843133355E-15, 1.224646799147353207E-16, -1.000000000000000000 ) ) ;
#118 = COORDINATED_UNIVERSAL_TIME_OFFSET ( 1, 0, .AHEAD. ) ;
#119 = CIRCLE ( 'NONE', #258, 1.694999999999994955 ) ;
#120 = UNCERTAINTY_MEASURE_WITH_UNIT (LENGTH_MEASURE( 1.000000000000000082E-05 ), #55, 'distance_accuracy_value', 'NONE');
#121 = APPROVAL_ROLE ( '' ) ;
#122 =( NAMED_UNIT ( * ) PLANE_ANGLE_UNIT ( ) SI_UNIT ( $, .RADIAN. ) );
#123 = SECURITY_CLASSIFICATION_LEVEL ( 'unclassified' ) ;
#124 = EDGE_LOOP ( 'NONE', ( #54 ) ) ;
#125 = EDGE_CURVE ( 'NONE', #66, #66, #248, .T. ) ;
#126 = CARTESIAN_POINT ( 'NONE',  ( 0.0000000000000000000, 0.0000000000000000000, 0.0000000000000000000 ) ) ;
#127 = AXIS2_PLACEMENT_3D ( 'NONE', #279, #167, #188 ) ;
#128 = EDGE_LOOP ( 'NONE', ( #285 ) ) ;
#129 = PERSON_AND_ORGANIZATION_ROLE ( 'design_owner' ) ;
#130 = DIRECTION ( 'NONE',  ( -3.491481338843133355E-15, 1.224646799147353207E-16, -1.000000000000000000 ) ) ;
#131 = DIRECTION ( 'NONE',  ( 4.275831445896958607E-31, 1.000000000000000000, 1.224646799147353207E-16 ) ) ;
#132 = CIRCLE ( 'NONE', #21, 1.444999999999994067 ) ;
#133 = APPLICATION_PROTOCOL_DEFINITION ( 'international standard', 'config_control_design', 1994, #263 ) ;
#134 = CARTESIAN_POINT ( 'NONE',  ( 3.491481338843133355E-14, -1.224646799147353256E-15, 10.00000000000000000 ) ) ;
#135 = COORDINATED_UNIVERSAL_TIME_OFFSET ( 1, 0, .AHEAD. ) ;
#136 = CARTESIAN_POINT ( 'NONE',  ( 3.491481338843133355E-14, -1.224646799147353256E-15, 10.00000000000000000 ) ) ;
#137 = APPROVAL ( #218, 'UNSPECIFIED' ) ;
#138 = DIRECTION ( 'NONE',  ( 4.275831445896958607E-31, 1.000000000000000000, 1.224646799147353207E-16 ) ) ;
#139 = CLOSED_SHELL ( 'NONE', ( #290, #94, #209, #287, #46 ) ) ;
#140 = DIRECTION ( 'NONE',  ( 0.0000000000000000000, 1.000000000000000000, 0.0000000000000000000 ) ) ;
#141 = DIRECTION ( 'NONE',  ( 4.275831445896957731E-31, 1.000000000000000000, 1.224646799147353207E-16 ) ) ;
#142 = APPROVAL_DATE_TIME ( #289, #101 ) ;
#143 = CC_DESIGN_PERSON_AND_ORGANIZATION_ASSIGNMENT ( #260, #4, ( #241 ) ) ;
#144 = CARTESIAN_POINT ( 'NONE',  ( 2.444036937190193601E-13, -8.572527594031472993E-15, 70.00000000000000000 ) ) ;
#145 = DIRECTION ( 'NONE',  ( 3.491481338843133355E-15, -1.224646799147353207E-16, 1.000000000000000000 ) ) ;
#146 = FACE_BOUND ( 'NONE', #7, .T. ) ;
#147 = APPROVAL ( #152, 'UNSPECIFIED' ) ;
#148 = CALENDAR_DATE ( 2021, 2, 12 ) ;
#149 = AXIS2_PLACEMENT_3D ( 'NONE', #187, #145, #237 ) ;
#150 = PRODUCT_DEFINITION_SHAPE ( 'NONE', 'NONE',  #194 ) ;
#151 = EDGE_LOOP ( 'NONE', ( #178 ) ) ;
#152 = APPROVAL_STATUS ( 'not_yet_approved' ) ;
#153 = ORIENTED_EDGE ( 'NONE', *, *, #111, .T. ) ;
#154 = EDGE_CURVE ( 'NONE', #45, #45, #217, .T. ) ;
#155 = PERSON_AND_ORGANIZATION ( #236, #51 ) ;
#156 = AXIS2_PLACEMENT_3D ( 'NONE', #136, #229, #267 ) ;
#157 = DIRECTION ( 'NONE',  ( -4.275831445896957731E-31, -1.000000000000000000, -1.224646799147353207E-16 ) ) ;
#158 = DIRECTION ( 'NONE',  ( -3.491481338843133355E-15, 1.224646799147353207E-16, -1.000000000000000000 ) ) ;
#159 = CIRCLE ( 'NONE', #291, 1.500000000000001110 ) ;
#160 = CC_DESIGN_APPROVAL ( #101, ( #194 ) ) ;
#161 = DIRECTION ( 'NONE',  ( -3.491481338843133355E-15, 1.224646799147353207E-16, -1.000000000000000000 ) ) ;
#162 = EDGE_CURVE ( 'NONE', #19, #19, #119, .T. ) ;
#163 = DIRECTION ( 'NONE',  ( 0.0000000000000000000, 1.000000000000000000, 0.0000000000000000000 ) ) ;
#164 = PLANE ( 'NONE',  #61 ) ;
#165 = AXIS2_PLACEMENT_3D ( 'NONE', #273, #10, #131 ) ;
#166 = VERTEX_POINT ( 'NONE', #88 ) ;
#167 = DIRECTION ( 'NONE',  ( -3.491481338843133355E-15, 1.224646799147353207E-16, -1.000000000000000000 ) ) ;
#168 = LOCAL_TIME ( 10, 35, 36.00000000000000000, #175 ) ;
#169 = ADVANCED_FACE ( 'NONE', ( #81 ), #83, .T. ) ;
#170 = CARTESIAN_POINT ( 'NONE',  ( 2.444036937190193601E-13, 1.199999999999992628, 70.00000000000000000 ) ) ;
#171 = EDGE_LOOP ( 'NONE', ( #76 ) ) ;
#172 = APPROVAL_ROLE ( '' ) ;
#173 = APPROVAL_PERSON_ORGANIZATION ( #155, #147, #172 ) ;
#174 = ORIENTED_EDGE ( 'NONE', *, *, #296, .T. ) ;
#175 = COORDINATED_UNIVERSAL_TIME_OFFSET ( 1, 0, .AHEAD. ) ;
#176 = MANIFOLD_SOLID_BREP ( 'Corps-Déplacer/Copier1[2]', #103 ) ;
#177 = ORIENTED_EDGE ( 'NONE', *, *, #89, .F. ) ;
#178 = ORIENTED_EDGE ( 'NONE', *, *, #296, .F. ) ;
#179 = AXIS2_PLACEMENT_3D ( 'NONE', #294, #79, #110 ) ;
#180 = EDGE_LOOP ( 'NONE', ( #262 ) ) ;
#181 = FACE_BOUND ( 'NONE', #124, .T. ) ;
#182 = DIRECTION ( 'NONE',  ( -3.491481338843133355E-15, 1.224646799147353207E-16, -1.000000000000000000 ) ) ;
#183 = FACE_OUTER_BOUND ( 'NONE', #288, .T. ) ;
#184 = AXIS2_PLACEMENT_3D ( 'NONE', #210, #49, #214 ) ;
#185 = FACE_OUTER_BOUND ( 'NONE', #201, .T. ) ;
#186 = ORIENTED_EDGE ( 'NONE', *, *, #272, .T. ) ;
#187 = CARTESIAN_POINT ( 'NONE',  ( 3.491481338843133355E-14, 1.271046415805918548E-32, 10.00000000000000000 ) ) ;
#188 = DIRECTION ( 'NONE',  ( 0.0000000000000000000, 1.000000000000000000, 0.0000000000000000000 ) ) ;
#189 = ADVANCED_FACE ( 'NONE', ( #183, #102 ), #251, .T. ) ;
#190 = CONICAL_SURFACE ( 'NONE', #280, 1.694999999999994955, 0.5235987755983009251 ) ;
#191 = PERSON_AND_ORGANIZATION ( #236, #51 ) ;
#192 = VERTEX_POINT ( 'NONE', #72 ) ;
#193 = ORIENTED_EDGE ( 'NONE', *, *, #299, .F. ) ;
#194 = PRODUCT_DEFINITION ( 'UNKNOWN', '', #241, #70 ) ;
#195 = APPROVAL_DATE_TIME ( #284, #137 ) ;
#196 = CONICAL_SURFACE ( 'NONE', #1, 1.444999999999994067, 0.7853981633974500554 ) ;
#197 = LOCAL_TIME ( 10, 35, 36.00000000000000000, #135 ) ;
#198 = ORIENTED_EDGE ( 'NONE', *, *, #114, .T. ) ;
#199 = PERSON_AND_ORGANIZATION_ROLE ( 'design_supplier' ) ;
#200 = APPLICATION_PROTOCOL_DEFINITION ( 'international standard', 'config_control_design', 1994, #219 ) ;
#201 = EDGE_LOOP ( 'NONE', ( #174 ) ) ;
#202 = CALENDAR_DATE ( 2021, 2, 12 ) ;
#203 = CARTESIAN_POINT ( 'NONE',  ( 0.0000000000000000000, 0.0000000000000000000, 0.0000000000000000000 ) ) ;
#204 = LOCAL_TIME ( 10, 35, 36.00000000000000000, #85 ) ;
#205 = CARTESIAN_POINT ( 'NONE',  ( -6.178576439321078903E-31, 2.167152885946375430E-32, -1.769614624767918138E-16 ) ) ;
#206 = DIRECTION ( 'NONE',  ( -3.491481338843133355E-15, 1.224646799147353207E-16, -1.000000000000000000 ) ) ;
#207 = FACE_OUTER_BOUND ( 'NONE', #96, .T. ) ;
#208 = FACE_OUTER_BOUND ( 'NONE', #73, .T. ) ;
#209 = ADVANCED_FACE ( 'NONE', ( #226, #23 ), #256, .T. ) ;
#210 = CARTESIAN_POINT ( 'NONE',  ( 0.0000000000000000000, 0.0000000000000000000, 0.0000000000000000000 ) ) ;
#211 = VERTEX_POINT ( 'NONE', #281 ) ;
#212 = AXIS2_PLACEMENT_3D ( 'NONE', #276, #67, #233 ) ;
#213 = LOCAL_TIME ( 10, 35, 36.00000000000000000, #118 ) ;
#214 = DIRECTION ( 'NONE',  ( 4.275831445896958607E-31, 1.000000000000000000, 1.224646799147353454E-16 ) ) ;
#215 = CARTESIAN_POINT ( 'NONE',  ( -6.178576439321078903E-31, 2.167152885946375430E-32, -1.769614624767918138E-16 ) ) ;
#216 = DIRECTION ( 'NONE',  ( 0.0000000000000000000, 1.000000000000000000, 0.0000000000000000000 ) ) ;
#217 = CIRCLE ( 'NONE', #254, 1.500000000000001110 ) ;
#218 = APPROVAL_STATUS ( 'not_yet_approved' ) ;
#219 = APPLICATION_CONTEXT ( 'configuration controlled 3d designs of mechanical parts and assemblies' ) ;
#220 = EDGE_LOOP ( 'NONE', ( #29 ) ) ;
#221 = EDGE_LOOP ( 'NONE', ( #2 ) ) ;
#222 = ORIENTED_EDGE ( 'NONE', *, *, #111, .F. ) ;
#223 = DIRECTION ( 'NONE',  ( 0.0000000000000000000, 0.0000000000000000000, 1.000000000000000000 ) ) ;
#224 = ORIENTED_EDGE ( 'NONE', *, *, #125, .F. ) ;
#225 = CARTESIAN_POINT ( 'NONE',  ( 3.491481338843133355E-14, -1.224646799147353256E-15, 10.00000000000000000 ) ) ;
#226 = FACE_OUTER_BOUND ( 'NONE', #265, .T. ) ;
#227 = EDGE_CURVE ( 'NONE', #234, #234, #132, .T. ) ;
#228 = CARTESIAN_POINT ( 'NONE',  ( 3.491481338843133355E-14, -1.224646799147353256E-15, 10.00000000000000000 ) ) ;
#229 = DIRECTION ( 'NONE',  ( -3.491481338843133355E-15, 1.224646799147353207E-16, -1.000000000000000000 ) ) ;
#230 = FACE_BOUND ( 'NONE', #180, .T. ) ;
#231 = AXIS2_PLACEMENT_3D ( 'NONE', #84, #271, #64 ) ;
#232 = CARTESIAN_POINT ( 'NONE',  ( 2.433562493173664138E-13, 1.499999999999992673, 69.70000000000001705 ) ) ;
#233 = DIRECTION ( 'NONE',  ( 0.0000000000000000000, 1.000000000000000000, 0.0000000000000000000 ) ) ;
#234 = VERTEX_POINT ( 'NONE', #115 ) ;
#235 = CARTESIAN_POINT ( 'NONE',  ( 3.609406088757955393E-14, -1.266009233457624854E-15, 10.33774990747593314 ) ) ;
#236 = PERSON ( 'UNSPECIFIED', 'UNSPECIFIED', 'UNSPECIFIED', ('UNSPECIFIED'), ('UNSPECIFIED'), ('UNSPECIFIED') ) ;
#237 = DIRECTION ( 'NONE',  ( -4.275831445896958607E-31, -1.000000000000000000, -1.224646799147353207E-16 ) ) ;
#238 = PERSON_AND_ORGANIZATION ( #236, #51 ) ;
#239 = CC_DESIGN_DATE_AND_TIME_ASSIGNMENT ( #259, #97, ( #22 ) ) ;
#240 = CONICAL_SURFACE ( 'NONE', #212, 1.200000000000001510, 0.7853981633974566057 ) ;
#241 = PRODUCT_DEFINITION_FORMATION_WITH_SPECIFIED_SOURCE ( 'ANY', '', #242, .NOT_KNOWN. ) ;
#242 = PRODUCT ( '321565', '321565', '', ( #53 ) ) ;
#243 = ORIENTED_EDGE ( 'NONE', *, *, #114, .F. ) ;
#244 = CALENDAR_DATE ( 2021, 2, 12 ) ;
#245 = ORIENTED_EDGE ( 'NONE', *, *, #227, .T. ) ;
#246 = DIRECTION ( 'NONE',  ( 0.0000000000000000000, 1.000000000000000000, 0.0000000000000000000 ) ) ;
#247 = ADVANCED_FACE ( 'NONE', ( #303, #90 ), #240, .T. ) ;
#248 = CIRCLE ( 'NONE', #44, 1.200000000000001510 ) ;
#249 = CARTESIAN_POINT ( 'NONE',  ( 2.444036937190193601E-13, -8.572527594031472993E-15, 70.00000000000000000 ) ) ;
#250 = CARTESIAN_POINT ( 'NONE',  ( 2.444036937190193601E-13, -8.572527594031472993E-15, 70.00000000000000000 ) ) ;
#251 = CYLINDRICAL_SURFACE ( 'NONE', #26, 1.694999999999994955 ) ;
#252 = PRODUCT_RELATED_PRODUCT_CATEGORY ( 'detail', '', ( #242 ) ) ;
#253 = CARTESIAN_POINT ( 'NONE',  ( 0.0000000000000000000, 0.0000000000000000000, 0.0000000000000000000 ) ) ;
#254 = AXIS2_PLACEMENT_3D ( 'NONE', #13, #161, #246 ) ;
#255 = CARTESIAN_POINT ( 'NONE',  ( 3.609406088757955393E-14, 1.499999999999991562, 10.33774990747593314 ) ) ;
#256 = CYLINDRICAL_SURFACE ( 'NONE', #184, 1.499999999999996891 ) ;
#257 = DIRECTION ( 'NONE',  ( -3.491481338843133355E-15, 1.224646799147353207E-16, -1.000000000000000000 ) ) ;
#258 = AXIS2_PLACEMENT_3D ( 'NONE', #225, #297, #163 ) ;
#259 = DATE_AND_TIME ( #148, #213 ) ;
#260 = PERSON_AND_ORGANIZATION ( #236, #51 ) ;
#261 = ADVANCED_BREP_SHAPE_REPRESENTATION ( '321565', ( #57, #176, #104 ), #275 ) ;
#262 = ORIENTED_EDGE ( 'NONE', *, *, #89, .T. ) ;
#263 = APPLICATION_CONTEXT ( 'configuration controlled 3d designs of mechanical parts and assemblies' ) ;
#264 = EDGE_LOOP ( 'NONE', ( #283 ) ) ;
#265 = EDGE_LOOP ( 'NONE', ( #193 ) ) ;
#266 = DIRECTION ( 'NONE',  ( 0.0000000000000000000, 1.000000000000000000, 0.0000000000000000000 ) ) ;
#267 = DIRECTION ( 'NONE',  ( 0.0000000000000000000, 1.000000000000000000, 0.0000000000000000000 ) ) ;
#268 = PERSON_AND_ORGANIZATION ( #236, #51 ) ;
#269 = CIRCLE ( 'NONE', #5, 1.499999999999992895 ) ;
#270 = DIRECTION ( 'NONE',  ( -3.491481338843133355E-15, 1.224646799147353207E-16, -1.000000000000000000 ) ) ;
#271 = DIRECTION ( 'NONE',  ( -3.491481338843133355E-15, 1.224646799147353207E-16, -1.000000000000000000 ) ) ;
#272 = EDGE_CURVE ( 'NONE', #166, #166, #274, .T. ) ;
#273 = CARTESIAN_POINT ( 'NONE',  ( -3.089288219660539452E-31, 1.083576442973187715E-32, -8.848073123839590690E-17 ) ) ;
#274 = CIRCLE ( 'NONE', #127, 1.200000000000001510 ) ;
#275 =( GEOMETRIC_REPRESENTATION_CONTEXT ( 3 ) GLOBAL_UNCERTAINTY_ASSIGNED_CONTEXT ( ( #120 ) ) GLOBAL_UNIT_ASSIGNED_CONTEXT ( ( #55, #122, #27 ) ) REPRESENTATION_CONTEXT ( 'NONE', 'WORKASPACE' ) );
#276 = CARTESIAN_POINT ( 'NONE',  ( 2.444036937190193601E-13, -8.572527594031472993E-15, 70.00000000000000000 ) ) ;
#277 = CC_DESIGN_PERSON_AND_ORGANIZATION_ASSIGNMENT ( #191, #95, ( #22 ) ) ;
#278 = VERTEX_POINT ( 'NONE', #112 ) ;
#279 = CARTESIAN_POINT ( 'NONE',  ( 2.444036937190193601E-13, -8.572527594031472993E-15, 70.00000000000000000 ) ) ;
#280 = AXIS2_PLACEMENT_3D ( 'NONE', #134, #62, #108 ) ;
#281 = CARTESIAN_POINT ( 'NONE',  ( 3.609406088757955393E-14, 1.499999999999991562, 10.33774990747593314 ) ) ;
#282 = CC_DESIGN_PERSON_AND_ORGANIZATION_ASSIGNMENT ( #301, #43, ( #194 ) ) ;
#283 = ORIENTED_EDGE ( 'NONE', *, *, #162, .F. ) ;
#284 = DATE_AND_TIME ( #52, #65 ) ;
#285 = ORIENTED_EDGE ( 'NONE', *, *, #154, .F. ) ;
#286 = APPROVAL_PERSON_ORGANIZATION ( #268, #101, #60 ) ;
#287 = ADVANCED_FACE ( 'NONE', ( #48, #146 ), #11, .T. ) ;
#288 = EDGE_LOOP ( 'NONE', ( #198 ) ) ;
#289 = DATE_AND_TIME ( #202, #197 ) ;
#290 = ADVANCED_FACE ( 'NONE', ( #47 ), #116, .F. ) ;
#291 = AXIS2_PLACEMENT_3D ( 'NONE', #42, #206, #15 ) ;
#292 = DIRECTION ( 'NONE',  ( 4.275831445896957731E-31, 1.000000000000000000, 1.224646799147353207E-16 ) ) ;
#293 = PERSON_AND_ORGANIZATION ( #236, #51 ) ;
#294 = CARTESIAN_POINT ( 'NONE',  ( 3.609406088757955393E-14, -1.266009233457624854E-15, 10.33774990747593314 ) ) ;
#295 = DIRECTION ( 'NONE',  ( 3.491481338843133355E-15, -1.224646799147353207E-16, 1.000000000000000000 ) ) ;
#296 = EDGE_CURVE ( 'NONE', #278, #278, #50, .T. ) ;
#297 = DIRECTION ( 'NONE',  ( -3.491481338843133355E-15, 1.224646799147353207E-16, -1.000000000000000000 ) ) ;
#298 = VERTEX_POINT ( 'NONE', #255 ) ;
#299 = EDGE_CURVE ( 'NONE', #298, #298, #269, .T. ) ;
#300 = VERTEX_POINT ( 'NONE', #93 ) ;
#301 = PERSON_AND_ORGANIZATION ( #236, #51 ) ;
#302 = DIRECTION ( 'NONE',  ( -3.491481338843133355E-15, 1.224646799147353207E-16, -1.000000000000000000 ) ) ;
#303 = FACE_OUTER_BOUND ( 'NONE', #32, .T. ) ;
ENDSEC;
END-ISO-10303-21;
