ISO-10303-21;
HEADER;
FILE_DESCRIPTION (( 'STEP AP203' ),
    '1' );
FILE_NAME ('321564.step',
    '2021-12-02T09:35:35',
    ( '' ),
    ( '' ),
    'SwSTEP 2.0',
    'SolidWorks 2019',
    '' );
FILE_SCHEMA (( 'CONFIG_CONTROL_DESIGN' ));
ENDSEC;

DATA;
#1 = DIRECTION ( 'NONE',  ( 0.0000000000000000000, 1.000000000000000000, 0.0000000000000000000 ) ) ;
#2 = MECHANICAL_CONTEXT ( 'NONE', #284, 'mechanical' ) ;
#3 = DIRECTION ( 'NONE',  ( 3.491481338843133355E-15, -1.224646799147353207E-16, 1.000000000000000000 ) ) ;
#4 = PERSON_AND_ORGANIZATION ( #153, #277 ) ;
#5 = FACE_OUTER_BOUND ( 'NONE', #199, .T. ) ;
#6 = DIRECTION ( 'NONE',  ( 1.000000000000000000, 0.0000000000000000000, 0.0000000000000000000 ) ) ;
#7 = EDGE_LOOP ( 'NONE', ( #144 ) ) ;
#8 = LOCAL_TIME ( 10, 35, 35.00000000000000000, #71 ) ;
#9 = FACE_BOUND ( 'NONE', #280, .T. ) ;
#10 = SECURITY_CLASSIFICATION_LEVEL ( 'unclassified' ) ;
#11 = ORIENTED_EDGE ( 'NONE', *, *, #179, .T. ) ;
#12 = CARTESIAN_POINT ( 'NONE',  ( 0.0000000000000000000, 0.0000000000000000000, 0.0000000000000000000 ) ) ;
#13 = COORDINATED_UNIVERSAL_TIME_OFFSET ( 1, 0, .AHEAD. ) ;
#14 = EDGE_LOOP ( 'NONE', ( #11 ) ) ;
#15 = CARTESIAN_POINT ( 'NONE',  ( 0.0000000000000000000, 0.0000000000000000000, 0.0000000000000000000 ) ) ;
#16 = EDGE_LOOP ( 'NONE', ( #198 ) ) ;
#17 = ADVANCED_BREP_SHAPE_REPRESENTATION ( '321564', ( #243, #150, #195 ), #238 ) ;
#18 = APPROVAL ( #253, 'UNSPECIFIED' ) ;
#19 = ORIENTED_EDGE ( 'NONE', *, *, #291, .T. ) ;
#20 = AXIS2_PLACEMENT_3D ( 'NONE', #164, #3, #146 ) ;
#21 = CC_DESIGN_APPROVAL ( #101, ( #272 ) ) ;
#22 = FACE_OUTER_BOUND ( 'NONE', #14, .T. ) ;
#23 = ORIENTED_EDGE ( 'NONE', *, *, #227, .T. ) ;
#24 = CARTESIAN_POINT ( 'NONE',  ( 0.0000000000000000000, 0.0000000000000000000, 0.0000000000000000000 ) ) ;
#25 = DIRECTION ( 'NONE',  ( -3.491481338843133355E-15, 1.224646799147353207E-16, -1.000000000000000000 ) ) ;
#26 = ADVANCED_FACE ( 'NONE', ( #22 ), #175, .F. ) ;
#27 = VERTEX_POINT ( 'NONE', #135 ) ;
#28 = LOCAL_TIME ( 10, 35, 35.00000000000000000, #13 ) ;
#29 = CARTESIAN_POINT ( 'NONE',  ( 2.444036937190193601E-13, -8.572527594031472993E-15, 70.00000000000000000 ) ) ;
#30 = PRODUCT_DEFINITION ( 'UNKNOWN', '', #272, #220 ) ;
#31 = DIRECTION ( 'NONE',  ( 0.0000000000000000000, 1.000000000000000000, 0.0000000000000000000 ) ) ;
#32 = FACE_BOUND ( 'NONE', #173, .T. ) ;
#33 = PERSON_AND_ORGANIZATION ( #153, #277 ) ;
#34 = DATE_TIME_ROLE ( 'classification_date' ) ;
#35 = APPROVAL_DATE_TIME ( #102, #217 ) ;
#36 = ADVANCED_FACE ( 'NONE', ( #127, #131 ), #197, .T. ) ;
#37 = DIRECTION ( 'NONE',  ( 0.0000000000000000000, 1.000000000000000000, 0.0000000000000000000 ) ) ;
#38 = APPLICATION_PROTOCOL_DEFINITION ( 'international standard', 'config_control_design', 1994, #284 ) ;
#39 = DIRECTION ( 'NONE',  ( -3.491481338843133355E-15, 1.224646799147353207E-16, -1.000000000000000000 ) ) ;
#40 = CARTESIAN_POINT ( 'NONE',  ( 2.433562493173664138E-13, -8.535788190057053710E-15, 69.70000000000001705 ) ) ;
#41 = DIRECTION ( 'NONE',  ( -3.491481338843133355E-15, 1.224646799147353207E-16, -1.000000000000000000 ) ) ;
#42 = APPLICATION_CONTEXT ( 'configuration controlled 3d designs of mechanical parts and assemblies' ) ;
#43 = CIRCLE ( 'NONE', #214, 1.200000000000001510 ) ;
#44 = LOCAL_TIME ( 10, 35, 35.00000000000000000, #140 ) ;
#45 = DIRECTION ( 'NONE',  ( -3.491481338843133355E-15, 1.224646799147353207E-16, -1.000000000000000000 ) ) ;
#46 = CC_DESIGN_PERSON_AND_ORGANIZATION_ASSIGNMENT ( #33, #213, ( #272 ) ) ;
#47 = ADVANCED_FACE ( 'NONE', ( #289, #136 ), #79, .T. ) ;
#48 = APPROVAL_DATE_TIME ( #256, #101 ) ;
#49 = DIRECTION ( 'NONE',  ( -3.491481338843133355E-15, 1.224646799147353207E-16, -1.000000000000000000 ) ) ;
#50 = CARTESIAN_POINT ( 'NONE',  ( 3.491481338843133355E-14, -1.224646799147353256E-15, 10.00000000000000000 ) ) ;
#51 = APPROVAL_ROLE ( '' ) ;
#52 = ORIENTED_EDGE ( 'NONE', *, *, #227, .F. ) ;
#53 = AXIS2_PLACEMENT_3D ( 'NONE', #40, #39, #226 ) ;
#54 = EDGE_LOOP ( 'NONE', ( #167 ) ) ;
#55 = DIRECTION ( 'NONE',  ( -4.275831445896958607E-31, -1.000000000000000000, -1.224646799147353207E-16 ) ) ;
#56 = UNCERTAINTY_MEASURE_WITH_UNIT (LENGTH_MEASURE( 1.000000000000000082E-05 ), #269, 'distance_accuracy_value', 'NONE');
#57 = APPROVAL_PERSON_ORGANIZATION ( #193, #18, #51 ) ;
#58 = FACE_OUTER_BOUND ( 'NONE', #106, .T. ) ;
#59 = EDGE_CURVE ( 'NONE', #111, #111, #263, .T. ) ;
#60 = CARTESIAN_POINT ( 'NONE',  ( 3.491481338843133355E-14, 1.689999999999993729, 10.00000000000000000 ) ) ;
#61 = VERTEX_POINT ( 'NONE', #222 ) ;
#62 = CARTESIAN_POINT ( 'NONE',  ( 8.728703347107835360E-16, 1.689999999999995062, 0.2500000000000000555 ) ) ;
#63 = CARTESIAN_POINT ( 'NONE',  ( 3.606382377221677889E-14, 1.499999999999991562, 10.32908965343808916 ) ) ;
#64 = ADVANCED_FACE ( 'NONE', ( #5, #9 ), #176, .T. ) ;
#65 = PLANE ( 'NONE',  #159 ) ;
#66 = CALENDAR_DATE ( 2021, 2, 12 ) ;
#67 = FACE_OUTER_BOUND ( 'NONE', #80, .T. ) ;
#68 = PERSON_AND_ORGANIZATION ( #153, #277 ) ;
#69 = PRODUCT ( '321564', '321564', '', ( #2 ) ) ;
#70 = PLANE ( 'NONE',  #194 ) ;
#71 = COORDINATED_UNIVERSAL_TIME_OFFSET ( 1, 0, .AHEAD. ) ;
#72 = EDGE_LOOP ( 'NONE', ( #178 ) ) ;
#73 = DIRECTION ( 'NONE',  ( -3.491481338843133355E-15, 1.224646799147353207E-16, -1.000000000000000000 ) ) ;
#74 = APPROVAL_ROLE ( '' ) ;
#75 = EDGE_LOOP ( 'NONE', ( #105 ) ) ;
#76 = APPLICATION_PROTOCOL_DEFINITION ( 'international standard', 'config_control_design', 1994, #42 ) ;
#77 = AXIS2_PLACEMENT_3D ( 'NONE', #50, #208, #1 ) ;
#78 = ORIENTED_EDGE ( 'NONE', *, *, #132, .F. ) ;
#79 = CONICAL_SURFACE ( 'NONE', #237, 1.689999999999995062, 0.5235987755983002589 ) ;
#80 = EDGE_LOOP ( 'NONE', ( #288 ) ) ;
#81 = EDGE_LOOP ( 'NONE', ( #23 ) ) ;
#82 = DIRECTION ( 'NONE',  ( -3.491481338843133355E-15, 1.224646799147353207E-16, -1.000000000000000000 ) ) ;
#83 = EDGE_CURVE ( 'NONE', #112, #112, #43, .T. ) ;
#84 = CARTESIAN_POINT ( 'NONE',  ( 2.433562493173664138E-13, 1.499999999999992673, 69.70000000000001705 ) ) ;
#85 = DIRECTION ( 'NONE',  ( 0.0000000000000000000, 1.000000000000000000, 0.0000000000000000000 ) ) ;
#86 = DIRECTION ( 'NONE',  ( 4.275831445896958607E-31, 1.000000000000000000, 1.224646799147353207E-16 ) ) ;
#87 = CIRCLE ( 'NONE', #258, 1.689999999999995062 ) ;
#88 = CARTESIAN_POINT ( 'NONE',  ( 2.444036937190193601E-13, 1.199999999999992628, 70.00000000000000000 ) ) ;
#89 = ADVANCED_FACE ( 'NONE', ( #255 ), #70, .F. ) ;
#90 = CARTESIAN_POINT ( 'NONE',  ( 3.606382377221677889E-14, -1.264948658218900007E-15, 10.32908965343808916 ) ) ;
#91 = PERSON_AND_ORGANIZATION_ROLE ( 'design_owner' ) ;
#92 = DIRECTION ( 'NONE',  ( -3.491481338843133355E-15, 1.224646799147353207E-16, -1.000000000000000000 ) ) ;
#93 = DATE_AND_TIME ( #216, #8 ) ;
#94 = EDGE_LOOP ( 'NONE', ( #172 ) ) ;
#95 = ADVANCED_FACE ( 'NONE', ( #116 ), #65, .T. ) ;
#96 = CARTESIAN_POINT ( 'NONE',  ( 2.444036937190193601E-13, -8.572527594031472993E-15, 70.00000000000000000 ) ) ;
#97 = PERSON_AND_ORGANIZATION ( #153, #277 ) ;
#98 = CC_DESIGN_APPROVAL ( #217, ( #30 ) ) ;
#99 = CARTESIAN_POINT ( 'NONE',  ( 2.444036937190193601E-13, -8.572527594031472993E-15, 70.00000000000000000 ) ) ;
#100 = COORDINATED_UNIVERSAL_TIME_OFFSET ( 1, 0, .AHEAD. ) ;
#101 = APPROVAL ( #186, 'UNSPECIFIED' ) ;
#102 = DATE_AND_TIME ( #235, #28 ) ;
#103 = DIRECTION ( 'NONE',  ( -3.491481338843133355E-15, 1.224646799147353207E-16, -1.000000000000000000 ) ) ;
#104 = CIRCLE ( 'NONE', #296, 1.500000000000001110 ) ;
#105 = ORIENTED_EDGE ( 'NONE', *, *, #300, .T. ) ;
#106 = EDGE_LOOP ( 'NONE', ( #219 ) ) ;
#107 = CONICAL_SURFACE ( 'NONE', #249, 1.200000000000001510, 0.7853981633974566057 ) ;
#108 = CIRCLE ( 'NONE', #285, 1.200000000000001510 ) ;
#109 = AXIS2_PLACEMENT_3D ( 'NONE', #12, #126, #192 ) ;
#110 = AXIS2_PLACEMENT_3D ( 'NONE', #180, #138, #86 ) ;
#111 = VERTEX_POINT ( 'NONE', #84 ) ;
#112 = VERTEX_POINT ( 'NONE', #88 ) ;
#113 = CARTESIAN_POINT ( 'NONE',  ( 3.606382377221677889E-14, -1.264948658218900007E-15, 10.32908965343808916 ) ) ;
#114 = AXIS2_PLACEMENT_3D ( 'NONE', #24, #41, #157 ) ;
#115 = DATE_AND_TIME ( #120, #160 ) ;
#116 = FACE_OUTER_BOUND ( 'NONE', #286, .T. ) ;
#117 = DATE_AND_TIME ( #231, #44 ) ;
#118 = ADVANCED_FACE ( 'NONE', ( #67, #32 ), #107, .T. ) ;
#119 = FACE_OUTER_BOUND ( 'NONE', #121, .T. ) ;
#120 = CALENDAR_DATE ( 2021, 2, 12 ) ;
#121 = EDGE_LOOP ( 'NONE', ( #257 ) ) ;
#122 = DIRECTION ( 'NONE',  ( -3.491481338843133355E-15, 1.224646799147353207E-16, -1.000000000000000000 ) ) ;
#123 = PERSON_AND_ORGANIZATION_ROLE ( 'design_supplier' ) ;
#124 = AXIS2_PLACEMENT_3D ( 'NONE', #29, #225, #301 ) ;
#125 = CYLINDRICAL_SURFACE ( 'NONE', #114, 1.499999999999996891 ) ;
#126 = DIRECTION ( 'NONE',  ( -3.491481338843133355E-15, 1.224646799147353207E-16, -1.000000000000000000 ) ) ;
#127 = FACE_OUTER_BOUND ( 'NONE', #72, .T. ) ;
#128 = AXIS2_PLACEMENT_3D ( 'NONE', #166, #73, #247 ) ;
#129 = CARTESIAN_POINT ( 'NONE',  ( 3.491481338843133355E-14, 1.267297016349264150E-32, 10.00000000000000000 ) ) ;
#130 = PRODUCT_RELATED_PRODUCT_CATEGORY ( 'detail', '', ( #69 ) ) ;
#131 = FACE_OUTER_BOUND ( 'NONE', #282, .T. ) ;
#132 = EDGE_CURVE ( 'NONE', #298, #298, #290, .T. ) ;
#133 = ORIENTED_EDGE ( 'NONE', *, *, #83, .T. ) ;
#134 = CARTESIAN_POINT ( 'NONE',  ( 2.444036937190193601E-13, -8.572527594031472993E-15, 70.00000000000000000 ) ) ;
#135 = CARTESIAN_POINT ( 'NONE',  ( 3.491481338843133355E-14, 1.689999999999993729, 10.00000000000000000 ) ) ;
#136 = FACE_OUTER_BOUND ( 'NONE', #190, .T. ) ;
#137 = SECURITY_CLASSIFICATION ( '', '', #10 ) ;
#138 = DIRECTION ( 'NONE',  ( -3.491481338843133355E-15, 1.224646799147353207E-16, -1.000000000000000000 ) ) ;
#139 = DIRECTION ( 'NONE',  ( -3.491481338843133355E-15, 1.224646799147353207E-16, -1.000000000000000000 ) ) ;
#140 = COORDINATED_UNIVERSAL_TIME_OFFSET ( 1, 0, .AHEAD. ) ;
#141 = CLOSED_SHELL ( 'NONE', ( #26, #204, #36, #267, #295 ) ) ;
#142 = CARTESIAN_POINT ( 'NONE',  ( 3.491481338843133355E-14, -1.224646799147353256E-15, 10.00000000000000000 ) ) ;
#143 = PERSON_AND_ORGANIZATION_ROLE ( 'creator' ) ;
#144 = ORIENTED_EDGE ( 'NONE', *, *, #149, .T. ) ;
#145 = DIRECTION ( 'NONE',  ( 4.275831445896958607E-31, 1.000000000000000000, 1.224646799147353207E-16 ) ) ;
#146 = DIRECTION ( 'NONE',  ( -4.275831445896958607E-31, -1.000000000000000000, -1.224646799147353207E-16 ) ) ;
#147 = AXIS2_PLACEMENT_3D ( 'NONE', #129, #266, #55 ) ;
#148 = APPROVAL_STATUS ( 'not_yet_approved' ) ;
#149 = EDGE_CURVE ( 'NONE', #184, #184, #221, .T. ) ;
#150 = MANIFOLD_SOLID_BREP ( 'Corps-Déplacer/Copier1[2]', #201 ) ;
#151 = CONICAL_SURFACE ( 'NONE', #124, 1.200000000000001510, 0.7853981633974566057 ) ;
#152 = APPROVAL_PERSON_ORGANIZATION ( #165, #217, #228 ) ;
#153 = PERSON ( 'UNSPECIFIED', 'UNSPECIFIED', 'UNSPECIFIED', ('UNSPECIFIED'), ('UNSPECIFIED'), ('UNSPECIFIED') ) ;
#154 = CC_DESIGN_APPROVAL ( #18, ( #137 ) ) ;
#155 = FACE_OUTER_BOUND ( 'NONE', #16, .T. ) ;
#156 = CC_DESIGN_PERSON_AND_ORGANIZATION_ASSIGNMENT ( #248, #91, ( #69 ) ) ;
#157 = DIRECTION ( 'NONE',  ( 4.275831445896958607E-31, 1.000000000000000000, 1.224646799147353454E-16 ) ) ;
#158 = CIRCLE ( 'NONE', #229, 1.689999999999995062 ) ;
#159 = AXIS2_PLACEMENT_3D ( 'NONE', #278, #233, #145 ) ;
#160 = LOCAL_TIME ( 10, 35, 35.00000000000000000, #275 ) ;
#161 = VERTEX_POINT ( 'NONE', #241 ) ;
#162 = CC_DESIGN_PERSON_AND_ORGANIZATION_ASSIGNMENT ( #97, #143, ( #30 ) ) ;
#163 = DIRECTION ( 'NONE',  ( 0.0000000000000000000, 1.000000000000000000, 0.0000000000000000000 ) ) ;
#164 = CARTESIAN_POINT ( 'NONE',  ( -6.157197282091595941E-31, 2.159654087033066361E-32, -1.763491390772181509E-16 ) ) ;
#165 = PERSON_AND_ORGANIZATION ( #153, #277 ) ;
#166 = CARTESIAN_POINT ( 'NONE',  ( -6.157197282091595941E-31, 2.159654087033066361E-32, -1.763491390772181509E-16 ) ) ;
#167 = ORIENTED_EDGE ( 'NONE', *, *, #261, .T. ) ;
#168 = CARTESIAN_POINT ( 'NONE',  ( 2.444036937190193601E-13, -8.572527594031472993E-15, 70.00000000000000000 ) ) ;
#169 = ORIENTED_EDGE ( 'NONE', *, *, #181, .T. ) ;
#170 = FACE_OUTER_BOUND ( 'NONE', #262, .T. ) ;
#171 = CIRCLE ( 'NONE', #239, 1.499999999999992895 ) ;
#172 = ORIENTED_EDGE ( 'NONE', *, *, #179, .F. ) ;
#173 = EDGE_LOOP ( 'NONE', ( #133 ) ) ;
#174 = FACE_OUTER_BOUND ( 'NONE', #292, .T. ) ;
#175 = PLANE ( 'NONE',  #147 ) ;
#176 = CONICAL_SURFACE ( 'NONE', #20, 1.439999999999994174, 0.7853981633974500554 ) ;
#177 = FACE_OUTER_BOUND ( 'NONE', #54, .T. ) ;
#178 = ORIENTED_EDGE ( 'NONE', *, *, #149, .F. ) ;
#179 = EDGE_CURVE ( 'NONE', #274, #274, #87, .T. ) ;
#180 = CARTESIAN_POINT ( 'NONE',  ( 2.444036937190193601E-13, 8.998558695971026591E-33, 70.00000000000000000 ) ) ;
#181 = EDGE_CURVE ( 'NONE', #223, #223, #158, .T. ) ;
#182 = VERTEX_POINT ( 'NONE', #63 ) ;
#183 = AXIS2_PLACEMENT_3D ( 'NONE', #15, #283, #287 ) ;
#184 = VERTEX_POINT ( 'NONE', #205 ) ;
#185 = FACE_OUTER_BOUND ( 'NONE', #94, .T. ) ;
#186 = APPROVAL_STATUS ( 'not_yet_approved' ) ;
#187 = SHAPE_DEFINITION_REPRESENTATION ( #259, #17 ) ;
#188 = ORIENTED_EDGE ( 'NONE', *, *, #291, .F. ) ;
#189 = PERSON_AND_ORGANIZATION ( #153, #277 ) ;
#190 = EDGE_LOOP ( 'NONE', ( #188 ) ) ;
#191 = DIRECTION ( 'NONE',  ( 0.0000000000000000000, 1.000000000000000000, 0.0000000000000000000 ) ) ;
#192 = DIRECTION ( 'NONE',  ( 4.275831445896958607E-31, 1.000000000000000000, 1.224646799147353207E-16 ) ) ;
#193 = PERSON_AND_ORGANIZATION ( #153, #277 ) ;
#194 = AXIS2_PLACEMENT_3D ( 'NONE', #168, #139, #281 ) ;
#195 = AXIS2_PLACEMENT_3D ( 'NONE', #251, #218, #6 ) ;
#196 = CC_DESIGN_DATE_AND_TIME_ASSIGNMENT ( #93, #34, ( #137 ) ) ;
#197 = CYLINDRICAL_SURFACE ( 'NONE', #183, 1.499999999999996891 ) ;
#198 = ORIENTED_EDGE ( 'NONE', *, *, #300, .F. ) ;
#199 = EDGE_LOOP ( 'NONE', ( #169 ) ) ;
#200 = ADVANCED_FACE ( 'NONE', ( #170, #119 ), #212, .T. ) ;
#201 = CLOSED_SHELL ( 'NONE', ( #47, #200, #64, #95, #89, #118, #260 ) ) ;
#202 = ORIENTED_EDGE ( 'NONE', *, *, #59, .T. ) ;
#203 = APPROVAL_PERSON_ORGANIZATION ( #68, #101, #74 ) ;
#204 = ADVANCED_FACE ( 'NONE', ( #252, #185 ), #207, .T. ) ;
#205 = CARTESIAN_POINT ( 'NONE',  ( 3.606382377221677889E-14, 1.499999999999991562, 10.32908965343808916 ) ) ;
#206 = CARTESIAN_POINT ( 'NONE',  ( 2.433562493173664138E-13, -8.535788190057053710E-15, 69.70000000000001705 ) ) ;
#207 = CONICAL_SURFACE ( 'NONE', #77, 1.689999999999995062, 0.5235987755983002589 ) ;
#208 = DIRECTION ( 'NONE',  ( -3.491481338843133355E-15, 1.224646799147353207E-16, -1.000000000000000000 ) ) ;
#209 = DATE_TIME_ROLE ( 'creation_date' ) ;
#210 = DIRECTION ( 'NONE',  ( 0.0000000000000000000, 1.000000000000000000, 0.0000000000000000000 ) ) ;
#211 = APPROVAL_DATE_TIME ( #117, #18 ) ;
#212 = CYLINDRICAL_SURFACE ( 'NONE', #109, 1.689999999999995062 ) ;
#213 = PERSON_AND_ORGANIZATION_ROLE ( 'creator' ) ;
#214 = AXIS2_PLACEMENT_3D ( 'NONE', #96, #246, #230 ) ;
#215 = CC_DESIGN_SECURITY_CLASSIFICATION ( #137, ( #272 ) ) ;
#216 = CALENDAR_DATE ( 2021, 2, 12 ) ;
#217 = APPROVAL ( #148, 'UNSPECIFIED' ) ;
#218 = DIRECTION ( 'NONE',  ( 0.0000000000000000000, 0.0000000000000000000, 1.000000000000000000 ) ) ;
#219 = ORIENTED_EDGE ( 'NONE', *, *, #59, .F. ) ;
#220 = DESIGN_CONTEXT ( 'detailed design', #42, 'design' ) ;
#221 = CIRCLE ( 'NONE', #271, 1.499999999999992895 ) ;
#222 = CARTESIAN_POINT ( 'NONE',  ( 2.444036937190193601E-13, 1.199999999999992628, 70.00000000000000000 ) ) ;
#223 = VERTEX_POINT ( 'NONE', #62 ) ;
#224 = AXIS2_PLACEMENT_3D ( 'NONE', #245, #45, #294 ) ;
#225 = DIRECTION ( 'NONE',  ( -3.491481338843133355E-15, 1.224646799147353207E-16, -1.000000000000000000 ) ) ;
#226 = DIRECTION ( 'NONE',  ( 0.0000000000000000000, 1.000000000000000000, 0.0000000000000000000 ) ) ;
#227 = EDGE_CURVE ( 'NONE', #182, #182, #171, .T. ) ;
#228 = APPROVAL_ROLE ( '' ) ;
#229 = AXIS2_PLACEMENT_3D ( 'NONE', #250, #49, #232 ) ;
#230 = DIRECTION ( 'NONE',  ( 0.0000000000000000000, 1.000000000000000000, 0.0000000000000000000 ) ) ;
#231 = CALENDAR_DATE ( 2021, 2, 12 ) ;
#232 = DIRECTION ( 'NONE',  ( 4.558414069555600862E-31, 1.000000000000000000, 1.283079494065689392E-16 ) ) ;
#233 = DIRECTION ( 'NONE',  ( -3.491481338843133355E-15, 1.224646799147353207E-16, -1.000000000000000000 ) ) ;
#234 = DIRECTION ( 'NONE',  ( -3.491481338843133355E-15, 1.224646799147353207E-16, -1.000000000000000000 ) ) ;
#235 = CALENDAR_DATE ( 2021, 2, 12 ) ;
#236 = ORIENTED_EDGE ( 'NONE', *, *, #83, .F. ) ;
#237 = AXIS2_PLACEMENT_3D ( 'NONE', #299, #25, #85 ) ;
#238 =( GEOMETRIC_REPRESENTATION_CONTEXT ( 3 ) GLOBAL_UNCERTAINTY_ASSIGNED_CONTEXT ( ( #56 ) ) GLOBAL_UNIT_ASSIGNED_CONTEXT ( ( #269, #297, #242 ) ) REPRESENTATION_CONTEXT ( 'NONE', 'WORKASPACE' ) );
#239 = AXIS2_PLACEMENT_3D ( 'NONE', #90, #103, #273 ) ;
#240 = CC_DESIGN_PERSON_AND_ORGANIZATION_ASSIGNMENT ( #189, #279, ( #137 ) ) ;
#241 = CARTESIAN_POINT ( 'NONE',  ( 2.433562493173664138E-13, 1.499999999999992673, 69.70000000000001705 ) ) ;
#242 =( NAMED_UNIT ( * ) SI_UNIT ( $, .STERADIAN. ) SOLID_ANGLE_UNIT ( ) );
#243 = MANIFOLD_SOLID_BREP ( 'Corps-Déplacer/Copier1[1]', #141 ) ;
#244 = DIRECTION ( 'NONE',  ( -3.491481338843133355E-15, 1.224646799147353207E-16, -1.000000000000000000 ) ) ;
#245 = CARTESIAN_POINT ( 'NONE',  ( 3.491481338843133355E-14, -1.224646799147353256E-15, 10.00000000000000000 ) ) ;
#246 = DIRECTION ( 'NONE',  ( -3.491481338843133355E-15, 1.224646799147353207E-16, -1.000000000000000000 ) ) ;
#247 = DIRECTION ( 'NONE',  ( 4.275831445896958607E-31, 1.000000000000000000, 1.224646799147353207E-16 ) ) ;
#248 = PERSON_AND_ORGANIZATION ( #153, #277 ) ;
#249 = AXIS2_PLACEMENT_3D ( 'NONE', #99, #122, #210 ) ;
#250 = CARTESIAN_POINT ( 'NONE',  ( 8.728703347107827472E-16, -3.061616997868381169E-17, 0.2499999999999998335 ) ) ;
#251 = CARTESIAN_POINT ( 'NONE',  ( 0.0000000000000000000, 0.0000000000000000000, 0.0000000000000000000 ) ) ;
#252 = FACE_BOUND ( 'NONE', #7, .T. ) ;
#253 = APPROVAL_STATUS ( 'not_yet_approved' ) ;
#254 = EDGE_LOOP ( 'NONE', ( #236 ) ) ;
#255 = FACE_OUTER_BOUND ( 'NONE', #254, .T. ) ;
#256 = DATE_AND_TIME ( #66, #264 ) ;
#257 = ORIENTED_EDGE ( 'NONE', *, *, #181, .F. ) ;
#258 = AXIS2_PLACEMENT_3D ( 'NONE', #142, #92, #191 ) ;
#259 = PRODUCT_DEFINITION_SHAPE ( 'NONE', 'NONE',  #30 ) ;
#260 = ADVANCED_FACE ( 'NONE', ( #174, #177 ), #125, .T. ) ;
#261 = EDGE_CURVE ( 'NONE', #161, #161, #104, .T. ) ;
#262 = EDGE_LOOP ( 'NONE', ( #19 ) ) ;
#263 = CIRCLE ( 'NONE', #53, 1.500000000000001110 ) ;
#264 = LOCAL_TIME ( 10, 35, 35.00000000000000000, #100 ) ;
#265 = ORIENTED_EDGE ( 'NONE', *, *, #132, .T. ) ;
#266 = DIRECTION ( 'NONE',  ( 3.491481338843133355E-15, -1.224646799147353207E-16, 1.000000000000000000 ) ) ;
#267 = ADVANCED_FACE ( 'NONE', ( #58, #303 ), #151, .T. ) ;
#268 = PLANE ( 'NONE',  #110 ) ;
#269 =( LENGTH_UNIT ( ) NAMED_UNIT ( * ) SI_UNIT ( .MILLI., .METRE. ) );
#270 = CARTESIAN_POINT ( 'NONE',  ( 0.0000000000000000000, 1.439999999999994174, 0.0000000000000000000 ) ) ;
#271 = AXIS2_PLACEMENT_3D ( 'NONE', #113, #234, #37 ) ;
#272 = PRODUCT_DEFINITION_FORMATION_WITH_SPECIFIED_SOURCE ( 'ANY', '', #69, .NOT_KNOWN. ) ;
#273 = DIRECTION ( 'NONE',  ( 0.0000000000000000000, 1.000000000000000000, 0.0000000000000000000 ) ) ;
#274 = VERTEX_POINT ( 'NONE', #60 ) ;
#275 = COORDINATED_UNIVERSAL_TIME_OFFSET ( 1, 0, .AHEAD. ) ;
#276 = CIRCLE ( 'NONE', #224, 1.689999999999995062 ) ;
#277 = ORGANIZATION ( 'UNSPECIFIED', 'UNSPECIFIED', '' ) ;
#278 = CARTESIAN_POINT ( 'NONE',  ( -3.078598641045797970E-31, 1.079827043516533181E-32, -8.817456953860907544E-17 ) ) ;
#279 = PERSON_AND_ORGANIZATION_ROLE ( 'classification_officer' ) ;
#280 = EDGE_LOOP ( 'NONE', ( #78 ) ) ;
#281 = DIRECTION ( 'NONE',  ( 4.275831445896958607E-31, 1.000000000000000000, 1.224646799147353207E-16 ) ) ;
#282 = EDGE_LOOP ( 'NONE', ( #202 ) ) ;
#283 = DIRECTION ( 'NONE',  ( -3.491481338843133355E-15, 1.224646799147353207E-16, -1.000000000000000000 ) ) ;
#284 = APPLICATION_CONTEXT ( 'configuration controlled 3d designs of mechanical parts and assemblies' ) ;
#285 = AXIS2_PLACEMENT_3D ( 'NONE', #134, #244, #31 ) ;
#286 = EDGE_LOOP ( 'NONE', ( #265 ) ) ;
#287 = DIRECTION ( 'NONE',  ( 4.275831445896958607E-31, 1.000000000000000000, 1.224646799147353454E-16 ) ) ;
#288 = ORIENTED_EDGE ( 'NONE', *, *, #261, .F. ) ;
#289 = FACE_BOUND ( 'NONE', #81, .T. ) ;
#290 = CIRCLE ( 'NONE', #128, 1.439999999999994174 ) ;
#291 = EDGE_CURVE ( 'NONE', #27, #27, #276, .T. ) ;
#292 = EDGE_LOOP ( 'NONE', ( #52 ) ) ;
#293 = CC_DESIGN_PERSON_AND_ORGANIZATION_ASSIGNMENT ( #4, #123, ( #272 ) ) ;
#294 = DIRECTION ( 'NONE',  ( 0.0000000000000000000, 1.000000000000000000, 0.0000000000000000000 ) ) ;
#295 = ADVANCED_FACE ( 'NONE', ( #155 ), #268, .F. ) ;
#296 = AXIS2_PLACEMENT_3D ( 'NONE', #206, #82, #163 ) ;
#297 =( NAMED_UNIT ( * ) PLANE_ANGLE_UNIT ( ) SI_UNIT ( $, .RADIAN. ) );
#298 = VERTEX_POINT ( 'NONE', #270 ) ;
#299 = CARTESIAN_POINT ( 'NONE',  ( 3.491481338843133355E-14, -1.224646799147353256E-15, 10.00000000000000000 ) ) ;
#300 = EDGE_CURVE ( 'NONE', #61, #61, #108, .T. ) ;
#301 = DIRECTION ( 'NONE',  ( 0.0000000000000000000, 1.000000000000000000, 0.0000000000000000000 ) ) ;
#302 = CC_DESIGN_DATE_AND_TIME_ASSIGNMENT ( #115, #209, ( #30 ) ) ;
#303 = FACE_BOUND ( 'NONE', #75, .T. ) ;
ENDSEC;
END-ISO-10303-21;
