ISO-10303-21;
HEADER;
FILE_DESCRIPTION (( 'STEP AP203' ),
    '1' );
FILE_NAME ('321563.step',
    '2021-12-02T09:35:34',
    ( '' ),
    ( '' ),
    'SwSTEP 2.0',
    'SolidWorks 2019',
    '' );
FILE_SCHEMA (( 'CONFIG_CONTROL_DESIGN' ));
ENDSEC;

DATA;
#1 = FACE_OUTER_BOUND ( 'NONE', #163, .T. ) ;
#2 = DIRECTION ( 'NONE',  ( -3.491481338843133355E-15, 1.224646799147353207E-16, -1.000000000000000000 ) ) ;
#3 = ADVANCED_FACE ( 'NONE', ( #112, #167 ), #202, .T. ) ;
#4 = VERTEX_POINT ( 'NONE', #50 ) ;
#5 = FACE_BOUND ( 'NONE', #181, .T. ) ;
#6 = PLANE ( 'NONE',  #126 ) ;
#7 = AXIS2_PLACEMENT_3D ( 'NONE', #228, #301, #281 ) ;
#8 = VERTEX_POINT ( 'NONE', #94 ) ;
#9 = ADVANCED_FACE ( 'NONE', ( #69 ), #6, .F. ) ;
#10 = EDGE_LOOP ( 'NONE', ( #53 ) ) ;
#11 = CIRCLE ( 'NONE', #210, 1.684999999999994946 ) ;
#12 =( NAMED_UNIT ( * ) SI_UNIT ( $, .STERADIAN. ) SOLID_ANGLE_UNIT ( ) );
#13 = DIRECTION ( 'NONE',  ( -3.491481338843133355E-15, 1.224646799147353207E-16, -1.000000000000000000 ) ) ;
#14 = PERSON_AND_ORGANIZATION_ROLE ( 'classification_officer' ) ;
#15 = CARTESIAN_POINT ( 'NONE',  ( 3.491481338843133355E-14, -1.224646799147353256E-15, 10.00000000000000000 ) ) ;
#16 = COORDINATED_UNIVERSAL_TIME_OFFSET ( 1, 0, .AHEAD. ) ;
#17 = CONICAL_SURFACE ( 'NONE', #248, 1.684999999999994946, 0.5235987755983008141 ) ;
#18 = CIRCLE ( 'NONE', #7, 1.200000000000001510 ) ;
#19 = ADVANCED_FACE ( 'NONE', ( #286 ), #168, .F. ) ;
#20 = APPROVAL_STATUS ( 'not_yet_approved' ) ;
#21 = APPROVAL_STATUS ( 'not_yet_approved' ) ;
#22 = VERTEX_POINT ( 'NONE', #39 ) ;
#23 = DIRECTION ( 'NONE',  ( -3.491481338843133355E-15, 1.224646799147353207E-16, -1.000000000000000000 ) ) ;
#24 = EDGE_LOOP ( 'NONE', ( #147 ) ) ;
#25 = DIRECTION ( 'NONE',  ( 3.491481338843133355E-15, -1.224646799147353207E-16, 1.000000000000000000 ) ) ;
#26 = CARTESIAN_POINT ( 'NONE',  ( 0.0000000000000000000, 0.0000000000000000000, 0.0000000000000000000 ) ) ;
#27 = ORIENTED_EDGE ( 'NONE', *, *, #103, .T. ) ;
#28 = FACE_OUTER_BOUND ( 'NONE', #230, .T. ) ;
#29 = ORIENTED_EDGE ( 'NONE', *, *, #52, .F. ) ;
#30 = FACE_OUTER_BOUND ( 'NONE', #234, .T. ) ;
#31 = EDGE_LOOP ( 'NONE', ( #47 ) ) ;
#32 = ADVANCED_FACE ( 'NONE', ( #5, #1 ), #17, .T. ) ;
#33 = CARTESIAN_POINT ( 'NONE',  ( 8.728703347107827472E-16, -3.061616997868381169E-17, 0.2499999999999998335 ) ) ;
#34 = ORIENTED_EDGE ( 'NONE', *, *, #240, .F. ) ;
#35 = CIRCLE ( 'NONE', #65, 1.434999999999994058 ) ;
#36 = CALENDAR_DATE ( 2021, 2, 12 ) ;
#37 = APPROVAL_ROLE ( '' ) ;
#38 = PRODUCT_RELATED_PRODUCT_CATEGORY ( 'detail', '', ( #86 ) ) ;
#39 = CARTESIAN_POINT ( 'NONE',  ( 2.444036937190193601E-13, 1.199999999999992628, 70.00000000000000000 ) ) ;
#40 = CARTESIAN_POINT ( 'NONE',  ( 3.491481338843133355E-14, 1.684999999999993614, 10.00000000000000000 ) ) ;
#41 = DATE_TIME_ROLE ( 'creation_date' ) ;
#42 = FACE_OUTER_BOUND ( 'NONE', #284, .T. ) ;
#43 = APPROVAL_PERSON_ORGANIZATION ( #297, #221, #213 ) ;
#44 = DIRECTION ( 'NONE',  ( 0.0000000000000000000, 1.000000000000000000, 0.0000000000000000000 ) ) ;
#45 = DIRECTION ( 'NONE',  ( -3.491481338843133355E-15, 1.224646799147353207E-16, -1.000000000000000000 ) ) ;
#46 = ADVANCED_FACE ( 'NONE', ( #282 ), #93, .F. ) ;
#47 = ORIENTED_EDGE ( 'NONE', *, *, #216, .F. ) ;
#48 = DIRECTION ( 'NONE',  ( -3.491481338843133355E-15, 1.224646799147353207E-16, -1.000000000000000000 ) ) ;
#49 = ORIENTED_EDGE ( 'NONE', *, *, #103, .F. ) ;
#50 = CARTESIAN_POINT ( 'NONE',  ( 2.444036937190193601E-13, 1.199999999999992628, 70.00000000000000000 ) ) ;
#51 = DIRECTION ( 'NONE',  ( 4.571940520800573951E-31, 1.000000000000000000, 1.286886851614846016E-16 ) ) ;
#52 = EDGE_CURVE ( 'NONE', #128, #128, #215, .T. ) ;
#53 = ORIENTED_EDGE ( 'NONE', *, *, #98, .T. ) ;
#54 = CARTESIAN_POINT ( 'NONE',  ( 3.491481338843133355E-14, -1.224646799147353256E-15, 10.00000000000000000 ) ) ;
#55 = APPLICATION_PROTOCOL_DEFINITION ( 'international standard', 'config_control_design', 1994, #84 ) ;
#56 = PERSON_AND_ORGANIZATION ( #175, #160 ) ;
#57 = AXIS2_PLACEMENT_3D ( 'NONE', #92, #70, #188 ) ;
#58 = CARTESIAN_POINT ( 'NONE',  ( 2.433562493173664138E-13, 1.499999999999992673, 69.70000000000001705 ) ) ;
#59 = DATE_TIME_ROLE ( 'classification_date' ) ;
#60 = PERSON_AND_ORGANIZATION ( #175, #160 ) ;
#61 = MANIFOLD_SOLID_BREP ( 'Corps-Déplacer/Copier1[2]', #237 ) ;
#62 = DIRECTION ( 'NONE',  ( 0.0000000000000000000, 1.000000000000000000, 0.0000000000000000000 ) ) ;
#63 = AXIS2_PLACEMENT_3D ( 'NONE', #15, #129, #293 ) ;
#64 = CARTESIAN_POINT ( 'NONE',  ( -6.135818124862110351E-31, 2.152155288119757019E-32, -1.757368156776444633E-16 ) ) ;
#65 = AXIS2_PLACEMENT_3D ( 'NONE', #179, #245, #224 ) ;
#66 = FACE_BOUND ( 'NONE', #189, .T. ) ;
#67 = ORIENTED_EDGE ( 'NONE', *, *, #216, .T. ) ;
#68 = AXIS2_PLACEMENT_3D ( 'NONE', #64, #25, #109 ) ;
#69 = FACE_OUTER_BOUND ( 'NONE', #24, .T. ) ;
#70 = DIRECTION ( 'NONE',  ( -3.491481338843133355E-15, 1.224646799147353207E-16, -1.000000000000000000 ) ) ;
#71 = MECHANICAL_CONTEXT ( 'NONE', #114, 'mechanical' ) ;
#72 = ORIENTED_EDGE ( 'NONE', *, *, #200, .F. ) ;
#73 = COORDINATED_UNIVERSAL_TIME_OFFSET ( 1, 0, .AHEAD. ) ;
#74 = AXIS2_PLACEMENT_3D ( 'NONE', #139, #184, #62 ) ;
#75 = DATE_AND_TIME ( #36, #242 ) ;
#76 = CC_DESIGN_PERSON_AND_ORGANIZATION_ASSIGNMENT ( #190, #14, ( #85 ) ) ;
#77 = APPROVAL_PERSON_ORGANIZATION ( #238, #151, #37 ) ;
#78 = VERTEX_POINT ( 'NONE', #300 ) ;
#79 = VERTEX_POINT ( 'NONE', #229 ) ;
#80 = CARTESIAN_POINT ( 'NONE',  ( 2.444036937190193601E-13, -8.572527594031472993E-15, 70.00000000000000000 ) ) ;
#81 = CC_DESIGN_PERSON_AND_ORGANIZATION_ASSIGNMENT ( #262, #130, ( #86 ) ) ;
#82 = EDGE_LOOP ( 'NONE', ( #49 ) ) ;
#83 = DIRECTION ( 'NONE',  ( 0.0000000000000000000, 1.000000000000000000, 0.0000000000000000000 ) ) ;
#84 = APPLICATION_CONTEXT ( 'configuration controlled 3d designs of mechanical parts and assemblies' ) ;
#85 = SECURITY_CLASSIFICATION ( '', '', #196 ) ;
#86 = PRODUCT ( '321563', '321563', '', ( #71 ) ) ;
#87 = CIRCLE ( 'NONE', #292, 1.500000000000001110 ) ;
#88 = CARTESIAN_POINT ( 'NONE',  ( 3.491481338843133355E-14, 1.263547616892609205E-32, 10.00000000000000000 ) ) ;
#89 = FACE_BOUND ( 'NONE', #31, .T. ) ;
#90 = APPROVAL ( #20, 'UNSPECIFIED' ) ;
#91 = VERTEX_POINT ( 'NONE', #258 ) ;
#92 = CARTESIAN_POINT ( 'NONE',  ( 2.444036937190193601E-13, 8.998558695971026591E-33, 70.00000000000000000 ) ) ;
#93 = PLANE ( 'NONE',  #57 ) ;
#94 = CARTESIAN_POINT ( 'NONE',  ( -8.552847072295026068E-47, 1.434999999999994058, 0.0000000000000000000 ) ) ;
#95 = AXIS2_PLACEMENT_3D ( 'NONE', #33, #13, #51 ) ;
#96 = DIRECTION ( 'NONE',  ( -4.275831445896958607E-31, -1.000000000000000000, -1.224646799147353207E-16 ) ) ;
#97 = EDGE_LOOP ( 'NONE', ( #287 ) ) ;
#98 = EDGE_CURVE ( 'NONE', #294, #294, #87, .T. ) ;
#99 = PERSON_AND_ORGANIZATION_ROLE ( 'creator' ) ;
#100 = CC_DESIGN_SECURITY_CLASSIFICATION ( #85, ( #125 ) ) ;
#101 = APPROVAL_DATE_TIME ( #218, #90 ) ;
#102 = CALENDAR_DATE ( 2021, 2, 12 ) ;
#103 = EDGE_CURVE ( 'NONE', #137, #137, #11, .T. ) ;
#104 = PERSON_AND_ORGANIZATION_ROLE ( 'creator' ) ;
#105 = DIRECTION ( 'NONE',  ( 1.000000000000000000, 0.0000000000000000000, 0.0000000000000000000 ) ) ;
#106 = AXIS2_PLACEMENT_3D ( 'NONE', #164, #251, #254 ) ;
#107 = PLANE ( 'NONE',  #191 ) ;
#108 = EDGE_LOOP ( 'NONE', ( #116 ) ) ;
#109 = DIRECTION ( 'NONE',  ( -4.275831445896958607E-31, -1.000000000000000000, -1.224646799147353207E-16 ) ) ;
#110 = DIRECTION ( 'NONE',  ( -3.491481338843133355E-15, 1.224646799147353207E-16, -1.000000000000000000 ) ) ;
#111 = CIRCLE ( 'NONE', #285, 1.500000000000001110 ) ;
#112 = FACE_OUTER_BOUND ( 'NONE', #185, .T. ) ;
#113 = FACE_BOUND ( 'NONE', #108, .T. ) ;
#114 = APPLICATION_CONTEXT ( 'configuration controlled 3d designs of mechanical parts and assemblies' ) ;
#115 = VERTEX_POINT ( 'NONE', #204 ) ;
#116 = ORIENTED_EDGE ( 'NONE', *, *, #240, .T. ) ;
#117 = DIRECTION ( 'NONE',  ( -3.491481338843133355E-15, 1.224646799147353207E-16, -1.000000000000000000 ) ) ;
#118 =( NAMED_UNIT ( * ) PLANE_ANGLE_UNIT ( ) SI_UNIT ( $, .RADIAN. ) );
#119 = DIRECTION ( 'NONE',  ( 0.0000000000000000000, 1.000000000000000000, 0.0000000000000000000 ) ) ;
#120 = AXIS2_PLACEMENT_3D ( 'NONE', #80, #227, #219 ) ;
#121 = DIRECTION ( 'NONE',  ( -3.491481338843133355E-15, 1.224646799147353207E-16, -1.000000000000000000 ) ) ;
#122 = DATE_AND_TIME ( #222, #171 ) ;
#123 = FACE_BOUND ( 'NONE', #165, .T. ) ;
#124 = PERSON_AND_ORGANIZATION_ROLE ( 'design_supplier' ) ;
#125 = PRODUCT_DEFINITION_FORMATION_WITH_SPECIFIED_SOURCE ( 'ANY', '', #86, .NOT_KNOWN. ) ;
#126 = AXIS2_PLACEMENT_3D ( 'NONE', #236, #117, #205 ) ;
#127 = CIRCLE ( 'NONE', #74, 1.499999999999992895 ) ;
#128 = VERTEX_POINT ( 'NONE', #192 ) ;
#129 = DIRECTION ( 'NONE',  ( -3.491481338843133355E-15, 1.224646799147353207E-16, -1.000000000000000000 ) ) ;
#130 = PERSON_AND_ORGANIZATION_ROLE ( 'design_owner' ) ;
#131 = CONICAL_SURFACE ( 'NONE', #106, 1.200000000000001510, 0.7853981633974566057 ) ;
#132 = CARTESIAN_POINT ( 'NONE',  ( 3.491481338843133355E-14, -1.224646799147353256E-15, 10.00000000000000000 ) ) ;
#133 = COORDINATED_UNIVERSAL_TIME_OFFSET ( 1, 0, .AHEAD. ) ;
#134 = CYLINDRICAL_SURFACE ( 'NONE', #257, 1.499999999999996891 ) ;
#135 = ORIENTED_EDGE ( 'NONE', *, *, #206, .F. ) ;
#136 = DIRECTION ( 'NONE',  ( -3.491481338843133355E-15, 1.224646799147353207E-16, -1.000000000000000000 ) ) ;
#137 = VERTEX_POINT ( 'NONE', #40 ) ;
#138 = EDGE_CURVE ( 'NONE', #22, #22, #156, .T. ) ;
#139 = CARTESIAN_POINT ( 'NONE',  ( 3.603358665685399753E-14, -1.263888082980174962E-15, 10.32042939940024517 ) ) ;
#140 = AXIS2_PLACEMENT_3D ( 'NONE', #132, #45, #271 ) ;
#141 = DIRECTION ( 'NONE',  ( 4.275831445896958607E-31, 1.000000000000000000, 1.224646799147353454E-16 ) ) ;
#142 = CARTESIAN_POINT ( 'NONE',  ( 3.603358665685399753E-14, -1.263888082980174962E-15, 10.32042939940024517 ) ) ;
#143 = ORIENTED_EDGE ( 'NONE', *, *, #138, .T. ) ;
#144 = CYLINDRICAL_SURFACE ( 'NONE', #197, 1.684999999999994946 ) ;
#145 = PRODUCT_DEFINITION_SHAPE ( 'NONE', 'NONE',  #252 ) ;
#146 = EDGE_LOOP ( 'NONE', ( #34 ) ) ;
#147 = ORIENTED_EDGE ( 'NONE', *, *, #138, .F. ) ;
#148 = EDGE_CURVE ( 'NONE', #78, #78, #268, .T. ) ;
#149 = EDGE_LOOP ( 'NONE', ( #27 ) ) ;
#150 = APPROVAL_DATE_TIME ( #220, #151 ) ;
#151 = APPROVAL ( #153, 'UNSPECIFIED' ) ;
#152 = LOCAL_TIME ( 10, 35, 34.00000000000000000, #174 ) ;
#153 = APPROVAL_STATUS ( 'not_yet_approved' ) ;
#154 = CC_DESIGN_APPROVAL ( #90, ( #85 ) ) ;
#155 = CLOSED_SHELL ( 'NONE', ( #19, #296, #158, #283, #46 ) ) ;
#156 = CIRCLE ( 'NONE', #120, 1.200000000000001510 ) ;
#157 = APPLICATION_PROTOCOL_DEFINITION ( 'international standard', 'config_control_design', 1994, #114 ) ;
#158 = ADVANCED_FACE ( 'NONE', ( #243, #42 ), #134, .T. ) ;
#159 = FACE_OUTER_BOUND ( 'NONE', #278, .T. ) ;
#160 = ORGANIZATION ( 'UNSPECIFIED', 'UNSPECIFIED', '' ) ;
#161 = AXIS2_PLACEMENT_3D ( 'NONE', #142, #110, #44 ) ;
#162 = DESIGN_CONTEXT ( 'detailed design', #84, 'design' ) ;
#163 = EDGE_LOOP ( 'NONE', ( #289 ) ) ;
#164 = CARTESIAN_POINT ( 'NONE',  ( 2.444036937190193601E-13, -8.572527594031472993E-15, 70.00000000000000000 ) ) ;
#165 = EDGE_LOOP ( 'NONE', ( #182 ) ) ;
#166 = FACE_OUTER_BOUND ( 'NONE', #253, .T. ) ;
#167 = FACE_OUTER_BOUND ( 'NONE', #10, .T. ) ;
#168 = PLANE ( 'NONE',  #173 ) ;
#169 = ADVANCED_FACE ( 'NONE', ( #178, #30 ), #144, .T. ) ;
#170 = DIRECTION ( 'NONE',  ( -3.491481338843133355E-15, 1.224646799147353207E-16, -1.000000000000000000 ) ) ;
#171 = LOCAL_TIME ( 10, 35, 34.00000000000000000, #273 ) ;
#172 = CALENDAR_DATE ( 2021, 2, 12 ) ;
#173 = AXIS2_PLACEMENT_3D ( 'NONE', #88, #207, #96 ) ;
#174 = COORDINATED_UNIVERSAL_TIME_OFFSET ( 1, 0, .AHEAD. ) ;
#175 = PERSON ( 'UNSPECIFIED', 'UNSPECIFIED', 'UNSPECIFIED', ('UNSPECIFIED'), ('UNSPECIFIED'), ('UNSPECIFIED') ) ;
#176 = PERSON_AND_ORGANIZATION ( #175, #160 ) ;
#177 = CC_DESIGN_PERSON_AND_ORGANIZATION_ASSIGNMENT ( #212, #124, ( #125 ) ) ;
#178 = FACE_OUTER_BOUND ( 'NONE', #97, .T. ) ;
#179 = CARTESIAN_POINT ( 'NONE',  ( -6.135818124862110351E-31, 2.152155288119757019E-32, -1.757368156776444633E-16 ) ) ;
#180 = UNCERTAINTY_MEASURE_WITH_UNIT (LENGTH_MEASURE( 1.000000000000000082E-05 ), #187, 'distance_accuracy_value', 'NONE');
#181 = EDGE_LOOP ( 'NONE', ( #223 ) ) ;
#182 = ORIENTED_EDGE ( 'NONE', *, *, #206, .T. ) ;
#183 = DIRECTION ( 'NONE',  ( -3.491481338843133355E-15, 1.224646799147353207E-16, -1.000000000000000000 ) ) ;
#184 = DIRECTION ( 'NONE',  ( -3.491481338843133355E-15, 1.224646799147353207E-16, -1.000000000000000000 ) ) ;
#185 = EDGE_LOOP ( 'NONE', ( #72 ) ) ;
#186 = CARTESIAN_POINT ( 'NONE',  ( 2.433562493173664138E-13, -8.535788190057053710E-15, 69.70000000000001705 ) ) ;
#187 =( LENGTH_UNIT ( ) NAMED_UNIT ( * ) SI_UNIT ( .MILLI., .METRE. ) );
#188 = DIRECTION ( 'NONE',  ( 4.275831445896958607E-31, 1.000000000000000000, 1.224646799147353207E-16 ) ) ;
#189 = EDGE_LOOP ( 'NONE', ( #143 ) ) ;
#190 = PERSON_AND_ORGANIZATION ( #175, #160 ) ;
#191 = AXIS2_PLACEMENT_3D ( 'NONE', #249, #48, #225 ) ;
#192 = CARTESIAN_POINT ( 'NONE',  ( 8.728703347107835360E-16, 1.684999999999994946, 0.2500000000000000555 ) ) ;
#193 = CC_DESIGN_DATE_AND_TIME_ASSIGNMENT ( #75, #41, ( #252 ) ) ;
#194 = SHAPE_DEFINITION_REPRESENTATION ( #145, #267 ) ;
#195 = LOCAL_TIME ( 10, 35, 34.00000000000000000, #16 ) ;
#196 = SECURITY_CLASSIFICATION_LEVEL ( 'unclassified' ) ;
#197 = AXIS2_PLACEMENT_3D ( 'NONE', #26, #23, #275 ) ;
#198 = ORIENTED_EDGE ( 'NONE', *, *, #52, .T. ) ;
#199 = DIRECTION ( 'NONE',  ( -3.491481338843133355E-15, 1.224646799147353207E-16, -1.000000000000000000 ) ) ;
#200 = EDGE_CURVE ( 'NONE', #79, #79, #127, .T. ) ;
#201 = AXIS2_PLACEMENT_3D ( 'NONE', #203, #2, #266 ) ;
#202 = CYLINDRICAL_SURFACE ( 'NONE', #274, 1.499999999999996891 ) ;
#203 = CARTESIAN_POINT ( 'NONE',  ( 2.444036937190193601E-13, -8.572527594031472993E-15, 70.00000000000000000 ) ) ;
#204 = CARTESIAN_POINT ( 'NONE',  ( 3.603358665685399753E-14, 1.499999999999991562, 10.32042939940024517 ) ) ;
#205 = DIRECTION ( 'NONE',  ( 4.275831445896958607E-31, 1.000000000000000000, 1.224646799147353207E-16 ) ) ;
#206 = EDGE_CURVE ( 'NONE', #115, #115, #295, .T. ) ;
#207 = DIRECTION ( 'NONE',  ( 3.491481338843133355E-15, -1.224646799147353207E-16, 1.000000000000000000 ) ) ;
#208 = CC_DESIGN_APPROVAL ( #221, ( #125 ) ) ;
#209 = CARTESIAN_POINT ( 'NONE',  ( 3.491481338843133355E-14, -1.224646799147353256E-15, 10.00000000000000000 ) ) ;
#210 = AXIS2_PLACEMENT_3D ( 'NONE', #209, #170, #260 ) ;
#211 = ORIENTED_EDGE ( 'NONE', *, *, #98, .F. ) ;
#212 = PERSON_AND_ORGANIZATION ( #175, #160 ) ;
#213 = APPROVAL_ROLE ( '' ) ;
#214 =( GEOMETRIC_REPRESENTATION_CONTEXT ( 3 ) GLOBAL_UNCERTAINTY_ASSIGNED_CONTEXT ( ( #180 ) ) GLOBAL_UNIT_ASSIGNED_CONTEXT ( ( #187, #118, #12 ) ) REPRESENTATION_CONTEXT ( 'NONE', 'WORKASPACE' ) );
#215 = CIRCLE ( 'NONE', #95, 1.684999999999994946 ) ;
#216 = EDGE_CURVE ( 'NONE', #8, #8, #35, .T. ) ;
#217 = CONICAL_SURFACE ( 'NONE', #63, 1.684999999999994946, 0.5235987755983008141 ) ;
#218 = DATE_AND_TIME ( #272, #195 ) ;
#219 = DIRECTION ( 'NONE',  ( 0.0000000000000000000, 1.000000000000000000, 0.0000000000000000000 ) ) ;
#220 = DATE_AND_TIME ( #102, #152 ) ;
#221 = APPROVAL ( #21, 'UNSPECIFIED' ) ;
#222 = CALENDAR_DATE ( 2021, 2, 12 ) ;
#223 = ORIENTED_EDGE ( 'NONE', *, *, #200, .T. ) ;
#224 = DIRECTION ( 'NONE',  ( 4.275831445896957731E-31, 1.000000000000000000, 1.224646799147353207E-16 ) ) ;
#225 = DIRECTION ( 'NONE',  ( 4.275831445896958607E-31, 1.000000000000000000, 1.224646799147353207E-16 ) ) ;
#226 = CC_DESIGN_DATE_AND_TIME_ASSIGNMENT ( #263, #59, ( #85 ) ) ;
#227 = DIRECTION ( 'NONE',  ( -3.491481338843133355E-15, 1.224646799147353207E-16, -1.000000000000000000 ) ) ;
#228 = CARTESIAN_POINT ( 'NONE',  ( 2.444036937190193601E-13, -8.572527594031472993E-15, 70.00000000000000000 ) ) ;
#229 = CARTESIAN_POINT ( 'NONE',  ( 3.603358665685399753E-14, 1.499999999999991562, 10.32042939940024517 ) ) ;
#230 = EDGE_LOOP ( 'NONE', ( #250 ) ) ;
#231 = CARTESIAN_POINT ( 'NONE',  ( 2.433562493173664138E-13, -8.535788190057053710E-15, 69.70000000000001705 ) ) ;
#232 = CARTESIAN_POINT ( 'NONE',  ( 0.0000000000000000000, 0.0000000000000000000, 0.0000000000000000000 ) ) ;
#233 = ADVANCED_FACE ( 'NONE', ( #159 ), #107, .T. ) ;
#234 = EDGE_LOOP ( 'NONE', ( #29 ) ) ;
#235 = DIRECTION ( 'NONE',  ( 0.0000000000000000000, 1.000000000000000000, 0.0000000000000000000 ) ) ;
#236 = CARTESIAN_POINT ( 'NONE',  ( 2.444036937190193601E-13, -8.572527594031472993E-15, 70.00000000000000000 ) ) ;
#237 = CLOSED_SHELL ( 'NONE', ( #32, #169, #244, #233, #9, #276, #3 ) ) ;
#238 = PERSON_AND_ORGANIZATION ( #175, #160 ) ;
#239 = APPROVAL_ROLE ( '' ) ;
#240 = EDGE_CURVE ( 'NONE', #4, #4, #18, .T. ) ;
#241 = DIRECTION ( 'NONE',  ( 0.0000000000000000000, 0.0000000000000000000, 1.000000000000000000 ) ) ;
#242 = LOCAL_TIME ( 10, 35, 34.00000000000000000, #133 ) ;
#243 = FACE_OUTER_BOUND ( 'NONE', #256, .T. ) ;
#244 = ADVANCED_FACE ( 'NONE', ( #246, #89 ), #261, .T. ) ;
#245 = DIRECTION ( 'NONE',  ( -3.491481338843133355E-15, 1.224646799147353207E-16, -1.000000000000000000 ) ) ;
#246 = FACE_OUTER_BOUND ( 'NONE', #302, .T. ) ;
#247 = CC_DESIGN_PERSON_AND_ORGANIZATION_ASSIGNMENT ( #176, #99, ( #252 ) ) ;
#248 = AXIS2_PLACEMENT_3D ( 'NONE', #54, #183, #235 ) ;
#249 = CARTESIAN_POINT ( 'NONE',  ( -3.067909062431055175E-31, 1.076077644059878509E-32, -8.786840783882223165E-17 ) ) ;
#250 = ORIENTED_EDGE ( 'NONE', *, *, #264, .F. ) ;
#251 = DIRECTION ( 'NONE',  ( -3.491481338843133355E-15, 1.224646799147353207E-16, -1.000000000000000000 ) ) ;
#252 = PRODUCT_DEFINITION ( 'UNKNOWN', '', #125, #162 ) ;
#253 = EDGE_LOOP ( 'NONE', ( #211 ) ) ;
#254 = DIRECTION ( 'NONE',  ( 0.0000000000000000000, 1.000000000000000000, 0.0000000000000000000 ) ) ;
#255 = CC_DESIGN_APPROVAL ( #151, ( #252 ) ) ;
#256 = EDGE_LOOP ( 'NONE', ( #135 ) ) ;
#257 = AXIS2_PLACEMENT_3D ( 'NONE', #277, #136, #299 ) ;
#258 = CARTESIAN_POINT ( 'NONE',  ( 2.433562493173664138E-13, 1.499999999999992673, 69.70000000000001705 ) ) ;
#259 = DIRECTION ( 'NONE',  ( -3.491481338843133355E-15, 1.224646799147353207E-16, -1.000000000000000000 ) ) ;
#260 = DIRECTION ( 'NONE',  ( 0.0000000000000000000, 1.000000000000000000, 0.0000000000000000000 ) ) ;
#261 = CONICAL_SURFACE ( 'NONE', #68, 1.434999999999994058, 0.7853981633974500554 ) ;
#262 = PERSON_AND_ORGANIZATION ( #175, #160 ) ;
#263 = DATE_AND_TIME ( #172, #298 ) ;
#264 = EDGE_CURVE ( 'NONE', #91, #91, #111, .T. ) ;
#265 = APPROVAL_PERSON_ORGANIZATION ( #56, #90, #239 ) ;
#266 = DIRECTION ( 'NONE',  ( 0.0000000000000000000, 1.000000000000000000, 0.0000000000000000000 ) ) ;
#267 = ADVANCED_BREP_SHAPE_REPRESENTATION ( '321563', ( #269, #61, #279 ), #214 ) ;
#268 = CIRCLE ( 'NONE', #140, 1.684999999999994946 ) ;
#269 = MANIFOLD_SOLID_BREP ( 'Corps-Déplacer/Copier1[1]', #155 ) ;
#270 = CARTESIAN_POINT ( 'NONE',  ( 0.0000000000000000000, 0.0000000000000000000, 0.0000000000000000000 ) ) ;
#271 = DIRECTION ( 'NONE',  ( 0.0000000000000000000, 1.000000000000000000, 0.0000000000000000000 ) ) ;
#272 = CALENDAR_DATE ( 2021, 2, 12 ) ;
#273 = COORDINATED_UNIVERSAL_TIME_OFFSET ( 1, 0, .AHEAD. ) ;
#274 = AXIS2_PLACEMENT_3D ( 'NONE', #232, #121, #141 ) ;
#275 = DIRECTION ( 'NONE',  ( 4.275831445896958607E-31, 1.000000000000000000, 1.224646799147353207E-16 ) ) ;
#276 = ADVANCED_FACE ( 'NONE', ( #166, #66 ), #131, .T. ) ;
#277 = CARTESIAN_POINT ( 'NONE',  ( 0.0000000000000000000, 0.0000000000000000000, 0.0000000000000000000 ) ) ;
#278 = EDGE_LOOP ( 'NONE', ( #67 ) ) ;
#279 = AXIS2_PLACEMENT_3D ( 'NONE', #270, #241, #105 ) ;
#280 = ORIENTED_EDGE ( 'NONE', *, *, #264, .T. ) ;
#281 = DIRECTION ( 'NONE',  ( 0.0000000000000000000, 1.000000000000000000, 0.0000000000000000000 ) ) ;
#282 = FACE_OUTER_BOUND ( 'NONE', #146, .T. ) ;
#283 = ADVANCED_FACE ( 'NONE', ( #28, #113 ), #303, .T. ) ;
#284 = EDGE_LOOP ( 'NONE', ( #280 ) ) ;
#285 = AXIS2_PLACEMENT_3D ( 'NONE', #231, #199, #83 ) ;
#286 = FACE_OUTER_BOUND ( 'NONE', #149, .T. ) ;
#287 = ORIENTED_EDGE ( 'NONE', *, *, #148, .T. ) ;
#288 = CC_DESIGN_PERSON_AND_ORGANIZATION_ASSIGNMENT ( #60, #104, ( #125 ) ) ;
#289 = ORIENTED_EDGE ( 'NONE', *, *, #148, .F. ) ;
#290 = FACE_OUTER_BOUND ( 'NONE', #82, .T. ) ;
#291 = APPROVAL_DATE_TIME ( #122, #221 ) ;
#292 = AXIS2_PLACEMENT_3D ( 'NONE', #186, #259, #119 ) ;
#293 = DIRECTION ( 'NONE',  ( 0.0000000000000000000, 1.000000000000000000, 0.0000000000000000000 ) ) ;
#294 = VERTEX_POINT ( 'NONE', #58 ) ;
#295 = CIRCLE ( 'NONE', #161, 1.499999999999992895 ) ;
#296 = ADVANCED_FACE ( 'NONE', ( #123, #290 ), #217, .T. ) ;
#297 = PERSON_AND_ORGANIZATION ( #175, #160 ) ;
#298 = LOCAL_TIME ( 10, 35, 34.00000000000000000, #73 ) ;
#299 = DIRECTION ( 'NONE',  ( 4.275831445896958607E-31, 1.000000000000000000, 1.224646799147353454E-16 ) ) ;
#300 = CARTESIAN_POINT ( 'NONE',  ( 3.491481338843133355E-14, 1.684999999999993614, 10.00000000000000000 ) ) ;
#301 = DIRECTION ( 'NONE',  ( -3.491481338843133355E-15, 1.224646799147353207E-16, -1.000000000000000000 ) ) ;
#302 = EDGE_LOOP ( 'NONE', ( #198 ) ) ;
#303 = CONICAL_SURFACE ( 'NONE', #201, 1.200000000000001510, 0.7853981633974566057 ) ;
ENDSEC;
END-ISO-10303-21;
