ISO-10303-21;
HEADER;
FILE_DESCRIPTION (( 'STEP AP203' ),
    '1' );
FILE_NAME ('321562.step',
    '2021-12-02T09:35:34',
    ( '' ),
    ( '' ),
    'SwSTEP 2.0',
    'SolidWorks 2019',
    '' );
FILE_SCHEMA (( 'CONFIG_CONTROL_DESIGN' ));
ENDSEC;

DATA;
#1 = LOCAL_TIME ( 10, 35, 34.00000000000000000, #159 ) ;
#2 = DIRECTION ( 'NONE',  ( -3.491481338843133355E-15, 1.224646799147353207E-16, -1.000000000000000000 ) ) ;
#3 = CYLINDRICAL_SURFACE ( 'NONE', #285, 1.679999999999995053 ) ;
#4 = CARTESIAN_POINT ( 'NONE',  ( 3.600334954149122880E-14, -1.262827507741450313E-15, 10.31176914536240119 ) ) ;
#5 = AXIS2_PLACEMENT_3D ( 'NONE', #118, #121, #93 ) ;
#6 = PERSON_AND_ORGANIZATION ( #204, #237 ) ;
#7 = VERTEX_POINT ( 'NONE', #126 ) ;
#8 = APPLICATION_PROTOCOL_DEFINITION ( 'international standard', 'config_control_design', 1994, #86 ) ;
#9 = ADVANCED_FACE ( 'NONE', ( #14, #172 ), #140, .T. ) ;
#10 = CARTESIAN_POINT ( 'NONE',  ( 2.433562493173664138E-13, -8.535788190057053710E-15, 69.70000000000001705 ) ) ;
#11 = CALENDAR_DATE ( 2021, 2, 12 ) ;
#12 = EDGE_LOOP ( 'NONE', ( #110 ) ) ;
#13 = PRODUCT_DEFINITION_SHAPE ( 'NONE', 'NONE',  #209 ) ;
#14 = FACE_OUTER_BOUND ( 'NONE', #58, .T. ) ;
#15 = DESIGN_CONTEXT ( 'detailed design', #86, 'design' ) ;
#16 = COORDINATED_UNIVERSAL_TIME_OFFSET ( 1, 0, .AHEAD. ) ;
#17 = DATE_TIME_ROLE ( 'classification_date' ) ;
#18 = AXIS2_PLACEMENT_3D ( 'NONE', #25, #2, #148 ) ;
#19 = DIRECTION ( 'NONE',  ( -3.491481338843133355E-15, 1.224646799147353207E-16, -1.000000000000000000 ) ) ;
#20 = DIRECTION ( 'NONE',  ( 4.275831445896958607E-31, 1.000000000000000000, 1.224646799147353454E-16 ) ) ;
#21 = ADVANCED_FACE ( 'NONE', ( #142, #249 ), #68, .T. ) ;
#22 = CIRCLE ( 'NONE', #264, 1.679999999999995053 ) ;
#23 = CARTESIAN_POINT ( 'NONE',  ( 3.491481338843133355E-14, -1.224646799147353256E-15, 10.00000000000000000 ) ) ;
#24 = LOCAL_TIME ( 10, 35, 34.00000000000000000, #268 ) ;
#25 = CARTESIAN_POINT ( 'NONE',  ( 2.444036937190193601E-13, 8.998558695971026591E-33, 70.00000000000000000 ) ) ;
#26 = CC_DESIGN_DATE_AND_TIME_ASSIGNMENT ( #160, #44, ( #209 ) ) ;
#27 = FACE_OUTER_BOUND ( 'NONE', #270, .T. ) ;
#28 = DIRECTION ( 'NONE',  ( 0.0000000000000000000, 1.000000000000000000, 0.0000000000000000000 ) ) ;
#29 = AXIS2_PLACEMENT_3D ( 'NONE', #4, #101, #28 ) ;
#30 = CARTESIAN_POINT ( 'NONE',  ( 8.728703347107835360E-16, 1.679999999999995053, 0.2500000000000000555 ) ) ;
#31 = PERSON_AND_ORGANIZATION ( #204, #237 ) ;
#32 = DIRECTION ( 'NONE',  ( 1.000000000000000000, 0.0000000000000000000, 0.0000000000000000000 ) ) ;
#33 = FACE_OUTER_BOUND ( 'NONE', #228, .T. ) ;
#34 = ORIENTED_EDGE ( 'NONE', *, *, #258, .T. ) ;
#35 = FACE_BOUND ( 'NONE', #84, .T. ) ;
#36 = EDGE_LOOP ( 'NONE', ( #188 ) ) ;
#37 = EDGE_LOOP ( 'NONE', ( #286 ) ) ;
#38 = EDGE_CURVE ( 'NONE', #256, #256, #272, .T. ) ;
#39 = CALENDAR_DATE ( 2021, 2, 12 ) ;
#40 = AXIS2_PLACEMENT_3D ( 'NONE', #212, #75, #216 ) ;
#41 = AXIS2_PLACEMENT_3D ( 'NONE', #275, #280, #282 ) ;
#42 = CARTESIAN_POINT ( 'NONE',  ( 3.491481338843133355E-14, -1.224646799147353256E-15, 10.00000000000000000 ) ) ;
#43 = PRODUCT_DEFINITION_FORMATION_WITH_SPECIFIED_SOURCE ( 'ANY', '', #98, .NOT_KNOWN. ) ;
#44 = DATE_TIME_ROLE ( 'creation_date' ) ;
#45 = DIRECTION ( 'NONE',  ( 4.275831445896958607E-31, 1.000000000000000000, 1.224646799147353454E-16 ) ) ;
#46 = PERSON_AND_ORGANIZATION_ROLE ( 'creator' ) ;
#47 = DIRECTION ( 'NONE',  ( 0.0000000000000000000, 1.000000000000000000, 0.0000000000000000000 ) ) ;
#48 = FACE_OUTER_BOUND ( 'NONE', #203, .T. ) ;
#49 = APPROVAL_PERSON_ORGANIZATION ( #187, #274, #277 ) ;
#50 = DIRECTION ( 'NONE',  ( -3.491481338843133355E-15, 1.224646799147353207E-16, -1.000000000000000000 ) ) ;
#51 = APPROVAL ( #62, 'UNSPECIFIED' ) ;
#52 = VERTEX_POINT ( 'NONE', #259 ) ;
#53 = EDGE_CURVE ( 'NONE', #241, #241, #261, .T. ) ;
#54 = VERTEX_POINT ( 'NONE', #30 ) ;
#55 = CARTESIAN_POINT ( 'NONE',  ( 2.433562493173664138E-13, 1.499999999999992673, 69.70000000000001705 ) ) ;
#56 = ORIENTED_EDGE ( 'NONE', *, *, #236, .F. ) ;
#57 = DIRECTION ( 'NONE',  ( -3.491481338843133355E-15, 1.224646799147353207E-16, -1.000000000000000000 ) ) ;
#58 = EDGE_LOOP ( 'NONE', ( #104 ) ) ;
#59 = LOCAL_TIME ( 10, 35, 34.00000000000000000, #61 ) ;
#60 = ORIENTED_EDGE ( 'NONE', *, *, #111, .F. ) ;
#61 = COORDINATED_UNIVERSAL_TIME_OFFSET ( 1, 0, .AHEAD. ) ;
#62 = APPROVAL_STATUS ( 'not_yet_approved' ) ;
#63 = UNCERTAINTY_MEASURE_WITH_UNIT (LENGTH_MEASURE( 1.000000000000000082E-05 ), #102, 'distance_accuracy_value', 'NONE');
#64 = ADVANCED_FACE ( 'NONE', ( #96 ), #194, .F. ) ;
#65 = PERSON_AND_ORGANIZATION ( #204, #237 ) ;
#66 = MANIFOLD_SOLID_BREP ( 'Corps-Déplacer/Copier1[1]', #117 ) ;
#67 = ORIENTED_EDGE ( 'NONE', *, *, #258, .F. ) ;
#68 = CONICAL_SURFACE ( 'NONE', #5, 1.679999999999995053, 0.5235987755983000369 ) ;
#69 = CARTESIAN_POINT ( 'NONE',  ( 3.491481338843133355E-14, 1.259798217435954807E-32, 10.00000000000000000 ) ) ;
#70 = AXIS2_PLACEMENT_3D ( 'NONE', #284, #200, #81 ) ;
#71 = ADVANCED_FACE ( 'NONE', ( #78, #192 ), #178, .T. ) ;
#72 = CARTESIAN_POINT ( 'NONE',  ( 0.0000000000000000000, 0.0000000000000000000, 0.0000000000000000000 ) ) ;
#73 = FACE_OUTER_BOUND ( 'NONE', #37, .T. ) ;
#74 = CARTESIAN_POINT ( 'NONE',  ( 0.0000000000000000000, 0.0000000000000000000, 0.0000000000000000000 ) ) ;
#75 = DIRECTION ( 'NONE',  ( -3.491481338843133355E-15, 1.224646799147353207E-16, -1.000000000000000000 ) ) ;
#76 = MANIFOLD_SOLID_BREP ( 'Corps-Déplacer/Copier1[2]', #245 ) ;
#77 = AXIS2_PLACEMENT_3D ( 'NONE', #107, #205, #287 ) ;
#78 = FACE_OUTER_BOUND ( 'NONE', #12, .T. ) ;
#79 = ADVANCED_FACE ( 'NONE', ( #27 ), #303, .F. ) ;
#80 = VERTEX_POINT ( 'NONE', #222 ) ;
#81 = DIRECTION ( 'NONE',  ( 4.275831445896959482E-31, 1.000000000000000000, 1.224646799147353207E-16 ) ) ;
#82 = AXIS2_PLACEMENT_3D ( 'NONE', #85, #127, #218 ) ;
#83 = SHAPE_DEFINITION_REPRESENTATION ( #13, #156 ) ;
#84 = EDGE_LOOP ( 'NONE', ( #263 ) ) ;
#85 = CARTESIAN_POINT ( 'NONE',  ( 2.444036937190193601E-13, -8.572527594031472993E-15, 70.00000000000000000 ) ) ;
#86 = APPLICATION_CONTEXT ( 'configuration controlled 3d designs of mechanical parts and assemblies' ) ;
#87 = DIRECTION ( 'NONE',  ( 4.275831445896959482E-31, 1.000000000000000000, 1.224646799147353207E-16 ) ) ;
#88 = ORIENTED_EDGE ( 'NONE', *, *, #162, .F. ) ;
#89 = APPROVAL_STATUS ( 'not_yet_approved' ) ;
#90 = CIRCLE ( 'NONE', #77, 1.200000000000001510 ) ;
#91 = PERSON_AND_ORGANIZATION_ROLE ( 'creator' ) ;
#92 = ORIENTED_EDGE ( 'NONE', *, *, #95, .F. ) ;
#93 = DIRECTION ( 'NONE',  ( 0.0000000000000000000, 1.000000000000000000, 0.0000000000000000000 ) ) ;
#94 = DIRECTION ( 'NONE',  ( -3.491481338843133355E-15, 1.224646799147353207E-16, -1.000000000000000000 ) ) ;
#95 = EDGE_CURVE ( 'NONE', #176, #176, #219, .T. ) ;
#96 = FACE_OUTER_BOUND ( 'NONE', #108, .T. ) ;
#97 = PERSON_AND_ORGANIZATION ( #204, #237 ) ;
#98 = PRODUCT ( '321562', '321562', '', ( #152 ) ) ;
#99 = DIRECTION ( 'NONE',  ( 0.0000000000000000000, 1.000000000000000000, 0.0000000000000000000 ) ) ;
#100 = CC_DESIGN_SECURITY_CLASSIFICATION ( #173, ( #43 ) ) ;
#101 = DIRECTION ( 'NONE',  ( -3.491481338843133355E-15, 1.224646799147353207E-16, -1.000000000000000000 ) ) ;
#102 =( LENGTH_UNIT ( ) NAMED_UNIT ( * ) SI_UNIT ( .MILLI., .METRE. ) );
#103 = AXIS2_PLACEMENT_3D ( 'NONE', #23, #94, #169 ) ;
#104 = ORIENTED_EDGE ( 'NONE', *, *, #38, .F. ) ;
#105 = CIRCLE ( 'NONE', #133, 1.200000000000001510 ) ;
#106 = CC_DESIGN_DATE_AND_TIME_ASSIGNMENT ( #265, #17, ( #173 ) ) ;
#107 = CARTESIAN_POINT ( 'NONE',  ( 2.444036937190193601E-13, -8.572527594031472993E-15, 70.00000000000000000 ) ) ;
#108 = EDGE_LOOP ( 'NONE', ( #60 ) ) ;
#109 = ADVANCED_FACE ( 'NONE', ( #279, #168 ), #164, .T. ) ;
#110 = ORIENTED_EDGE ( 'NONE', *, *, #162, .T. ) ;
#111 = EDGE_CURVE ( 'NONE', #80, #80, #105, .T. ) ;
#112 = CC_DESIGN_APPROVAL ( #51, ( #173 ) ) ;
#113 = COORDINATED_UNIVERSAL_TIME_OFFSET ( 1, 0, .AHEAD. ) ;
#114 = DIRECTION ( 'NONE',  ( -3.491481338843133355E-15, 1.224646799147353207E-16, -1.000000000000000000 ) ) ;
#115 = DIRECTION ( 'NONE',  ( -3.491481338843133355E-15, 1.224646799147353207E-16, -1.000000000000000000 ) ) ;
#116 = FACE_OUTER_BOUND ( 'NONE', #240, .T. ) ;
#117 = CLOSED_SHELL ( 'NONE', ( #79, #21, #109, #9, #189 ) ) ;
#118 = CARTESIAN_POINT ( 'NONE',  ( 3.491481338843133355E-14, -1.224646799147353256E-15, 10.00000000000000000 ) ) ;
#119 = AXIS2_PLACEMENT_3D ( 'NONE', #72, #251, #45 ) ;
#120 = EDGE_CURVE ( 'NONE', #144, #144, #180, .T. ) ;
#121 = DIRECTION ( 'NONE',  ( -3.491481338843133355E-15, 1.224646799147353207E-16, -1.000000000000000000 ) ) ;
#122 = AXIS2_PLACEMENT_3D ( 'NONE', #42, #50, #138 ) ;
#123 = CARTESIAN_POINT ( 'NONE',  ( 3.491481338843133355E-14, 1.679999999999993721, 10.00000000000000000 ) ) ;
#124 = FACE_OUTER_BOUND ( 'NONE', #243, .T. ) ;
#125 = ADVANCED_FACE ( 'NONE', ( #48, #135 ), #137, .T. ) ;
#126 = CARTESIAN_POINT ( 'NONE',  ( 3.600334954149122880E-14, 1.499999999999991562, 10.31176914536240119 ) ) ;
#127 = DIRECTION ( 'NONE',  ( -3.491481338843133355E-15, 1.224646799147353207E-16, -1.000000000000000000 ) ) ;
#128 = EDGE_LOOP ( 'NONE', ( #56 ) ) ;
#129 = CARTESIAN_POINT ( 'NONE',  ( 3.491481338843133355E-14, 1.679999999999993721, 10.00000000000000000 ) ) ;
#130 = EDGE_LOOP ( 'NONE', ( #227 ) ) ;
#131 = EDGE_LOOP ( 'NONE', ( #92 ) ) ;
#132 = CC_DESIGN_PERSON_AND_ORGANIZATION_ASSIGNMENT ( #65, #91, ( #209 ) ) ;
#133 = AXIS2_PLACEMENT_3D ( 'NONE', #214, #175, #47 ) ;
#134 = LOCAL_TIME ( 10, 35, 34.00000000000000000, #113 ) ;
#135 = FACE_OUTER_BOUND ( 'NONE', #36, .T. ) ;
#136 = PERSON_AND_ORGANIZATION ( #204, #237 ) ;
#137 = CYLINDRICAL_SURFACE ( 'NONE', #139, 1.499999999999996891 ) ;
#138 = DIRECTION ( 'NONE',  ( 0.0000000000000000000, 1.000000000000000000, 0.0000000000000000000 ) ) ;
#139 = AXIS2_PLACEMENT_3D ( 'NONE', #230, #19, #20 ) ;
#140 = CONICAL_SURFACE ( 'NONE', #154, 1.200000000000001510, 0.7853981633974566057 ) ;
#141 = CARTESIAN_POINT ( 'NONE',  ( 2.444036937190193601E-13, -8.572527594031472993E-15, 70.00000000000000000 ) ) ;
#142 = FACE_BOUND ( 'NONE', #211, .T. ) ;
#143 = DIRECTION ( 'NONE',  ( 0.0000000000000000000, 1.000000000000000000, 0.0000000000000000000 ) ) ;
#144 = VERTEX_POINT ( 'NONE', #123 ) ;
#145 = DIRECTION ( 'NONE',  ( -3.491481338843133355E-15, 1.224646799147353207E-16, -1.000000000000000000 ) ) ;
#146 = VERTEX_POINT ( 'NONE', #177 ) ;
#147 = ORIENTED_EDGE ( 'NONE', *, *, #273, .F. ) ;
#148 = DIRECTION ( 'NONE',  ( 4.275831445896958607E-31, 1.000000000000000000, 1.224646799147353207E-16 ) ) ;
#149 = ORIENTED_EDGE ( 'NONE', *, *, #255, .T. ) ;
#150 = CIRCLE ( 'NONE', #183, 1.500000000000001110 ) ;
#151 = ORIENTED_EDGE ( 'NONE', *, *, #273, .T. ) ;
#152 = MECHANICAL_CONTEXT ( 'NONE', #269, 'mechanical' ) ;
#153 = APPROVAL_DATE_TIME ( #201, #51 ) ;
#154 = AXIS2_PLACEMENT_3D ( 'NONE', #141, #191, #295 ) ;
#155 = APPROVAL_PERSON_ORGANIZATION ( #6, #293, #184 ) ;
#156 = ADVANCED_BREP_SHAPE_REPRESENTATION ( '321562', ( #66, #76, #266 ), #281 ) ;
#157 = APPROVAL_STATUS ( 'not_yet_approved' ) ;
#158 = ORIENTED_EDGE ( 'NONE', *, *, #38, .T. ) ;
#159 = COORDINATED_UNIVERSAL_TIME_OFFSET ( 1, 0, .AHEAD. ) ;
#160 = DATE_AND_TIME ( #39, #298 ) ;
#161 = ORIENTED_EDGE ( 'NONE', *, *, #120, .T. ) ;
#162 = EDGE_CURVE ( 'NONE', #54, #54, #22, .T. ) ;
#163 = CALENDAR_DATE ( 2021, 2, 12 ) ;
#164 = CYLINDRICAL_SURFACE ( 'NONE', #119, 1.499999999999996891 ) ;
#165 = AXIS2_PLACEMENT_3D ( 'NONE', #234, #231, #278 ) ;
#166 = DATE_AND_TIME ( #163, #134 ) ;
#167 = CC_DESIGN_PERSON_AND_ORGANIZATION_ASSIGNMENT ( #221, #244, ( #98 ) ) ;
#168 = FACE_OUTER_BOUND ( 'NONE', #206, .T. ) ;
#169 = DIRECTION ( 'NONE',  ( 0.0000000000000000000, 1.000000000000000000, 0.0000000000000000000 ) ) ;
#170 = ADVANCED_FACE ( 'NONE', ( #297, #73 ), #210, .T. ) ;
#171 = PERSON_AND_ORGANIZATION ( #204, #237 ) ;
#172 = FACE_BOUND ( 'NONE', #182, .T. ) ;
#173 = SECURITY_CLASSIFICATION ( '', '', #300 ) ;
#174 = CC_DESIGN_PERSON_AND_ORGANIZATION_ASSIGNMENT ( #31, #260, ( #43 ) ) ;
#175 = DIRECTION ( 'NONE',  ( -3.491481338843133355E-15, 1.224646799147353207E-16, -1.000000000000000000 ) ) ;
#176 = VERTEX_POINT ( 'NONE', #257 ) ;
#177 = CARTESIAN_POINT ( 'NONE',  ( 2.433562493173664138E-13, 1.499999999999992673, 69.70000000000001705 ) ) ;
#178 = CONICAL_SURFACE ( 'NONE', #235, 1.429999999999994165, 0.7853981633974500554 ) ;
#179 = CARTESIAN_POINT ( 'NONE',  ( 0.0000000000000000000, 0.0000000000000000000, 0.0000000000000000000 ) ) ;
#180 = CIRCLE ( 'NONE', #122, 1.679999999999995053 ) ;
#181 = ORIENTED_EDGE ( 'NONE', *, *, #95, .T. ) ;
#182 = EDGE_LOOP ( 'NONE', ( #149 ) ) ;
#183 = AXIS2_PLACEMENT_3D ( 'NONE', #10, #57, #143 ) ;
#184 = APPROVAL_ROLE ( '' ) ;
#185 = APPROVAL_DATE_TIME ( #290, #293 ) ;
#186 = AXIS2_PLACEMENT_3D ( 'NONE', #299, #114, #99 ) ;
#187 = PERSON_AND_ORGANIZATION ( #204, #237 ) ;
#188 = ORIENTED_EDGE ( 'NONE', *, *, #236, .T. ) ;
#189 = ADVANCED_FACE ( 'NONE', ( #116 ), #252, .F. ) ;
#190 = DIRECTION ( 'NONE',  ( -4.275831445896959482E-31, -1.000000000000000000, -1.224646799147353207E-16 ) ) ;
#191 = DIRECTION ( 'NONE',  ( -3.491481338843133355E-15, 1.224646799147353207E-16, -1.000000000000000000 ) ) ;
#192 = FACE_BOUND ( 'NONE', #289, .T. ) ;
#193 = ADVANCED_FACE ( 'NONE', ( #199 ), #220, .T. ) ;
#194 = PLANE ( 'NONE',  #40 ) ;
#195 = DIRECTION ( 'NONE',  ( 0.0000000000000000000, 0.0000000000000000000, 1.000000000000000000 ) ) ;
#196 = DIRECTION ( 'NONE',  ( -4.275831445896958607E-31, -1.000000000000000000, -1.224646799147353207E-16 ) ) ;
#197 = CIRCLE ( 'NONE', #70, 1.429999999999994165 ) ;
#198 = CARTESIAN_POINT ( 'NONE',  ( -3.057219483816313256E-31, 1.072328244603223975E-32, -8.756224613903540019E-17 ) ) ;
#199 = FACE_OUTER_BOUND ( 'NONE', #223, .T. ) ;
#200 = DIRECTION ( 'NONE',  ( -3.491481338843133355E-15, 1.224646799147353207E-16, -1.000000000000000000 ) ) ;
#201 = DATE_AND_TIME ( #292, #1 ) ;
#202 = CC_DESIGN_APPROVAL ( #274, ( #43 ) ) ;
#203 = EDGE_LOOP ( 'NONE', ( #147 ) ) ;
#204 = PERSON ( 'UNSPECIFIED', 'UNSPECIFIED', 'UNSPECIFIED', ('UNSPECIFIED'), ('UNSPECIFIED'), ('UNSPECIFIED') ) ;
#205 = DIRECTION ( 'NONE',  ( -3.491481338843133355E-15, 1.224646799147353207E-16, -1.000000000000000000 ) ) ;
#206 = EDGE_LOOP ( 'NONE', ( #158 ) ) ;
#207 = AXIS2_PLACEMENT_3D ( 'NONE', #198, #145, #262 ) ;
#208 = APPLICATION_PROTOCOL_DEFINITION ( 'international standard', 'config_control_design', 1994, #269 ) ;
#209 = PRODUCT_DEFINITION ( 'UNKNOWN', '', #43, #15 ) ;
#210 = CONICAL_SURFACE ( 'NONE', #103, 1.679999999999995053, 0.5235987755983000369 ) ;
#211 = EDGE_LOOP ( 'NONE', ( #181 ) ) ;
#212 = CARTESIAN_POINT ( 'NONE',  ( 2.444036937190193601E-13, -8.572527594031472993E-15, 70.00000000000000000 ) ) ;
#213 = DIRECTION ( 'NONE',  ( 4.585547486636289437E-31, 1.000000000000000000, 1.290716872006556725E-16 ) ) ;
#214 = CARTESIAN_POINT ( 'NONE',  ( 2.444036937190193601E-13, -8.572527594031472993E-15, 70.00000000000000000 ) ) ;
#215 = AXIS2_PLACEMENT_3D ( 'NONE', #69, #254, #196 ) ;
#216 = DIRECTION ( 'NONE',  ( 4.275831445896958607E-31, 1.000000000000000000, 1.224646799147353207E-16 ) ) ;
#217 = CARTESIAN_POINT ( 'NONE',  ( 2.444036937190193601E-13, 1.199999999999992628, 70.00000000000000000 ) ) ;
#218 = DIRECTION ( 'NONE',  ( 0.0000000000000000000, 1.000000000000000000, 0.0000000000000000000 ) ) ;
#219 = CIRCLE ( 'NONE', #41, 1.499999999999992895 ) ;
#220 = PLANE ( 'NONE',  #207 ) ;
#221 = PERSON_AND_ORGANIZATION ( #204, #237 ) ;
#222 = CARTESIAN_POINT ( 'NONE',  ( 2.444036937190193601E-13, 1.199999999999992628, 70.00000000000000000 ) ) ;
#223 = EDGE_LOOP ( 'NONE', ( #34 ) ) ;
#224 = CC_DESIGN_PERSON_AND_ORGANIZATION_ASSIGNMENT ( #136, #46, ( #43 ) ) ;
#225 = VERTEX_POINT ( 'NONE', #217 ) ;
#226 = PERSON_AND_ORGANIZATION_ROLE ( 'classification_officer' ) ;
#227 = ORIENTED_EDGE ( 'NONE', *, *, #120, .F. ) ;
#228 = EDGE_LOOP ( 'NONE', ( #88 ) ) ;
#229 = APPROVAL_PERSON_ORGANIZATION ( #97, #51, #250 ) ;
#230 = CARTESIAN_POINT ( 'NONE',  ( 0.0000000000000000000, 0.0000000000000000000, 0.0000000000000000000 ) ) ;
#231 = DIRECTION ( 'NONE',  ( -3.491481338843133355E-15, 1.224646799147353207E-16, -1.000000000000000000 ) ) ;
#232 = CARTESIAN_POINT ( 'NONE',  ( 8.728703347107827472E-16, -3.061616997868381169E-17, 0.2499999999999998335 ) ) ;
#233 = CARTESIAN_POINT ( 'NONE',  ( -6.114438967632626512E-31, 2.144656489206447950E-32, -1.751244922780708004E-16 ) ) ;
#234 = CARTESIAN_POINT ( 'NONE',  ( 3.491481338843133355E-14, -1.224646799147353256E-15, 10.00000000000000000 ) ) ;
#235 = AXIS2_PLACEMENT_3D ( 'NONE', #233, #301, #190 ) ;
#236 = EDGE_CURVE ( 'NONE', #146, #146, #150, .T. ) ;
#237 = ORGANIZATION ( 'UNSPECIFIED', 'UNSPECIFIED', '' ) ;
#238 =( NAMED_UNIT ( * ) SI_UNIT ( $, .STERADIAN. ) SOLID_ANGLE_UNIT ( ) );
#239 =( NAMED_UNIT ( * ) PLANE_ANGLE_UNIT ( ) SI_UNIT ( $, .RADIAN. ) );
#240 = EDGE_LOOP ( 'NONE', ( #291 ) ) ;
#241 = VERTEX_POINT ( 'NONE', #129 ) ;
#242 = CIRCLE ( 'NONE', #29, 1.499999999999992895 ) ;
#243 = EDGE_LOOP ( 'NONE', ( #267 ) ) ;
#244 = PERSON_AND_ORGANIZATION_ROLE ( 'design_owner' ) ;
#245 = CLOSED_SHELL ( 'NONE', ( #170, #296, #71, #193, #64, #271, #125 ) ) ;
#246 = EDGE_LOOP ( 'NONE', ( #151 ) ) ;
#247 = CALENDAR_DATE ( 2021, 2, 12 ) ;
#248 = APPROVAL_DATE_TIME ( #166, #274 ) ;
#249 = FACE_OUTER_BOUND ( 'NONE', #130, .T. ) ;
#250 = APPROVAL_ROLE ( '' ) ;
#251 = DIRECTION ( 'NONE',  ( -3.491481338843133355E-15, 1.224646799147353207E-16, -1.000000000000000000 ) ) ;
#252 = PLANE ( 'NONE',  #18 ) ;
#253 = CONICAL_SURFACE ( 'NONE', #82, 1.200000000000001510, 0.7853981633974566057 ) ;
#254 = DIRECTION ( 'NONE',  ( 3.491481338843133355E-15, -1.224646799147353207E-16, 1.000000000000000000 ) ) ;
#255 = EDGE_CURVE ( 'NONE', #225, #225, #90, .T. ) ;
#256 = VERTEX_POINT ( 'NONE', #55 ) ;
#257 = CARTESIAN_POINT ( 'NONE',  ( 3.600334954149122880E-14, 1.499999999999991562, 10.31176914536240119 ) ) ;
#258 = EDGE_CURVE ( 'NONE', #52, #52, #197, .T. ) ;
#259 = CARTESIAN_POINT ( 'NONE',  ( 0.0000000000000000000, 1.429999999999994165, 0.0000000000000000000 ) ) ;
#260 = PERSON_AND_ORGANIZATION_ROLE ( 'design_supplier' ) ;
#261 = CIRCLE ( 'NONE', #165, 1.679999999999995053 ) ;
#262 = DIRECTION ( 'NONE',  ( 4.275831445896958607E-31, 1.000000000000000000, 1.224646799147353207E-16 ) ) ;
#263 = ORIENTED_EDGE ( 'NONE', *, *, #111, .T. ) ;
#264 = AXIS2_PLACEMENT_3D ( 'NONE', #232, #115, #213 ) ;
#265 = DATE_AND_TIME ( #11, #59 ) ;
#266 = AXIS2_PLACEMENT_3D ( 'NONE', #74, #195, #32 ) ;
#267 = ORIENTED_EDGE ( 'NONE', *, *, #53, .T. ) ;
#268 = COORDINATED_UNIVERSAL_TIME_OFFSET ( 1, 0, .AHEAD. ) ;
#269 = APPLICATION_CONTEXT ( 'configuration controlled 3d designs of mechanical parts and assemblies' ) ;
#270 = EDGE_LOOP ( 'NONE', ( #161 ) ) ;
#271 = ADVANCED_FACE ( 'NONE', ( #283, #35 ), #253, .T. ) ;
#272 = CIRCLE ( 'NONE', #186, 1.500000000000001110 ) ;
#273 = EDGE_CURVE ( 'NONE', #7, #7, #242, .T. ) ;
#274 = APPROVAL ( #157, 'UNSPECIFIED' ) ;
#275 = CARTESIAN_POINT ( 'NONE',  ( 3.600334954149122880E-14, -1.262827507741450313E-15, 10.31176914536240119 ) ) ;
#276 = CC_DESIGN_APPROVAL ( #293, ( #209 ) ) ;
#277 = APPROVAL_ROLE ( '' ) ;
#278 = DIRECTION ( 'NONE',  ( 0.0000000000000000000, 1.000000000000000000, 0.0000000000000000000 ) ) ;
#279 = FACE_OUTER_BOUND ( 'NONE', #131, .T. ) ;
#280 = DIRECTION ( 'NONE',  ( -3.491481338843133355E-15, 1.224646799147353207E-16, -1.000000000000000000 ) ) ;
#281 =( GEOMETRIC_REPRESENTATION_CONTEXT ( 3 ) GLOBAL_UNCERTAINTY_ASSIGNED_CONTEXT ( ( #63 ) ) GLOBAL_UNIT_ASSIGNED_CONTEXT ( ( #102, #239, #238 ) ) REPRESENTATION_CONTEXT ( 'NONE', 'WORKASPACE' ) );
#282 = DIRECTION ( 'NONE',  ( 0.0000000000000000000, 1.000000000000000000, 0.0000000000000000000 ) ) ;
#283 = FACE_OUTER_BOUND ( 'NONE', #128, .T. ) ;
#284 = CARTESIAN_POINT ( 'NONE',  ( -6.114438967632626512E-31, 2.144656489206447950E-32, -1.751244922780708004E-16 ) ) ;
#285 = AXIS2_PLACEMENT_3D ( 'NONE', #179, #288, #87 ) ;
#286 = ORIENTED_EDGE ( 'NONE', *, *, #53, .F. ) ;
#287 = DIRECTION ( 'NONE',  ( 0.0000000000000000000, 1.000000000000000000, 0.0000000000000000000 ) ) ;
#288 = DIRECTION ( 'NONE',  ( -3.491481338843133355E-15, 1.224646799147353207E-16, -1.000000000000000000 ) ) ;
#289 = EDGE_LOOP ( 'NONE', ( #67 ) ) ;
#290 = DATE_AND_TIME ( #247, #24 ) ;
#291 = ORIENTED_EDGE ( 'NONE', *, *, #255, .F. ) ;
#292 = CALENDAR_DATE ( 2021, 2, 12 ) ;
#293 = APPROVAL ( #89, 'UNSPECIFIED' ) ;
#294 = PRODUCT_RELATED_PRODUCT_CATEGORY ( 'detail', '', ( #98 ) ) ;
#295 = DIRECTION ( 'NONE',  ( 0.0000000000000000000, 1.000000000000000000, 0.0000000000000000000 ) ) ;
#296 = ADVANCED_FACE ( 'NONE', ( #124, #33 ), #3, .T. ) ;
#297 = FACE_BOUND ( 'NONE', #246, .T. ) ;
#298 = LOCAL_TIME ( 10, 35, 34.00000000000000000, #16 ) ;
#299 = CARTESIAN_POINT ( 'NONE',  ( 2.433562493173664138E-13, -8.535788190057053710E-15, 69.70000000000001705 ) ) ;
#300 = SECURITY_CLASSIFICATION_LEVEL ( 'unclassified' ) ;
#301 = DIRECTION ( 'NONE',  ( 3.491481338843133355E-15, -1.224646799147353207E-16, 1.000000000000000000 ) ) ;
#302 = CC_DESIGN_PERSON_AND_ORGANIZATION_ASSIGNMENT ( #171, #226, ( #173 ) ) ;
#303 = PLANE ( 'NONE',  #215 ) ;
ENDSEC;
END-ISO-10303-21;
