ISO-10303-21;
HEADER;
FILE_DESCRIPTION (( 'STEP AP203' ),
    '1' );
FILE_NAME ('321561.step',
    '2021-12-02T09:35:33',
    ( '' ),
    ( '' ),
    'SwSTEP 2.0',
    'SolidWorks 2019',
    '' );
FILE_SCHEMA (( 'CONFIG_CONTROL_DESIGN' ));
ENDSEC;

DATA;
#1 = CARTESIAN_POINT ( 'NONE',  ( 2.444036937190193601E-13, 1.199999999999992628, 70.00000000000000000 ) ) ;
#2 = DATE_AND_TIME ( #261, #283 ) ;
#3 = FACE_BOUND ( 'NONE', #41, .T. ) ;
#4 = AXIS2_PLACEMENT_3D ( 'NONE', #162, #280, #193 ) ;
#5 = DATE_AND_TIME ( #26, #77 ) ;
#6 = FACE_OUTER_BOUND ( 'NONE', #7, .T. ) ;
#7 = EDGE_LOOP ( 'NONE', ( #11 ) ) ;
#8 =( LENGTH_UNIT ( ) NAMED_UNIT ( * ) SI_UNIT ( .MILLI., .METRE. ) );
#9 = EDGE_LOOP ( 'NONE', ( #156 ) ) ;
#10 = APPLICATION_CONTEXT ( 'configuration controlled 3d designs of mechanical parts and assemblies' ) ;
#11 = ORIENTED_EDGE ( 'NONE', *, *, #293, .F. ) ;
#12 = AXIS2_PLACEMENT_3D ( 'NONE', #52, #119, #48 ) ;
#13 = EDGE_CURVE ( 'NONE', #131, #131, #55, .T. ) ;
#14 = EDGE_LOOP ( 'NONE', ( #179 ) ) ;
#15 = APPROVAL_STATUS ( 'not_yet_approved' ) ;
#16 = DIRECTION ( 'NONE',  ( 4.275831445896958607E-31, 1.000000000000000000, 1.224646799147353454E-16 ) ) ;
#17 = DIRECTION ( 'NONE',  ( 3.491481338843133355E-15, -1.224646799147353207E-16, 1.000000000000000000 ) ) ;
#18 = DIRECTION ( 'NONE',  ( 4.275831445896958607E-31, 1.000000000000000000, 1.224646799147353207E-16 ) ) ;
#19 = APPROVAL_PERSON_ORGANIZATION ( #146, #83, #59 ) ;
#20 = CIRCLE ( 'NONE', #218, 1.499999999999992895 ) ;
#21 = FACE_OUTER_BOUND ( 'NONE', #147, .T. ) ;
#22 = CC_DESIGN_PERSON_AND_ORGANIZATION_ASSIGNMENT ( #291, #198, ( #157 ) ) ;
#23 = CALENDAR_DATE ( 2021, 2, 12 ) ;
#24 = PRODUCT_RELATED_PRODUCT_CATEGORY ( 'detail', '', ( #174 ) ) ;
#25 = CARTESIAN_POINT ( 'NONE',  ( -3.046529905201581409E-31, 1.068578845146572998E-32, -8.725608443924886455E-17 ) ) ;
#26 = CALENDAR_DATE ( 2021, 2, 12 ) ;
#27 = VERTEX_POINT ( 'NONE', #178 ) ;
#28 = DATE_AND_TIME ( #161, #110 ) ;
#29 = ORIENTED_EDGE ( 'NONE', *, *, #13, .T. ) ;
#30 = ORIENTED_EDGE ( 'NONE', *, *, #160, .T. ) ;
#31 = CARTESIAN_POINT ( 'NONE',  ( 2.433562493173664138E-13, 1.499999999999992673, 69.70000000000001705 ) ) ;
#32 = DIRECTION ( 'NONE',  ( 0.0000000000000000000, 1.000000000000000000, 0.0000000000000000000 ) ) ;
#33 = AXIS2_PLACEMENT_3D ( 'NONE', #46, #164, #47 ) ;
#34 = CARTESIAN_POINT ( 'NONE',  ( 2.444036937190193601E-13, 1.199999999999992628, 70.00000000000000000 ) ) ;
#35 = CALENDAR_DATE ( 2021, 2, 12 ) ;
#36 = EDGE_CURVE ( 'NONE', #101, #101, #239, .T. ) ;
#37 = AXIS2_PLACEMENT_3D ( 'NONE', #108, #106, #203 ) ;
#38 = EDGE_LOOP ( 'NONE', ( #225 ) ) ;
#39 = AXIS2_PLACEMENT_3D ( 'NONE', #134, #88, #181 ) ;
#40 = ADVANCED_FACE ( 'NONE', ( #220, #3 ), #159, .T. ) ;
#41 = EDGE_LOOP ( 'NONE', ( #29 ) ) ;
#42 = APPROVAL_PERSON_ORGANIZATION ( #150, #84, #233 ) ;
#43 = EDGE_LOOP ( 'NONE', ( #201 ) ) ;
#44 = FACE_OUTER_BOUND ( 'NONE', #107, .T. ) ;
#45 = ADVANCED_BREP_SHAPE_REPRESENTATION ( '321561', ( #270, #263, #92 ), #73 ) ;
#46 = CARTESIAN_POINT ( 'NONE',  ( 2.444036937190193601E-13, -8.572527594031472993E-15, 70.00000000000000000 ) ) ;
#47 = DIRECTION ( 'NONE',  ( 0.0000000000000000000, 1.000000000000000000, 0.0000000000000000000 ) ) ;
#48 = DIRECTION ( 'NONE',  ( 0.0000000000000000000, 1.000000000000000000, 0.0000000000000000000 ) ) ;
#49 = AXIS2_PLACEMENT_3D ( 'NONE', #115, #206, #96 ) ;
#50 = EDGE_CURVE ( 'NONE', #240, #240, #20, .T. ) ;
#51 = ADVANCED_FACE ( 'NONE', ( #6, #103 ), #112, .T. ) ;
#52 = CARTESIAN_POINT ( 'NONE',  ( 3.491481338843133355E-14, -1.224646799147353256E-15, 10.00000000000000000 ) ) ;
#53 = PERSON_AND_ORGANIZATION ( #271, #94 ) ;
#54 =( NAMED_UNIT ( * ) SI_UNIT ( $, .STERADIAN. ) SOLID_ANGLE_UNIT ( ) );
#55 = CIRCLE ( 'NONE', #39, 1.200000000000001510 ) ;
#56 = AXIS2_PLACEMENT_3D ( 'NONE', #140, #95, #129 ) ;
#57 = ORIENTED_EDGE ( 'NONE', *, *, #13, .F. ) ;
#58 = EDGE_LOOP ( 'NONE', ( #195 ) ) ;
#59 = APPROVAL_ROLE ( '' ) ;
#60 = PERSON_AND_ORGANIZATION_ROLE ( 'classification_officer' ) ;
#61 = DATE_AND_TIME ( #23, #196 ) ;
#62 = DIRECTION ( 'NONE',  ( 0.0000000000000000000, 1.000000000000000000, 0.0000000000000000000 ) ) ;
#63 = COORDINATED_UNIVERSAL_TIME_OFFSET ( 1, 0, .AHEAD. ) ;
#64 = ORIENTED_EDGE ( 'NONE', *, *, #293, .T. ) ;
#65 = EDGE_CURVE ( 'NONE', #287, #287, #66, .T. ) ;
#66 = CIRCLE ( 'NONE', #90, 1.675000000000000044 ) ;
#67 = CARTESIAN_POINT ( 'NONE',  ( 3.491481338843133355E-14, -1.224646799147353256E-15, 10.00000000000000000 ) ) ;
#68 = DIRECTION ( 'NONE',  ( -3.491481338843133355E-15, 1.224646799147353207E-16, -1.000000000000000000 ) ) ;
#69 = ADVANCED_FACE ( 'NONE', ( #132, #224 ), #223, .T. ) ;
#70 = FACE_OUTER_BOUND ( 'NONE', #250, .T. ) ;
#71 = EDGE_CURVE ( 'NONE', #144, #144, #281, .T. ) ;
#72 = DIRECTION ( 'NONE',  ( -3.491481338843133355E-15, 1.224646799147353207E-16, -1.000000000000000000 ) ) ;
#73 =( GEOMETRIC_REPRESENTATION_CONTEXT ( 3 ) GLOBAL_UNCERTAINTY_ASSIGNED_CONTEXT ( ( #228 ) ) GLOBAL_UNIT_ASSIGNED_CONTEXT ( ( #8, #214, #54 ) ) REPRESENTATION_CONTEXT ( 'NONE', 'WORKASPACE' ) );
#74 = CARTESIAN_POINT ( 'NONE',  ( -6.093059810403162818E-31, 2.137157690293145996E-32, -1.745121688784977291E-16 ) ) ;
#75 = APPROVAL_DATE_TIME ( #5, #190 ) ;
#76 = VERTEX_POINT ( 'NONE', #1 ) ;
#77 = LOCAL_TIME ( 10, 35, 33.00000000000000000, #126 ) ;
#78 = AXIS2_PLACEMENT_3D ( 'NONE', #234, #122, #213 ) ;
#79 = ORIENTED_EDGE ( 'NONE', *, *, #160, .F. ) ;
#80 = APPROVAL_ROLE ( '' ) ;
#81 = DATE_TIME_ROLE ( 'classification_date' ) ;
#82 = PERSON_AND_ORGANIZATION_ROLE ( 'design_owner' ) ;
#83 = APPROVAL ( #199, 'UNSPECIFIED' ) ;
#84 = APPROVAL ( #15, 'UNSPECIFIED' ) ;
#85 = CARTESIAN_POINT ( 'NONE',  ( 3.491481338843133355E-14, 1.674999999999998712, 10.00000000000000000 ) ) ;
#86 = ORIENTED_EDGE ( 'NONE', *, *, #211, .T. ) ;
#87 = CARTESIAN_POINT ( 'NONE',  ( 3.597311242612848531E-14, -1.261766932502726452E-15, 10.30310889132456431 ) ) ;
#88 = DIRECTION ( 'NONE',  ( -3.491481338843133355E-15, 1.224646799147353207E-16, -1.000000000000000000 ) ) ;
#89 = EDGE_LOOP ( 'NONE', ( #284 ) ) ;
#90 = AXIS2_PLACEMENT_3D ( 'NONE', #154, #248, #254 ) ;
#91 = DIRECTION ( 'NONE',  ( 0.0000000000000000000, 1.000000000000000000, 0.0000000000000000000 ) ) ;
#92 = AXIS2_PLACEMENT_3D ( 'NONE', #172, #169, #152 ) ;
#93 = DIRECTION ( 'NONE',  ( -4.275831445896957731E-31, -1.000000000000000000, -1.224646799147353207E-16 ) ) ;
#94 = ORGANIZATION ( 'UNSPECIFIED', 'UNSPECIFIED', '' ) ;
#95 = DIRECTION ( 'NONE',  ( -3.491481338843133355E-15, 1.224646799147353207E-16, -1.000000000000000000 ) ) ;
#96 = DIRECTION ( 'NONE',  ( 0.0000000000000000000, 1.000000000000000000, 0.0000000000000000000 ) ) ;
#97 = FACE_OUTER_BOUND ( 'NONE', #58, .T. ) ;
#98 = PERSON_AND_ORGANIZATION_ROLE ( 'creator' ) ;
#99 = AXIS2_PLACEMENT_3D ( 'NONE', #290, #72, #91 ) ;
#100 = ADVANCED_FACE ( 'NONE', ( #70 ), #236, .T. ) ;
#101 = VERTEX_POINT ( 'NONE', #194 ) ;
#102 = ADVANCED_FACE ( 'NONE', ( #279, #258 ), #209, .T. ) ;
#103 = FACE_BOUND ( 'NONE', #125, .T. ) ;
#104 = EDGE_LOOP ( 'NONE', ( #227 ) ) ;
#105 = VERTEX_POINT ( 'NONE', #85 ) ;
#106 = DIRECTION ( 'NONE',  ( -3.491481338843133355E-15, 1.224646799147353207E-16, -1.000000000000000000 ) ) ;
#107 = EDGE_LOOP ( 'NONE', ( #30 ) ) ;
#108 = CARTESIAN_POINT ( 'NONE',  ( 0.0000000000000000000, 0.0000000000000000000, 0.0000000000000000000 ) ) ;
#109 = ORIENTED_EDGE ( 'NONE', *, *, #65, .T. ) ;
#110 = LOCAL_TIME ( 10, 35, 33.00000000000000000, #137 ) ;
#111 = ORIENTED_EDGE ( 'NONE', *, *, #211, .F. ) ;
#112 = CONICAL_SURFACE ( 'NONE', #120, 1.200000000000001510, 0.7853981633974566057 ) ;
#113 = CARTESIAN_POINT ( 'NONE',  ( 2.433562493173664138E-13, -8.535788190057053710E-15, 69.70000000000001705 ) ) ;
#114 = ADVANCED_FACE ( 'NONE', ( #44 ), #121, .F. ) ;
#115 = CARTESIAN_POINT ( 'NONE',  ( 3.491481338843133355E-14, -1.224646799147353256E-15, 10.00000000000000000 ) ) ;
#116 = CYLINDRICAL_SURFACE ( 'NONE', #118, 1.499999999999996891 ) ;
#117 = CC_DESIGN_PERSON_AND_ORGANIZATION_ASSIGNMENT ( #247, #60, ( #267 ) ) ;
#118 = AXIS2_PLACEMENT_3D ( 'NONE', #167, #207, #16 ) ;
#119 = DIRECTION ( 'NONE',  ( -3.491481338843133355E-15, 1.224646799147353207E-16, -1.000000000000000000 ) ) ;
#120 = AXIS2_PLACEMENT_3D ( 'NONE', #200, #288, #62 ) ;
#121 = PLANE ( 'NONE',  #264 ) ;
#122 = DIRECTION ( 'NONE',  ( -3.491481338843133355E-15, 1.224646799147353207E-16, -1.000000000000000000 ) ) ;
#123 = PERSON_AND_ORGANIZATION ( #271, #94 ) ;
#124 = CARTESIAN_POINT ( 'NONE',  ( 3.597311242612848531E-14, 1.499999999999991562, 10.30310889132456431 ) ) ;
#125 = EDGE_LOOP ( 'NONE', ( #128 ) ) ;
#126 = COORDINATED_UNIVERSAL_TIME_OFFSET ( 1, 0, .AHEAD. ) ;
#127 = ADVANCED_FACE ( 'NONE', ( #166, #138 ), #116, .T. ) ;
#128 = ORIENTED_EDGE ( 'NONE', *, *, #286, .T. ) ;
#129 = DIRECTION ( 'NONE',  ( 0.0000000000000000000, 1.000000000000000000, 0.0000000000000000000 ) ) ;
#130 = CIRCLE ( 'NONE', #12, 1.675000000000000044 ) ;
#131 = VERTEX_POINT ( 'NONE', #34 ) ;
#132 = FACE_OUTER_BOUND ( 'NONE', #104, .T. ) ;
#133 = DIRECTION ( 'NONE',  ( 0.0000000000000000000, 1.000000000000000000, 0.0000000000000000000 ) ) ;
#134 = CARTESIAN_POINT ( 'NONE',  ( 2.444036937190193601E-13, -8.572527594031472993E-15, 70.00000000000000000 ) ) ;
#135 = EDGE_LOOP ( 'NONE', ( #155 ) ) ;
#136 = CC_DESIGN_DATE_AND_TIME_ASSIGNMENT ( #2, #242, ( #243 ) ) ;
#137 = COORDINATED_UNIVERSAL_TIME_OFFSET ( 1, 0, .AHEAD. ) ;
#138 = FACE_OUTER_BOUND ( 'NONE', #89, .T. ) ;
#139 = DIRECTION ( 'NONE',  ( -4.275831445896958607E-31, -1.000000000000000000, -1.224646799147353207E-16 ) ) ;
#140 = CARTESIAN_POINT ( 'NONE',  ( 2.433562493173664138E-13, -8.535788190057053710E-15, 69.70000000000001705 ) ) ;
#141 = CLOSED_SHELL ( 'NONE', ( #114, #275, #127, #40, #235 ) ) ;
#142 = CYLINDRICAL_SURFACE ( 'NONE', #171, 1.499999999999996891 ) ;
#143 = FACE_BOUND ( 'NONE', #221, .T. ) ;
#144 = VERTEX_POINT ( 'NONE', #260 ) ;
#145 = AXIS2_PLACEMENT_3D ( 'NONE', #74, #17, #93 ) ;
#146 = PERSON_AND_ORGANIZATION ( #271, #94 ) ;
#147 = EDGE_LOOP ( 'NONE', ( #64 ) ) ;
#148 = PERSON_AND_ORGANIZATION ( #271, #94 ) ;
#149 = PRODUCT_DEFINITION_SHAPE ( 'NONE', 'NONE',  #243 ) ;
#150 = PERSON_AND_ORGANIZATION ( #271, #94 ) ;
#151 = DIRECTION ( 'NONE',  ( -3.491481338843133355E-15, 1.224646799147353207E-16, -1.000000000000000000 ) ) ;
#152 = DIRECTION ( 'NONE',  ( 1.000000000000000000, 0.0000000000000000000, 0.0000000000000000000 ) ) ;
#153 = AXIS2_PLACEMENT_3D ( 'NONE', #25, #189, #18 ) ;
#154 = CARTESIAN_POINT ( 'NONE',  ( 8.728703347107827472E-16, -3.061616997868381169E-17, 0.2499999999999998335 ) ) ;
#155 = ORIENTED_EDGE ( 'NONE', *, *, #50, .F. ) ;
#156 = ORIENTED_EDGE ( 'NONE', *, *, #71, .T. ) ;
#157 = PRODUCT_DEFINITION_FORMATION_WITH_SPECIFIED_SOURCE ( 'ANY', '', #174, .NOT_KNOWN. ) ;
#158 = PERSON_AND_ORGANIZATION ( #271, #94 ) ;
#159 = CONICAL_SURFACE ( 'NONE', #294, 1.200000000000001510, 0.7853981633974566057 ) ;
#160 = EDGE_CURVE ( 'NONE', #27, #27, #130, .T. ) ;
#161 = CALENDAR_DATE ( 2021, 2, 12 ) ;
#162 = CARTESIAN_POINT ( 'NONE',  ( -6.093059810403162818E-31, 2.137157690293145996E-32, -1.745121688784977291E-16 ) ) ;
#163 = LOCAL_TIME ( 10, 35, 33.00000000000000000, #63 ) ;
#164 = DIRECTION ( 'NONE',  ( -3.491481338843133355E-15, 1.224646799147353207E-16, -1.000000000000000000 ) ) ;
#165 = COORDINATED_UNIVERSAL_TIME_OFFSET ( 1, 0, .AHEAD. ) ;
#166 = FACE_OUTER_BOUND ( 'NONE', #38, .T. ) ;
#167 = CARTESIAN_POINT ( 'NONE',  ( 0.0000000000000000000, 0.0000000000000000000, 0.0000000000000000000 ) ) ;
#168 = CARTESIAN_POINT ( 'NONE',  ( 3.491481338843133355E-14, -1.224646799147353256E-15, 10.00000000000000000 ) ) ;
#169 = DIRECTION ( 'NONE',  ( 0.0000000000000000000, 0.0000000000000000000, 1.000000000000000000 ) ) ;
#170 = EDGE_LOOP ( 'NONE', ( #79 ) ) ;
#171 = AXIS2_PLACEMENT_3D ( 'NONE', #278, #296, #302 ) ;
#172 = CARTESIAN_POINT ( 'NONE',  ( 0.0000000000000000000, 0.0000000000000000000, 0.0000000000000000000 ) ) ;
#173 = CC_DESIGN_PERSON_AND_ORGANIZATION_ASSIGNMENT ( #123, #98, ( #243 ) ) ;
#174 = PRODUCT ( '321561', '321561', '', ( #265 ) ) ;
#175 = CLOSED_SHELL ( 'NONE', ( #183, #69, #102, #100, #184, #51, #180 ) ) ;
#176 = ORIENTED_EDGE ( 'NONE', *, *, #50, .T. ) ;
#177 = COORDINATED_UNIVERSAL_TIME_OFFSET ( 1, 0, .AHEAD. ) ;
#178 = CARTESIAN_POINT ( 'NONE',  ( 3.491481338843133355E-14, 1.674999999999998712, 10.00000000000000000 ) ) ;
#179 = ORIENTED_EDGE ( 'NONE', *, *, #230, .F. ) ;
#180 = ADVANCED_FACE ( 'NONE', ( #210, #21 ), #142, .T. ) ;
#181 = DIRECTION ( 'NONE',  ( 0.0000000000000000000, 1.000000000000000000, 0.0000000000000000000 ) ) ;
#182 = EDGE_LOOP ( 'NONE', ( #111 ) ) ;
#183 = ADVANCED_FACE ( 'NONE', ( #143, #303 ), #299, .T. ) ;
#184 = ADVANCED_FACE ( 'NONE', ( #97 ), #297, .F. ) ;
#185 = CC_DESIGN_APPROVAL ( #83, ( #157 ) ) ;
#186 = FACE_BOUND ( 'NONE', #9, .T. ) ;
#187 = CIRCLE ( 'NONE', #56, 1.500000000000001110 ) ;
#188 = DIRECTION ( 'NONE',  ( 4.275831445896958607E-31, 1.000000000000000000, 1.224646799147353207E-16 ) ) ;
#189 = DIRECTION ( 'NONE',  ( -3.491481338843133355E-15, 1.224646799147353207E-16, -1.000000000000000000 ) ) ;
#190 = APPROVAL ( #219, 'UNSPECIFIED' ) ;
#191 = FACE_OUTER_BOUND ( 'NONE', #204, .T. ) ;
#192 = AXIS2_PLACEMENT_3D ( 'NONE', #67, #256, #257 ) ;
#193 = DIRECTION ( 'NONE',  ( 4.275831445896958607E-31, 1.000000000000000000, 1.224646799147353207E-16 ) ) ;
#194 = CARTESIAN_POINT ( 'NONE',  ( 2.433562493173664138E-13, 1.499999999999992673, 69.70000000000001705 ) ) ;
#195 = ORIENTED_EDGE ( 'NONE', *, *, #286, .F. ) ;
#196 = LOCAL_TIME ( 10, 35, 33.00000000000000000, #165 ) ;
#197 = CIRCLE ( 'NONE', #4, 1.424999999999999156 ) ;
#198 = PERSON_AND_ORGANIZATION_ROLE ( 'creator' ) ;
#199 = APPROVAL_STATUS ( 'not_yet_approved' ) ;
#200 = CARTESIAN_POINT ( 'NONE',  ( 2.444036937190193601E-13, -8.572527594031472993E-15, 70.00000000000000000 ) ) ;
#201 = ORIENTED_EDGE ( 'NONE', *, *, #36, .F. ) ;
#202 = APPROVAL_DATE_TIME ( #61, #83 ) ;
#203 = DIRECTION ( 'NONE',  ( 4.275831445896958607E-31, 1.000000000000000000, 1.224646799147353207E-16 ) ) ;
#204 = EDGE_LOOP ( 'NONE', ( #57 ) ) ;
#205 = DIRECTION ( 'NONE',  ( -3.491481338843133355E-15, 1.224646799147353207E-16, -1.000000000000000000 ) ) ;
#206 = DIRECTION ( 'NONE',  ( -3.491481338843133355E-15, 1.224646799147353207E-16, -1.000000000000000000 ) ) ;
#207 = DIRECTION ( 'NONE',  ( -3.491481338843133355E-15, 1.224646799147353207E-16, -1.000000000000000000 ) ) ;
#208 = CIRCLE ( 'NONE', #49, 1.675000000000000044 ) ;
#209 = CONICAL_SURFACE ( 'NONE', #145, 1.424999999999999156, 0.7853981633974500554 ) ;
#210 = FACE_OUTER_BOUND ( 'NONE', #135, .T. ) ;
#211 = EDGE_CURVE ( 'NONE', #215, #215, #197, .T. ) ;
#212 = CC_DESIGN_APPROVAL ( #84, ( #267 ) ) ;
#213 = DIRECTION ( 'NONE',  ( 4.275831445896958607E-31, 1.000000000000000000, 1.224646799147353207E-16 ) ) ;
#214 =( NAMED_UNIT ( * ) PLANE_ANGLE_UNIT ( ) SI_UNIT ( $, .RADIAN. ) );
#215 = VERTEX_POINT ( 'NONE', #238 ) ;
#216 = CC_DESIGN_SECURITY_CLASSIFICATION ( #267, ( #157 ) ) ;
#217 = VERTEX_POINT ( 'NONE', #31 ) ;
#218 = AXIS2_PLACEMENT_3D ( 'NONE', #87, #244, #32 ) ;
#219 = APPROVAL_STATUS ( 'not_yet_approved' ) ;
#220 = FACE_OUTER_BOUND ( 'NONE', #43, .T. ) ;
#221 = EDGE_LOOP ( 'NONE', ( #176 ) ) ;
#222 = DATE_AND_TIME ( #35, #163 ) ;
#223 = CYLINDRICAL_SURFACE ( 'NONE', #37, 1.675000000000000044 ) ;
#224 = FACE_OUTER_BOUND ( 'NONE', #241, .T. ) ;
#225 = ORIENTED_EDGE ( 'NONE', *, *, #71, .F. ) ;
#226 = AXIS2_PLACEMENT_3D ( 'NONE', #231, #68, #188 ) ;
#227 = ORIENTED_EDGE ( 'NONE', *, *, #230, .T. ) ;
#228 = UNCERTAINTY_MEASURE_WITH_UNIT (LENGTH_MEASURE( 1.000000000000000082E-05 ), #8, 'distance_accuracy_value', 'NONE');
#229 = DIRECTION ( 'NONE',  ( 0.0000000000000000000, 1.000000000000000000, 0.0000000000000000000 ) ) ;
#230 = EDGE_CURVE ( 'NONE', #105, #105, #208, .T. ) ;
#231 = CARTESIAN_POINT ( 'NONE',  ( 2.444036937190193601E-13, 8.998558695971026591E-33, 70.00000000000000000 ) ) ;
#232 = CARTESIAN_POINT ( 'NONE',  ( 3.491481338843133355E-14, 1.256048817979303968E-32, 10.00000000000000000 ) ) ;
#233 = APPROVAL_ROLE ( '' ) ;
#234 = CARTESIAN_POINT ( 'NONE',  ( 2.444036937190193601E-13, -8.572527594031472993E-15, 70.00000000000000000 ) ) ;
#235 = ADVANCED_FACE ( 'NONE', ( #191 ), #300, .F. ) ;
#236 = PLANE ( 'NONE',  #153 ) ;
#237 = DIRECTION ( 'NONE',  ( 0.0000000000000000000, 1.000000000000000000, 0.0000000000000000000 ) ) ;
#238 = CARTESIAN_POINT ( 'NONE',  ( -8.552847072295026068E-47, 1.424999999999999156, 0.0000000000000000000 ) ) ;
#239 = CIRCLE ( 'NONE', #245, 1.500000000000001110 ) ;
#240 = VERTEX_POINT ( 'NONE', #124 ) ;
#241 = EDGE_LOOP ( 'NONE', ( #262 ) ) ;
#242 = DATE_TIME_ROLE ( 'creation_date' ) ;
#243 = PRODUCT_DEFINITION ( 'UNKNOWN', '', #157, #251 ) ;
#244 = DIRECTION ( 'NONE',  ( -3.491481338843133355E-15, 1.224646799147353207E-16, -1.000000000000000000 ) ) ;
#245 = AXIS2_PLACEMENT_3D ( 'NONE', #113, #205, #229 ) ;
#246 = CARTESIAN_POINT ( 'NONE',  ( 8.728703347107835360E-16, 1.675000000000000044, 0.2500000000000000555 ) ) ;
#247 = PERSON_AND_ORGANIZATION ( #271, #94 ) ;
#248 = DIRECTION ( 'NONE',  ( -3.491481338843133355E-15, 1.224646799147353207E-16, -1.000000000000000000 ) ) ;
#249 = EDGE_LOOP ( 'NONE', ( #109 ) ) ;
#250 = EDGE_LOOP ( 'NONE', ( #86 ) ) ;
#251 = DESIGN_CONTEXT ( 'detailed design', #292, 'design' ) ;
#252 = CC_DESIGN_APPROVAL ( #190, ( #243 ) ) ;
#253 = CONICAL_SURFACE ( 'NONE', #192, 1.675000000000000044, 0.5235987755983011471 ) ;
#254 = DIRECTION ( 'NONE',  ( 4.599235688088921688E-31, 1.000000000000000000, 1.294569758191647155E-16 ) ) ;
#255 = CARTESIAN_POINT ( 'NONE',  ( 2.444036937190193601E-13, -8.572527594031472993E-15, 70.00000000000000000 ) ) ;
#256 = DIRECTION ( 'NONE',  ( -3.491481338843133355E-15, 1.224646799147353207E-16, -1.000000000000000000 ) ) ;
#257 = DIRECTION ( 'NONE',  ( 0.0000000000000000000, 1.000000000000000000, 0.0000000000000000000 ) ) ;
#258 = FACE_BOUND ( 'NONE', #182, .T. ) ;
#259 = DIRECTION ( 'NONE',  ( 3.491481338843133355E-15, -1.224646799147353207E-16, 1.000000000000000000 ) ) ;
#260 = CARTESIAN_POINT ( 'NONE',  ( 3.597311242612848531E-14, 1.499999999999991562, 10.30310889132456431 ) ) ;
#261 = CALENDAR_DATE ( 2021, 2, 12 ) ;
#262 = ORIENTED_EDGE ( 'NONE', *, *, #65, .F. ) ;
#263 = MANIFOLD_SOLID_BREP ( 'Corps-Déplacer/Copier1[2]', #175 ) ;
#264 = AXIS2_PLACEMENT_3D ( 'NONE', #232, #259, #139 ) ;
#265 = MECHANICAL_CONTEXT ( 'NONE', #10, 'mechanical' ) ;
#266 = APPROVAL_DATE_TIME ( #28, #84 ) ;
#267 = SECURITY_CLASSIFICATION ( '', '', #272 ) ;
#268 = CC_DESIGN_PERSON_AND_ORGANIZATION_ASSIGNMENT ( #148, #82, ( #174 ) ) ;
#269 = PERSON_AND_ORGANIZATION_ROLE ( 'design_supplier' ) ;
#270 = MANIFOLD_SOLID_BREP ( 'Corps-Déplacer/Copier1[1]', #141 ) ;
#271 = PERSON ( 'UNSPECIFIED', 'UNSPECIFIED', 'UNSPECIFIED', ('UNSPECIFIED'), ('UNSPECIFIED'), ('UNSPECIFIED') ) ;
#272 = SECURITY_CLASSIFICATION_LEVEL ( 'unclassified' ) ;
#273 = AXIS2_PLACEMENT_3D ( 'NONE', #168, #282, #237 ) ;
#274 = CC_DESIGN_PERSON_AND_ORGANIZATION_ASSIGNMENT ( #158, #269, ( #157 ) ) ;
#275 = ADVANCED_FACE ( 'NONE', ( #186, #276 ), #253, .T. ) ;
#276 = FACE_OUTER_BOUND ( 'NONE', #170, .T. ) ;
#277 = CIRCLE ( 'NONE', #33, 1.200000000000001510 ) ;
#278 = CARTESIAN_POINT ( 'NONE',  ( 0.0000000000000000000, 0.0000000000000000000, 0.0000000000000000000 ) ) ;
#279 = FACE_OUTER_BOUND ( 'NONE', #249, .T. ) ;
#280 = DIRECTION ( 'NONE',  ( -3.491481338843133355E-15, 1.224646799147353207E-16, -1.000000000000000000 ) ) ;
#281 = CIRCLE ( 'NONE', #99, 1.499999999999992895 ) ;
#282 = DIRECTION ( 'NONE',  ( -3.491481338843133355E-15, 1.224646799147353207E-16, -1.000000000000000000 ) ) ;
#283 = LOCAL_TIME ( 10, 35, 33.00000000000000000, #177 ) ;
#284 = ORIENTED_EDGE ( 'NONE', *, *, #36, .T. ) ;
#285 = APPLICATION_PROTOCOL_DEFINITION ( 'international standard', 'config_control_design', 1994, #10 ) ;
#286 = EDGE_CURVE ( 'NONE', #76, #76, #277, .T. ) ;
#287 = VERTEX_POINT ( 'NONE', #246 ) ;
#288 = DIRECTION ( 'NONE',  ( -3.491481338843133355E-15, 1.224646799147353207E-16, -1.000000000000000000 ) ) ;
#289 = APPLICATION_PROTOCOL_DEFINITION ( 'international standard', 'config_control_design', 1994, #292 ) ;
#290 = CARTESIAN_POINT ( 'NONE',  ( 3.597311242612848531E-14, -1.261766932502726452E-15, 10.30310889132456431 ) ) ;
#291 = PERSON_AND_ORGANIZATION ( #271, #94 ) ;
#292 = APPLICATION_CONTEXT ( 'configuration controlled 3d designs of mechanical parts and assemblies' ) ;
#293 = EDGE_CURVE ( 'NONE', #217, #217, #187, .T. ) ;
#294 = AXIS2_PLACEMENT_3D ( 'NONE', #255, #151, #133 ) ;
#295 = CC_DESIGN_DATE_AND_TIME_ASSIGNMENT ( #222, #81, ( #267 ) ) ;
#296 = DIRECTION ( 'NONE',  ( -3.491481338843133355E-15, 1.224646799147353207E-16, -1.000000000000000000 ) ) ;
#297 = PLANE ( 'NONE',  #78 ) ;
#298 = APPROVAL_PERSON_ORGANIZATION ( #53, #190, #80 ) ;
#299 = CONICAL_SURFACE ( 'NONE', #273, 1.675000000000000044, 0.5235987755983011471 ) ;
#300 = PLANE ( 'NONE',  #226 ) ;
#301 = SHAPE_DEFINITION_REPRESENTATION ( #149, #45 ) ;
#302 = DIRECTION ( 'NONE',  ( 4.275831445896958607E-31, 1.000000000000000000, 1.224646799147353454E-16 ) ) ;
#303 = FACE_OUTER_BOUND ( 'NONE', #14, .T. ) ;
ENDSEC;
END-ISO-10303-21;
