ISO-10303-21;
HEADER;
FILE_DESCRIPTION (( 'STEP AP203' ),
    '1' );
FILE_NAME ('321560.step',
    '2021-12-02T09:35:32',
    ( '' ),
    ( '' ),
    'SwSTEP 2.0',
    'SolidWorks 2019',
    '' );
FILE_SCHEMA (( 'CONFIG_CONTROL_DESIGN' ));
ENDSEC;

DATA;
#1 = APPROVAL_DATE_TIME ( #170, #66 ) ;
#2 = EDGE_LOOP ( 'NONE', ( #98 ) ) ;
#3 = CC_DESIGN_PERSON_AND_ORGANIZATION_ASSIGNMENT ( #140, #233, ( #58 ) ) ;
#4 = PERSON_AND_ORGANIZATION_ROLE ( 'design_owner' ) ;
#5 =( NAMED_UNIT ( * ) PLANE_ANGLE_UNIT ( ) SI_UNIT ( $, .RADIAN. ) );
#6 = CARTESIAN_POINT ( 'NONE',  ( 0.0000000000000000000, 0.0000000000000000000, 0.0000000000000000000 ) ) ;
#7 = APPROVAL_PERSON_ORGANIZATION ( #73, #66, #287 ) ;
#8 = ADVANCED_FACE ( 'NONE', ( #271 ), #176, .F. ) ;
#9 = AXIS2_PLACEMENT_3D ( 'NONE', #284, #291, #126 ) ;
#10 = PERSON_AND_ORGANIZATION ( #130, #31 ) ;
#11 = EDGE_LOOP ( 'NONE', ( #125 ) ) ;
#12 = VERTEX_POINT ( 'NONE', #147 ) ;
#13 = CARTESIAN_POINT ( 'NONE',  ( 2.433562493173664138E-13, -8.535788190057053710E-15, 69.70000000000001705 ) ) ;
#14 = CARTESIAN_POINT ( 'NONE',  ( 3.491481338843133355E-14, -1.224646799147353256E-15, 10.00000000000000000 ) ) ;
#15 = CC_DESIGN_DATE_AND_TIME_ASSIGNMENT ( #190, #99, ( #58 ) ) ;
#16 = SHAPE_DEFINITION_REPRESENTATION ( #178, #94 ) ;
#17 = DIRECTION ( 'NONE',  ( -3.491481338843133355E-15, 1.224646799147353207E-16, -1.000000000000000000 ) ) ;
#18 = CARTESIAN_POINT ( 'NONE',  ( 2.444036937190193601E-13, -8.572527594031472993E-15, 70.00000000000000000 ) ) ;
#19 = LOCAL_TIME ( 10, 35, 32.00000000000000000, #85 ) ;
#20 = CIRCLE ( 'NONE', #185, 1.500000000000001110 ) ;
#21 = CARTESIAN_POINT ( 'NONE',  ( 0.0000000000000000000, 1.419999999999994156, 0.0000000000000000000 ) ) ;
#22 = ADVANCED_FACE ( 'NONE', ( #53, #171 ), #266, .T. ) ;
#23 = CARTESIAN_POINT ( 'NONE',  ( -6.071680653173656208E-31, 2.129658891379829264E-32, -1.738998454789234499E-16 ) ) ;
#24 = AXIS2_PLACEMENT_3D ( 'NONE', #236, #169, #149 ) ;
#25 = DIRECTION ( 'NONE',  ( -3.491481338843133355E-15, 1.224646799147353207E-16, -1.000000000000000000 ) ) ;
#26 = DATE_TIME_ROLE ( 'classification_date' ) ;
#27 = AXIS2_PLACEMENT_3D ( 'NONE', #18, #25, #158 ) ;
#28 = ORIENTED_EDGE ( 'NONE', *, *, #134, .T. ) ;
#29 = CALENDAR_DATE ( 2021, 2, 12 ) ;
#30 = FACE_OUTER_BOUND ( 'NONE', #244, .T. ) ;
#31 = ORGANIZATION ( 'UNSPECIFIED', 'UNSPECIFIED', '' ) ;
#32 = CC_DESIGN_PERSON_AND_ORGANIZATION_ASSIGNMENT ( #196, #80, ( #205 ) ) ;
#33 = ORIENTED_EDGE ( 'NONE', *, *, #161, .T. ) ;
#34 = CIRCLE ( 'NONE', #175, 1.499999999999992895 ) ;
#35 = FACE_BOUND ( 'NONE', #207, .T. ) ;
#36 = FACE_BOUND ( 'NONE', #83, .T. ) ;
#37 = CONICAL_SURFACE ( 'NONE', #252, 1.669999999999995044, 0.5235987755982999259 ) ;
#38 = DIRECTION ( 'NONE',  ( -3.491481338843133355E-15, 1.224646799147353207E-16, -1.000000000000000000 ) ) ;
#39 = VERTEX_POINT ( 'NONE', #139 ) ;
#40 = EDGE_CURVE ( 'NONE', #62, #62, #241, .T. ) ;
#41 = DIRECTION ( 'NONE',  ( 0.0000000000000000000, 1.000000000000000000, 0.0000000000000000000 ) ) ;
#42 = AXIS2_PLACEMENT_3D ( 'NONE', #273, #180, #116 ) ;
#43 = PRODUCT_RELATED_PRODUCT_CATEGORY ( 'detail', '', ( #127 ) ) ;
#44 = FACE_OUTER_BOUND ( 'NONE', #2, .T. ) ;
#45 = CONICAL_SURFACE ( 'NONE', #214, 1.200000000000001510, 0.7853981633974566057 ) ;
#46 = MANIFOLD_SOLID_BREP ( 'Corps-Déplacer/Copier1[1]', #159 ) ;
#47 = DIRECTION ( 'NONE',  ( -3.491481338843133355E-15, 1.224646799147353207E-16, -1.000000000000000000 ) ) ;
#48 = CARTESIAN_POINT ( 'NONE',  ( 3.491481338843133355E-14, 1.669999999999993712, 10.00000000000000000 ) ) ;
#49 = EDGE_LOOP ( 'NONE', ( #188 ) ) ;
#50 = PERSON_AND_ORGANIZATION_ROLE ( 'classification_officer' ) ;
#51 = EDGE_LOOP ( 'NONE', ( #106 ) ) ;
#52 = APPROVAL_ROLE ( '' ) ;
#53 = FACE_OUTER_BOUND ( 'NONE', #301, .T. ) ;
#54 = COORDINATED_UNIVERSAL_TIME_OFFSET ( 1, 0, .AHEAD. ) ;
#55 = FACE_OUTER_BOUND ( 'NONE', #69, .T. ) ;
#56 = CC_DESIGN_SECURITY_CLASSIFICATION ( #84, ( #205 ) ) ;
#57 = DIRECTION ( 'NONE',  ( 0.0000000000000000000, 1.000000000000000000, 0.0000000000000000000 ) ) ;
#58 = PRODUCT_DEFINITION ( 'UNKNOWN', '', #205, #77 ) ;
#59 = ORIENTED_EDGE ( 'NONE', *, *, #134, .F. ) ;
#60 = DIRECTION ( 'NONE',  ( 0.0000000000000000000, 1.000000000000000000, 0.0000000000000000000 ) ) ;
#61 = AXIS2_PLACEMENT_3D ( 'NONE', #91, #275, #274 ) ;
#62 = VERTEX_POINT ( 'NONE', #255 ) ;
#63 = AXIS2_PLACEMENT_3D ( 'NONE', #6, #263, #195 ) ;
#64 = DIRECTION ( 'NONE',  ( -3.491481338843133355E-15, 1.224646799147353207E-16, -1.000000000000000000 ) ) ;
#65 = VERTEX_POINT ( 'NONE', #48 ) ;
#66 = APPROVAL ( #261, 'UNSPECIFIED' ) ;
#67 = ORIENTED_EDGE ( 'NONE', *, *, #234, .T. ) ;
#68 = DIRECTION ( 'NONE',  ( 0.0000000000000000000, 1.000000000000000000, 0.0000000000000000000 ) ) ;
#69 = EDGE_LOOP ( 'NONE', ( #251 ) ) ;
#70 = FACE_OUTER_BOUND ( 'NONE', #104, .T. ) ;
#71 = CONICAL_SURFACE ( 'NONE', #150, 1.669999999999995044, 0.5235987755982999259 ) ;
#72 = EDGE_LOOP ( 'NONE', ( #59 ) ) ;
#73 = PERSON_AND_ORGANIZATION ( #130, #31 ) ;
#74 = EDGE_LOOP ( 'NONE', ( #197 ) ) ;
#75 = ADVANCED_FACE ( 'NONE', ( #146, #30 ), #240, .T. ) ;
#76 = PERSON_AND_ORGANIZATION ( #130, #31 ) ;
#77 = DESIGN_CONTEXT ( 'detailed design', #227, 'design' ) ;
#78 = DIRECTION ( 'NONE',  ( 1.000000000000000000, 0.0000000000000000000, 0.0000000000000000000 ) ) ;
#79 = DIRECTION ( 'NONE',  ( -3.491481338843133355E-15, 1.224646799147353207E-16, -1.000000000000000000 ) ) ;
#80 = PERSON_AND_ORGANIZATION_ROLE ( 'creator' ) ;
#81 = CARTESIAN_POINT ( 'NONE',  ( 3.594287531076567871E-14, -1.260706357264000619E-15, 10.29444863728671322 ) ) ;
#82 = ADVANCED_FACE ( 'NONE', ( #35, #55 ), #71, .T. ) ;
#83 = EDGE_LOOP ( 'NONE', ( #215 ) ) ;
#84 = SECURITY_CLASSIFICATION ( '', '', #121 ) ;
#85 = COORDINATED_UNIVERSAL_TIME_OFFSET ( 1, 0, .AHEAD. ) ;
#86 = EDGE_LOOP ( 'NONE', ( #28 ) ) ;
#87 = DATE_AND_TIME ( #290, #19 ) ;
#88 = CARTESIAN_POINT ( 'NONE',  ( 2.444036937190193601E-13, -8.572527594031472993E-15, 70.00000000000000000 ) ) ;
#89 = FACE_OUTER_BOUND ( 'NONE', #49, .T. ) ;
#90 = AXIS2_PLACEMENT_3D ( 'NONE', #23, #229, #110 ) ;
#91 = CARTESIAN_POINT ( 'NONE',  ( 2.433562493173664138E-13, -8.535788190057053710E-15, 69.70000000000001705 ) ) ;
#92 = APPROVAL ( #143, 'UNSPECIFIED' ) ;
#93 = DIRECTION ( 'NONE',  ( 4.275831445896958607E-31, 1.000000000000000000, 1.224646799147353207E-16 ) ) ;
#94 = ADVANCED_BREP_SHAPE_REPRESENTATION ( '321560', ( #46, #144, #247 ), #228 ) ;
#95 = FACE_OUTER_BOUND ( 'NONE', #151, .T. ) ;
#96 = FACE_OUTER_BOUND ( 'NONE', #257, .T. ) ;
#97 = APPROVAL_ROLE ( '' ) ;
#98 = ORIENTED_EDGE ( 'NONE', *, *, #40, .F. ) ;
#99 = DATE_TIME_ROLE ( 'creation_date' ) ;
#100 =( LENGTH_UNIT ( ) NAMED_UNIT ( * ) SI_UNIT ( .MILLI., .METRE. ) );
#101 = APPROVAL ( #210, 'UNSPECIFIED' ) ;
#102 = AXIS2_PLACEMENT_3D ( 'NONE', #88, #177, #60 ) ;
#103 = FACE_OUTER_BOUND ( 'NONE', #165, .T. ) ;
#104 = EDGE_LOOP ( 'NONE', ( #189 ) ) ;
#105 = MECHANICAL_CONTEXT ( 'NONE', #211, 'mechanical' ) ;
#106 = ORIENTED_EDGE ( 'NONE', *, *, #187, .T. ) ;
#107 = APPROVAL_DATE_TIME ( #87, #101 ) ;
#108 = EDGE_LOOP ( 'NONE', ( #254 ) ) ;
#109 = DIRECTION ( 'NONE',  ( -3.491481338843133355E-15, 1.224646799147353207E-16, -1.000000000000000000 ) ) ;
#110 = DIRECTION ( 'NONE',  ( 4.275831445896958607E-31, 1.000000000000000000, 1.224646799147353207E-16 ) ) ;
#111 = CARTESIAN_POINT ( 'NONE',  ( 2.444036937190193601E-13, 1.199999999999992628, 70.00000000000000000 ) ) ;
#112 = CC_DESIGN_APPROVAL ( #92, ( #205 ) ) ;
#113 = CC_DESIGN_APPROVAL ( #66, ( #58 ) ) ;
#114 = CYLINDRICAL_SURFACE ( 'NONE', #239, 1.499999999999996891 ) ;
#115 = CC_DESIGN_PERSON_AND_ORGANIZATION_ASSIGNMENT ( #282, #4, ( #127 ) ) ;
#116 = DIRECTION ( 'NONE',  ( 4.275831445896958607E-31, 1.000000000000000000, 1.224646799147353207E-16 ) ) ;
#117 = DIRECTION ( 'NONE',  ( 0.0000000000000000000, 1.000000000000000000, 0.0000000000000000000 ) ) ;
#118 = PERSON_AND_ORGANIZATION ( #130, #31 ) ;
#119 = CIRCLE ( 'NONE', #27, 1.200000000000001510 ) ;
#120 = EDGE_LOOP ( 'NONE', ( #33 ) ) ;
#121 = SECURITY_CLASSIFICATION_LEVEL ( 'unclassified' ) ;
#122 = APPLICATION_PROTOCOL_DEFINITION ( 'international standard', 'config_control_design', 1994, #211 ) ;
#123 = EDGE_LOOP ( 'NONE', ( #260 ) ) ;
#124 = CONICAL_SURFACE ( 'NONE', #9, 1.419999999999994156, 0.7853981633974500554 ) ;
#125 = ORIENTED_EDGE ( 'NONE', *, *, #157, .T. ) ;
#126 = DIRECTION ( 'NONE',  ( -4.275831445896958607E-31, -1.000000000000000000, -1.224646799147353207E-16 ) ) ;
#127 = PRODUCT ( '321560', '321560', '', ( #105 ) ) ;
#128 = CARTESIAN_POINT ( 'NONE',  ( 3.491481338843133355E-14, -1.224646799147353256E-15, 10.00000000000000000 ) ) ;
#129 = AXIS2_PLACEMENT_3D ( 'NONE', #200, #64, #93 ) ;
#130 = PERSON ( 'UNSPECIFIED', 'UNSPECIFIED', 'UNSPECIFIED', ('UNSPECIFIED'), ('UNSPECIFIED'), ('UNSPECIFIED') ) ;
#131 = DIRECTION ( 'NONE',  ( -3.491481338843133355E-15, 1.224646799147353207E-16, -1.000000000000000000 ) ) ;
#132 = DIRECTION ( 'NONE',  ( 4.275831445896958607E-31, 1.000000000000000000, 1.224646799147353207E-16 ) ) ;
#133 = CARTESIAN_POINT ( 'NONE',  ( 2.444036937190193601E-13, -8.572527594031472993E-15, 70.00000000000000000 ) ) ;
#134 = EDGE_CURVE ( 'NONE', #39, #39, #34, .T. ) ;
#135 = CIRCLE ( 'NONE', #163, 1.669999999999995044 ) ;
#136 = CARTESIAN_POINT ( 'NONE',  ( 8.728703347107835360E-16, 1.669999999999995044, 0.2500000000000000555 ) ) ;
#137 = AXIS2_PLACEMENT_3D ( 'NONE', #14, #174, #57 ) ;
#138 = ADVANCED_FACE ( 'NONE', ( #199, #218 ), #124, .T. ) ;
#139 = CARTESIAN_POINT ( 'NONE',  ( 3.594287531076567871E-14, 1.499999999999991562, 10.29444863728671322 ) ) ;
#140 = PERSON_AND_ORGANIZATION ( #130, #31 ) ;
#141 = APPROVAL_PERSON_ORGANIZATION ( #76, #92, #52 ) ;
#142 = ORIENTED_EDGE ( 'NONE', *, *, #270, .F. ) ;
#143 = APPROVAL_STATUS ( 'not_yet_approved' ) ;
#144 = MANIFOLD_SOLID_BREP ( 'Corps-Déplacer/Copier1[2]', #248 ) ;
#145 = PERSON_AND_ORGANIZATION_ROLE ( 'design_supplier' ) ;
#146 = FACE_OUTER_BOUND ( 'NONE', #288, .T. ) ;
#147 = CARTESIAN_POINT ( 'NONE',  ( 2.433562493173664138E-13, 1.499999999999992673, 69.70000000000001705 ) ) ;
#148 = CIRCLE ( 'NONE', #61, 1.500000000000001110 ) ;
#149 = DIRECTION ( 'NONE',  ( -4.275831445896958607E-31, -1.000000000000000000, -1.224646799147353207E-16 ) ) ;
#150 = AXIS2_PLACEMENT_3D ( 'NONE', #128, #221, #286 ) ;
#151 = EDGE_LOOP ( 'NONE', ( #289 ) ) ;
#152 = DIRECTION ( 'NONE',  ( 0.0000000000000000000, 1.000000000000000000, 0.0000000000000000000 ) ) ;
#153 = UNCERTAINTY_MEASURE_WITH_UNIT (LENGTH_MEASURE( 1.000000000000000082E-05 ), #100, 'distance_accuracy_value', 'NONE');
#154 = CARTESIAN_POINT ( 'NONE',  ( 8.728703347107827472E-16, -3.061616997868381169E-17, 0.2499999999999998335 ) ) ;
#155 = AXIS2_PLACEMENT_3D ( 'NONE', #133, #17, #41 ) ;
#156 = CC_DESIGN_PERSON_AND_ORGANIZATION_ASSIGNMENT ( #213, #145, ( #205 ) ) ;
#157 = EDGE_CURVE ( 'NONE', #65, #65, #202, .T. ) ;
#158 = DIRECTION ( 'NONE',  ( 0.0000000000000000000, 1.000000000000000000, 0.0000000000000000000 ) ) ;
#159 = CLOSED_SHELL ( 'NONE', ( #8, #82, #22, #204, #265 ) ) ;
#160 = VERTEX_POINT ( 'NONE', #21 ) ;
#161 = EDGE_CURVE ( 'NONE', #223, #223, #20, .T. ) ;
#162 = PLANE ( 'NONE',  #129 ) ;
#163 = AXIS2_PLACEMENT_3D ( 'NONE', #154, #79, #183 ) ;
#164 = PLANE ( 'NONE',  #303 ) ;
#165 = EDGE_LOOP ( 'NONE', ( #230 ) ) ;
#166 = CARTESIAN_POINT ( 'NONE',  ( 3.491481338843133355E-14, -1.224646799147353256E-15, 10.00000000000000000 ) ) ;
#167 = COORDINATED_UNIVERSAL_TIME_OFFSET ( 1, 0, .AHEAD. ) ;
#168 = ADVANCED_FACE ( 'NONE', ( #103, #36 ), #298, .T. ) ;
#169 = DIRECTION ( 'NONE',  ( 3.491481338843133355E-15, -1.224646799147353207E-16, 1.000000000000000000 ) ) ;
#170 = DATE_AND_TIME ( #256, #209 ) ;
#171 = FACE_OUTER_BOUND ( 'NONE', #108, .T. ) ;
#172 = CARTESIAN_POINT ( 'NONE',  ( 3.594287531076567871E-14, 1.499999999999991562, 10.29444863728671322 ) ) ;
#173 = LOCAL_TIME ( 10, 35, 32.00000000000000000, #167 ) ;
#174 = DIRECTION ( 'NONE',  ( -3.491481338843133355E-15, 1.224646799147353207E-16, -1.000000000000000000 ) ) ;
#175 = AXIS2_PLACEMENT_3D ( 'NONE', #81, #109, #269 ) ;
#176 = PLANE ( 'NONE',  #24 ) ;
#177 = DIRECTION ( 'NONE',  ( -3.491481338843133355E-15, 1.224646799147353207E-16, -1.000000000000000000 ) ) ;
#178 = PRODUCT_DEFINITION_SHAPE ( 'NONE', 'NONE',  #58 ) ;
#179 = FACE_OUTER_BOUND ( 'NONE', #72, .T. ) ;
#180 = DIRECTION ( 'NONE',  ( -3.491481338843133355E-15, 1.224646799147353207E-16, -1.000000000000000000 ) ) ;
#181 = CARTESIAN_POINT ( 'NONE',  ( 0.0000000000000000000, 0.0000000000000000000, 0.0000000000000000000 ) ) ;
#182 = EDGE_CURVE ( 'NONE', #222, #222, #135, .T. ) ;
#183 = DIRECTION ( 'NONE',  ( 4.613005854819740487E-31, 1.000000000000000000, 1.298445715551506227E-16 ) ) ;
#184 = CC_DESIGN_APPROVAL ( #101, ( #84 ) ) ;
#185 = AXIS2_PLACEMENT_3D ( 'NONE', #13, #131, #152 ) ;
#186 = DIRECTION ( 'NONE',  ( -3.491481338843133355E-15, 1.224646799147353207E-16, -1.000000000000000000 ) ) ;
#187 = EDGE_CURVE ( 'NONE', #203, #203, #119, .T. ) ;
#188 = ORIENTED_EDGE ( 'NONE', *, *, #300, .F. ) ;
#189 = ORIENTED_EDGE ( 'NONE', *, *, #219, .F. ) ;
#190 = DATE_AND_TIME ( #194, #237 ) ;
#191 = DATE_AND_TIME ( #264, #173 ) ;
#192 = CIRCLE ( 'NONE', #272, 1.499999999999992895 ) ;
#193 = DIRECTION ( 'NONE',  ( -3.491481338843133355E-15, 1.224646799147353207E-16, -1.000000000000000000 ) ) ;
#194 = CALENDAR_DATE ( 2021, 2, 12 ) ;
#195 = DIRECTION ( 'NONE',  ( 4.275831445896958607E-31, 1.000000000000000000, 1.224646799147353454E-16 ) ) ;
#196 = PERSON_AND_ORGANIZATION ( #130, #31 ) ;
#197 = ORIENTED_EDGE ( 'NONE', *, *, #234, .F. ) ;
#198 = ORIENTED_EDGE ( 'NONE', *, *, #182, .F. ) ;
#199 = FACE_OUTER_BOUND ( 'NONE', #123, .T. ) ;
#200 = CARTESIAN_POINT ( 'NONE',  ( 2.444036937190193601E-13, -8.572527594031472993E-15, 70.00000000000000000 ) ) ;
#201 = VERTEX_POINT ( 'NONE', #294 ) ;
#202 = CIRCLE ( 'NONE', #226, 1.669999999999995044 ) ;
#203 = VERTEX_POINT ( 'NONE', #111 ) ;
#204 = ADVANCED_FACE ( 'NONE', ( #89, #292 ), #45, .T. ) ;
#205 = PRODUCT_DEFINITION_FORMATION_WITH_SPECIFIED_SOURCE ( 'ANY', '', #127, .NOT_KNOWN. ) ;
#206 = FACE_BOUND ( 'NONE', #86, .T. ) ;
#207 = EDGE_LOOP ( 'NONE', ( #278 ) ) ;
#208 = CARTESIAN_POINT ( 'NONE',  ( 3.594287531076567871E-14, -1.260706357264000619E-15, 10.29444863728671322 ) ) ;
#209 = LOCAL_TIME ( 10, 35, 32.00000000000000000, #267 ) ;
#210 = APPROVAL_STATUS ( 'not_yet_approved' ) ;
#211 = APPLICATION_CONTEXT ( 'configuration controlled 3d designs of mechanical parts and assemblies' ) ;
#212 = APPLICATION_PROTOCOL_DEFINITION ( 'international standard', 'config_control_design', 1994, #227 ) ;
#213 = PERSON_AND_ORGANIZATION ( #130, #31 ) ;
#214 = AXIS2_PLACEMENT_3D ( 'NONE', #246, #186, #117 ) ;
#215 = ORIENTED_EDGE ( 'NONE', *, *, #219, .T. ) ;
#216 = DIRECTION ( 'NONE',  ( 0.0000000000000000000, 0.0000000000000000000, 1.000000000000000000 ) ) ;
#217 = AXIS2_PLACEMENT_3D ( 'NONE', #268, #38, #242 ) ;
#218 = FACE_BOUND ( 'NONE', #74, .T. ) ;
#219 = EDGE_CURVE ( 'NONE', #201, #201, #224, .T. ) ;
#220 = DIRECTION ( 'NONE',  ( 0.0000000000000000000, 1.000000000000000000, 0.0000000000000000000 ) ) ;
#221 = DIRECTION ( 'NONE',  ( -3.491481338843133355E-15, 1.224646799147353207E-16, -1.000000000000000000 ) ) ;
#222 = VERTEX_POINT ( 'NONE', #136 ) ;
#223 = VERTEX_POINT ( 'NONE', #253 ) ;
#224 = CIRCLE ( 'NONE', #155, 1.200000000000001510 ) ;
#225 = DIRECTION ( 'NONE',  ( -3.491481338843133355E-15, 1.224646799147353207E-16, -1.000000000000000000 ) ) ;
#226 = AXIS2_PLACEMENT_3D ( 'NONE', #243, #193, #220 ) ;
#227 = APPLICATION_CONTEXT ( 'configuration controlled 3d designs of mechanical parts and assemblies' ) ;
#228 =( GEOMETRIC_REPRESENTATION_CONTEXT ( 3 ) GLOBAL_UNCERTAINTY_ASSIGNED_CONTEXT ( ( #153 ) ) GLOBAL_UNIT_ASSIGNED_CONTEXT ( ( #100, #5, #258 ) ) REPRESENTATION_CONTEXT ( 'NONE', 'WORKASPACE' ) );
#229 = DIRECTION ( 'NONE',  ( -3.491481338843133355E-15, 1.224646799147353207E-16, -1.000000000000000000 ) ) ;
#230 = ORIENTED_EDGE ( 'NONE', *, *, #161, .F. ) ;
#231 = ADVANCED_FACE ( 'NONE', ( #179, #245 ), #114, .T. ) ;
#232 = CARTESIAN_POINT ( 'NONE',  ( -3.035840326586828104E-31, 1.064829445689914632E-32, -8.694992273946172494E-17 ) ) ;
#233 = PERSON_AND_ORGANIZATION_ROLE ( 'creator' ) ;
#234 = EDGE_CURVE ( 'NONE', #160, #160, #293, .T. ) ;
#235 = COORDINATED_UNIVERSAL_TIME_OFFSET ( 1, 0, .AHEAD. ) ;
#236 = CARTESIAN_POINT ( 'NONE',  ( 3.491481338843133355E-14, 1.252299418522645465E-32, 10.00000000000000000 ) ) ;
#237 = LOCAL_TIME ( 10, 35, 32.00000000000000000, #54 ) ;
#238 = DATE_AND_TIME ( #29, #297 ) ;
#239 = AXIS2_PLACEMENT_3D ( 'NONE', #181, #47, #280 ) ;
#240 = CYLINDRICAL_SURFACE ( 'NONE', #217, 1.669999999999995044 ) ;
#241 = CIRCLE ( 'NONE', #137, 1.669999999999995044 ) ;
#242 = DIRECTION ( 'NONE',  ( 4.275831445896958607E-31, 1.000000000000000000, 1.224646799147353207E-16 ) ) ;
#243 = CARTESIAN_POINT ( 'NONE',  ( 3.491481338843133355E-14, -1.224646799147353256E-15, 10.00000000000000000 ) ) ;
#244 = EDGE_LOOP ( 'NONE', ( #198 ) ) ;
#245 = FACE_OUTER_BOUND ( 'NONE', #120, .T. ) ;
#246 = CARTESIAN_POINT ( 'NONE',  ( 2.444036937190193601E-13, -8.572527594031472993E-15, 70.00000000000000000 ) ) ;
#247 = AXIS2_PLACEMENT_3D ( 'NONE', #285, #216, #78 ) ;
#248 = CLOSED_SHELL ( 'NONE', ( #250, #75, #138, #277, #262, #168, #231 ) ) ;
#249 = DIRECTION ( 'NONE',  ( -3.491481338843133355E-15, 1.224646799147353207E-16, -1.000000000000000000 ) ) ;
#250 = ADVANCED_FACE ( 'NONE', ( #206, #44 ), #37, .T. ) ;
#251 = ORIENTED_EDGE ( 'NONE', *, *, #157, .F. ) ;
#252 = AXIS2_PLACEMENT_3D ( 'NONE', #166, #249, #279 ) ;
#253 = CARTESIAN_POINT ( 'NONE',  ( 2.433562493173664138E-13, 1.499999999999992673, 69.70000000000001705 ) ) ;
#254 = ORIENTED_EDGE ( 'NONE', *, *, #300, .T. ) ;
#255 = CARTESIAN_POINT ( 'NONE',  ( 3.491481338843133355E-14, 1.669999999999993712, 10.00000000000000000 ) ) ;
#256 = CALENDAR_DATE ( 2021, 2, 12 ) ;
#257 = EDGE_LOOP ( 'NONE', ( #67 ) ) ;
#258 =( NAMED_UNIT ( * ) SI_UNIT ( $, .STERADIAN. ) SOLID_ANGLE_UNIT ( ) );
#259 = CC_DESIGN_PERSON_AND_ORGANIZATION_ASSIGNMENT ( #10, #50, ( #84 ) ) ;
#260 = ORIENTED_EDGE ( 'NONE', *, *, #182, .T. ) ;
#261 = APPROVAL_STATUS ( 'not_yet_approved' ) ;
#262 = ADVANCED_FACE ( 'NONE', ( #70 ), #162, .F. ) ;
#263 = DIRECTION ( 'NONE',  ( -3.491481338843133355E-15, 1.224646799147353207E-16, -1.000000000000000000 ) ) ;
#264 = CALENDAR_DATE ( 2021, 2, 12 ) ;
#265 = ADVANCED_FACE ( 'NONE', ( #95 ), #302, .F. ) ;
#266 = CYLINDRICAL_SURFACE ( 'NONE', #63, 1.499999999999996891 ) ;
#267 = COORDINATED_UNIVERSAL_TIME_OFFSET ( 1, 0, .AHEAD. ) ;
#268 = CARTESIAN_POINT ( 'NONE',  ( 0.0000000000000000000, 0.0000000000000000000, 0.0000000000000000000 ) ) ;
#269 = DIRECTION ( 'NONE',  ( 0.0000000000000000000, 1.000000000000000000, 0.0000000000000000000 ) ) ;
#270 = EDGE_CURVE ( 'NONE', #295, #295, #192, .T. ) ;
#271 = FACE_OUTER_BOUND ( 'NONE', #11, .T. ) ;
#272 = AXIS2_PLACEMENT_3D ( 'NONE', #208, #299, #68 ) ;
#273 = CARTESIAN_POINT ( 'NONE',  ( 2.444036937190193601E-13, 8.998558695971026591E-33, 70.00000000000000000 ) ) ;
#274 = DIRECTION ( 'NONE',  ( 0.0000000000000000000, 1.000000000000000000, 0.0000000000000000000 ) ) ;
#275 = DIRECTION ( 'NONE',  ( -3.491481338843133355E-15, 1.224646799147353207E-16, -1.000000000000000000 ) ) ;
#276 = APPROVAL_PERSON_ORGANIZATION ( #118, #101, #97 ) ;
#277 = ADVANCED_FACE ( 'NONE', ( #96 ), #164, .T. ) ;
#278 = ORIENTED_EDGE ( 'NONE', *, *, #270, .T. ) ;
#279 = DIRECTION ( 'NONE',  ( 0.0000000000000000000, 1.000000000000000000, 0.0000000000000000000 ) ) ;
#280 = DIRECTION ( 'NONE',  ( 4.275831445896958607E-31, 1.000000000000000000, 1.224646799147353454E-16 ) ) ;
#281 = ORIENTED_EDGE ( 'NONE', *, *, #40, .T. ) ;
#282 = PERSON_AND_ORGANIZATION ( #130, #31 ) ;
#283 = APPROVAL_DATE_TIME ( #191, #92 ) ;
#284 = CARTESIAN_POINT ( 'NONE',  ( -6.071680653173656208E-31, 2.129658891379829264E-32, -1.738998454789234499E-16 ) ) ;
#285 = CARTESIAN_POINT ( 'NONE',  ( 0.0000000000000000000, 0.0000000000000000000, 0.0000000000000000000 ) ) ;
#286 = DIRECTION ( 'NONE',  ( 0.0000000000000000000, 1.000000000000000000, 0.0000000000000000000 ) ) ;
#287 = APPROVAL_ROLE ( '' ) ;
#288 = EDGE_LOOP ( 'NONE', ( #281 ) ) ;
#289 = ORIENTED_EDGE ( 'NONE', *, *, #187, .F. ) ;
#290 = CALENDAR_DATE ( 2021, 2, 12 ) ;
#291 = DIRECTION ( 'NONE',  ( 3.491481338843133355E-15, -1.224646799147353207E-16, 1.000000000000000000 ) ) ;
#292 = FACE_BOUND ( 'NONE', #51, .T. ) ;
#293 = CIRCLE ( 'NONE', #90, 1.419999999999994156 ) ;
#294 = CARTESIAN_POINT ( 'NONE',  ( 2.444036937190193601E-13, 1.199999999999992628, 70.00000000000000000 ) ) ;
#295 = VERTEX_POINT ( 'NONE', #172 ) ;
#296 = CC_DESIGN_DATE_AND_TIME_ASSIGNMENT ( #238, #26, ( #84 ) ) ;
#297 = LOCAL_TIME ( 10, 35, 32.00000000000000000, #235 ) ;
#298 = CONICAL_SURFACE ( 'NONE', #102, 1.200000000000001510, 0.7853981633974566057 ) ;
#299 = DIRECTION ( 'NONE',  ( -3.491481338843133355E-15, 1.224646799147353207E-16, -1.000000000000000000 ) ) ;
#300 = EDGE_CURVE ( 'NONE', #12, #12, #148, .T. ) ;
#301 = EDGE_LOOP ( 'NONE', ( #142 ) ) ;
#302 = PLANE ( 'NONE',  #42 ) ;
#303 = AXIS2_PLACEMENT_3D ( 'NONE', #232, #225, #132 ) ;
ENDSEC;
END-ISO-10303-21;
