ISO-10303-21;
HEADER;
FILE_DESCRIPTION (( 'STEP AP203' ),
    '1' );
FILE_NAME ('321559.step',
    '2021-12-02T09:35:32',
    ( '' ),
    ( '' ),
    'SwSTEP 2.0',
    'SolidWorks 2019',
    '' );
FILE_SCHEMA (( 'CONFIG_CONTROL_DESIGN' ));
ENDSEC;

DATA;
#1 = ORIENTED_EDGE ( 'NONE', *, *, #9, .F. ) ;
#2 = COORDINATED_UNIVERSAL_TIME_OFFSET ( 1, 0, .AHEAD. ) ;
#3 = CYLINDRICAL_SURFACE ( 'NONE', #167, 1.665000000000000036 ) ;
#4 = ADVANCED_FACE ( 'NONE', ( #10 ), #263, .T. ) ;
#5 = DIRECTION ( 'NONE',  ( -3.491481338843133355E-15, 1.224646799147353207E-16, -1.000000000000000000 ) ) ;
#6 = APPLICATION_PROTOCOL_DEFINITION ( 'international standard', 'config_control_design', 1994, #65 ) ;
#7 = AXIS2_PLACEMENT_3D ( 'NONE', #232, #213, #271 ) ;
#8 = DIRECTION ( 'NONE',  ( 4.275831445896958607E-31, 1.000000000000000000, 1.224646799147353207E-16 ) ) ;
#9 = EDGE_CURVE ( 'NONE', #215, #215, #265, .T. ) ;
#10 = FACE_OUTER_BOUND ( 'NONE', #193, .T. ) ;
#11 = DATE_AND_TIME ( #132, #53 ) ;
#12 = AXIS2_PLACEMENT_3D ( 'NONE', #69, #190, #137 ) ;
#13 = FACE_OUTER_BOUND ( 'NONE', #98, .T. ) ;
#14 = SECURITY_CLASSIFICATION ( '', '', #51 ) ;
#15 = DIRECTION ( 'NONE',  ( -3.491481338843133355E-15, 1.224646799147353207E-16, -1.000000000000000000 ) ) ;
#16 = CARTESIAN_POINT ( 'NONE',  ( 2.433562493173664138E-13, 1.499999999999992673, 69.70000000000001705 ) ) ;
#17 = DIRECTION ( 'NONE',  ( 0.0000000000000000000, 1.000000000000000000, 0.0000000000000000000 ) ) ;
#18 = PERSON_AND_ORGANIZATION_ROLE ( 'creator' ) ;
#19 = CC_DESIGN_APPROVAL ( #130, ( #14 ) ) ;
#20 = EDGE_LOOP ( 'NONE', ( #72 ) ) ;
#21 = CARTESIAN_POINT ( 'NONE',  ( 3.591263819540293522E-14, -1.259645782025276363E-15, 10.28578838324887634 ) ) ;
#22 = CIRCLE ( 'NONE', #236, 1.414999999999999147 ) ;
#23 = DIRECTION ( 'NONE',  ( -3.491481338843133355E-15, 1.224646799147353207E-16, -1.000000000000000000 ) ) ;
#24 = EDGE_CURVE ( 'NONE', #195, #195, #183, .T. ) ;
#25 = FACE_BOUND ( 'NONE', #96, .T. ) ;
#26 = DIRECTION ( 'NONE',  ( 0.0000000000000000000, 1.000000000000000000, 0.0000000000000000000 ) ) ;
#27 = DIRECTION ( 'NONE',  ( -3.491481338843133355E-15, 1.224646799147353207E-16, -1.000000000000000000 ) ) ;
#28 = CARTESIAN_POINT ( 'NONE',  ( 3.491481338843133355E-14, 1.664999999999998703, 10.00000000000000000 ) ) ;
#29 = COORDINATED_UNIVERSAL_TIME_OFFSET ( 1, 0, .AHEAD. ) ;
#30 = DIRECTION ( 'NONE',  ( 0.0000000000000000000, 1.000000000000000000, 0.0000000000000000000 ) ) ;
#31 = PLANE ( 'NONE',  #259 ) ;
#32 = CIRCLE ( 'NONE', #214, 1.665000000000000036 ) ;
#33 = CONICAL_SURFACE ( 'NONE', #12, 1.665000000000000036, 0.5235987755983010361 ) ;
#34 = DIRECTION ( 'NONE',  ( -3.491481338843133355E-15, 1.224646799147353207E-16, -1.000000000000000000 ) ) ;
#35 = FACE_BOUND ( 'NONE', #42, .T. ) ;
#36 = FACE_OUTER_BOUND ( 'NONE', #146, .T. ) ;
#37 = CALENDAR_DATE ( 2021, 2, 12 ) ;
#38 = EDGE_CURVE ( 'NONE', #253, #253, #86, .T. ) ;
#39 = MANIFOLD_SOLID_BREP ( 'Corps-Déplacer/Copier1[2]', #217 ) ;
#40 = DATE_AND_TIME ( #37, #58 ) ;
#41 = ORIENTED_EDGE ( 'NONE', *, *, #293, .F. ) ;
#42 = EDGE_LOOP ( 'NONE', ( #224 ) ) ;
#43 = ADVANCED_FACE ( 'NONE', ( #126, #154 ), #3, .T. ) ;
#44 = COORDINATED_UNIVERSAL_TIME_OFFSET ( 1, 0, .AHEAD. ) ;
#45 = EDGE_LOOP ( 'NONE', ( #234 ) ) ;
#46 = DATE_TIME_ROLE ( 'classification_date' ) ;
#47 = VERTEX_POINT ( 'NONE', #74 ) ;
#48 = DATE_AND_TIME ( #142, #70 ) ;
#49 = ORIENTED_EDGE ( 'NONE', *, *, #291, .F. ) ;
#50 = VERTEX_POINT ( 'NONE', #278 ) ;
#51 = SECURITY_CLASSIFICATION_LEVEL ( 'unclassified' ) ;
#52 = EDGE_LOOP ( 'NONE', ( #49 ) ) ;
#53 = LOCAL_TIME ( 10, 35, 32.00000000000000000, #270 ) ;
#54 = CARTESIAN_POINT ( 'NONE',  ( 8.728703347107827472E-16, -3.061616997868381169E-17, 0.2499999999999998335 ) ) ;
#55 = ADVANCED_BREP_SHAPE_REPRESENTATION ( '321559', ( #241, #39, #275 ), #273 ) ;
#56 = ORIENTED_EDGE ( 'NONE', *, *, #93, .F. ) ;
#57 = DIRECTION ( 'NONE',  ( -3.491481338843133355E-15, 1.224646799147353207E-16, -1.000000000000000000 ) ) ;
#58 = LOCAL_TIME ( 10, 35, 32.00000000000000000, #97 ) ;
#59 = CARTESIAN_POINT ( 'NONE',  ( 2.444036937190193601E-13, -8.572527594031472993E-15, 70.00000000000000000 ) ) ;
#60 = EDGE_CURVE ( 'NONE', #81, #81, #22, .T. ) ;
#61 = DIRECTION ( 'NONE',  ( -3.491481338843133355E-15, 1.224646799147353207E-16, -1.000000000000000000 ) ) ;
#62 = AXIS2_PLACEMENT_3D ( 'NONE', #191, #243, #30 ) ;
#63 = FACE_BOUND ( 'NONE', #116, .T. ) ;
#64 = DIRECTION ( 'NONE',  ( 4.275831445896958607E-31, 1.000000000000000000, 1.224646799147353207E-16 ) ) ;
#65 = APPLICATION_CONTEXT ( 'configuration controlled 3d designs of mechanical parts and assemblies' ) ;
#66 = PERSON_AND_ORGANIZATION_ROLE ( 'creator' ) ;
#67 = UNCERTAINTY_MEASURE_WITH_UNIT (LENGTH_MEASURE( 1.000000000000000082E-05 ), #165, 'distance_accuracy_value', 'NONE');
#68 = ADVANCED_FACE ( 'NONE', ( #242 ), #258, .F. ) ;
#69 = CARTESIAN_POINT ( 'NONE',  ( 3.491481338843133355E-14, -1.224646799147353256E-15, 10.00000000000000000 ) ) ;
#70 = LOCAL_TIME ( 10, 35, 32.00000000000000000, #44 ) ;
#71 = CIRCLE ( 'NONE', #143, 1.200000000000001510 ) ;
#72 = ORIENTED_EDGE ( 'NONE', *, *, #60, .F. ) ;
#73 = APPROVAL_STATUS ( 'not_yet_approved' ) ;
#74 = CARTESIAN_POINT ( 'NONE',  ( 2.444036937190193601E-13, 1.199999999999992628, 70.00000000000000000 ) ) ;
#75 = FACE_BOUND ( 'NONE', #276, .T. ) ;
#76 = AXIS2_PLACEMENT_3D ( 'NONE', #164, #297, #272 ) ;
#77 = PERSON ( 'UNSPECIFIED', 'UNSPECIFIED', 'UNSPECIFIED', ('UNSPECIFIED'), ('UNSPECIFIED'), ('UNSPECIFIED') ) ;
#78 = PRODUCT ( '321559', '321559', '', ( #216 ) ) ;
#79 = DIRECTION ( 'NONE',  ( -3.491481338843133355E-15, 1.224646799147353207E-16, -1.000000000000000000 ) ) ;
#80 = CARTESIAN_POINT ( 'NONE',  ( 2.444036937190193601E-13, -8.572527594031472993E-15, 70.00000000000000000 ) ) ;
#81 = VERTEX_POINT ( 'NONE', #118 ) ;
#82 = ORIENTED_EDGE ( 'NONE', *, *, #152, .F. ) ;
#83 =( NAMED_UNIT ( * ) PLANE_ANGLE_UNIT ( ) SI_UNIT ( $, .RADIAN. ) );
#84 = ORIENTED_EDGE ( 'NONE', *, *, #38, .F. ) ;
#85 = ORIENTED_EDGE ( 'NONE', *, *, #60, .T. ) ;
#86 = CIRCLE ( 'NONE', #248, 1.665000000000000036 ) ;
#87 = CIRCLE ( 'NONE', #7, 1.500000000000001110 ) ;
#88 = EDGE_CURVE ( 'NONE', #184, #184, #32, .T. ) ;
#89 = VERTEX_POINT ( 'NONE', #28 ) ;
#90 = DIRECTION ( 'NONE',  ( -3.491481338843133355E-15, 1.224646799147353207E-16, -1.000000000000000000 ) ) ;
#91 = SHAPE_DEFINITION_REPRESENTATION ( #199, #55 ) ;
#92 = AXIS2_PLACEMENT_3D ( 'NONE', #269, #34, #131 ) ;
#93 = EDGE_CURVE ( 'NONE', #47, #47, #71, .T. ) ;
#94 = PERSON_AND_ORGANIZATION ( #77, #155 ) ;
#95 = CARTESIAN_POINT ( 'NONE',  ( 3.591263819540293522E-14, 1.499999999999991562, 10.28578838324887634 ) ) ;
#96 = EDGE_LOOP ( 'NONE', ( #277 ) ) ;
#97 = COORDINATED_UNIVERSAL_TIME_OFFSET ( 1, 0, .AHEAD. ) ;
#98 = EDGE_LOOP ( 'NONE', ( #264 ) ) ;
#99 = VERTEX_POINT ( 'NONE', #257 ) ;
#100 = CONICAL_SURFACE ( 'NONE', #105, 1.200000000000001510, 0.7853981633974566057 ) ;
#101 = CARTESIAN_POINT ( 'NONE',  ( 2.444036937190193601E-13, -8.572527594031472993E-15, 70.00000000000000000 ) ) ;
#102 = CARTESIAN_POINT ( 'NONE',  ( 3.491481338843133355E-14, -1.224646799147353256E-15, 10.00000000000000000 ) ) ;
#103 = ADVANCED_FACE ( 'NONE', ( #25, #226 ), #249, .T. ) ;
#104 = DIRECTION ( 'NONE',  ( 4.275831445896958607E-31, 1.000000000000000000, 1.224646799147353207E-16 ) ) ;
#105 = AXIS2_PLACEMENT_3D ( 'NONE', #59, #292, #17 ) ;
#106 = CARTESIAN_POINT ( 'NONE',  ( -6.050301495944192513E-31, 2.122160092466527311E-32, -1.732875220793503786E-16 ) ) ;
#107 = CARTESIAN_POINT ( 'NONE',  ( -3.025150747972096257E-31, 1.061080046233263655E-32, -8.664376103967518930E-17 ) ) ;
#108 = AXIS2_PLACEMENT_3D ( 'NONE', #246, #135, #230 ) ;
#109 = CARTESIAN_POINT ( 'NONE',  ( 8.728703347107835360E-16, 1.665000000000000036, 0.2500000000000000555 ) ) ;
#110 = CYLINDRICAL_SURFACE ( 'NONE', #168, 1.499999999999996891 ) ;
#111 = CYLINDRICAL_SURFACE ( 'NONE', #172, 1.499999999999996891 ) ;
#112 = CARTESIAN_POINT ( 'NONE',  ( 2.444036937190193601E-13, 8.998558695971026591E-33, 70.00000000000000000 ) ) ;
#113 = CARTESIAN_POINT ( 'NONE',  ( 3.491481338843133355E-14, 1.664999999999998703, 10.00000000000000000 ) ) ;
#114 = DIRECTION ( 'NONE',  ( 4.275831445896958607E-31, 1.000000000000000000, 1.224646799147353207E-16 ) ) ;
#115 = AXIS2_PLACEMENT_3D ( 'NONE', #161, #244, #114 ) ;
#116 = EDGE_LOOP ( 'NONE', ( #139 ) ) ;
#117 = DIRECTION ( 'NONE',  ( 0.0000000000000000000, 0.0000000000000000000, 1.000000000000000000 ) ) ;
#118 = CARTESIAN_POINT ( 'NONE',  ( 0.0000000000000000000, 1.414999999999999147, 0.0000000000000000000 ) ) ;
#119 = EDGE_LOOP ( 'NONE', ( #41 ) ) ;
#120 = CLOSED_SHELL ( 'NONE', ( #68, #103, #250, #212, #239 ) ) ;
#121 = ADVANCED_FACE ( 'NONE', ( #180, #63 ), #100, .T. ) ;
#122 = DIRECTION ( 'NONE',  ( 0.0000000000000000000, 1.000000000000000000, 0.0000000000000000000 ) ) ;
#123 = DIRECTION ( 'NONE',  ( 0.0000000000000000000, 1.000000000000000000, 0.0000000000000000000 ) ) ;
#124 = APPROVAL ( #134, 'UNSPECIFIED' ) ;
#125 = CARTESIAN_POINT ( 'NONE',  ( 3.491481338843133355E-14, -1.224646799147353256E-15, 10.00000000000000000 ) ) ;
#126 = FACE_OUTER_BOUND ( 'NONE', #235, .T. ) ;
#127 = CC_DESIGN_SECURITY_CLASSIFICATION ( #14, ( #231 ) ) ;
#128 = CIRCLE ( 'NONE', #286, 1.665000000000000036 ) ;
#129 = DIRECTION ( 'NONE',  ( 4.626858725254620776E-31, 1.000000000000000000, 1.302344951934539891E-16 ) ) ;
#130 = APPROVAL ( #73, 'UNSPECIFIED' ) ;
#131 = DIRECTION ( 'NONE',  ( 0.0000000000000000000, 1.000000000000000000, 0.0000000000000000000 ) ) ;
#132 = CALENDAR_DATE ( 2021, 2, 12 ) ;
#133 = FACE_OUTER_BOUND ( 'NONE', #302, .T. ) ;
#134 = APPROVAL_STATUS ( 'not_yet_approved' ) ;
#135 = DIRECTION ( 'NONE',  ( 3.491481338843133355E-15, -1.224646799147353207E-16, 1.000000000000000000 ) ) ;
#136 = PERSON_AND_ORGANIZATION ( #77, #155 ) ;
#137 = DIRECTION ( 'NONE',  ( 0.0000000000000000000, 1.000000000000000000, 0.0000000000000000000 ) ) ;
#138 = EDGE_CURVE ( 'NONE', #99, #99, #210, .T. ) ;
#139 = ORIENTED_EDGE ( 'NONE', *, *, #24, .T. ) ;
#140 = EDGE_LOOP ( 'NONE', ( #1 ) ) ;
#141 = PERSON_AND_ORGANIZATION ( #77, #155 ) ;
#142 = CALENDAR_DATE ( 2021, 2, 12 ) ;
#143 = AXIS2_PLACEMENT_3D ( 'NONE', #80, #151, #238 ) ;
#144 = ORIENTED_EDGE ( 'NONE', *, *, #291, .T. ) ;
#145 = CC_DESIGN_PERSON_AND_ORGANIZATION_ASSIGNMENT ( #170, #252, ( #78 ) ) ;
#146 = EDGE_LOOP ( 'NONE', ( #56 ) ) ;
#147 = APPROVAL_PERSON_ORGANIZATION ( #136, #124, #290 ) ;
#148 = EDGE_LOOP ( 'NONE', ( #222 ) ) ;
#149 = CC_DESIGN_APPROVAL ( #192, ( #220 ) ) ;
#150 = LOCAL_TIME ( 10, 35, 32.00000000000000000, #29 ) ;
#151 = DIRECTION ( 'NONE',  ( -3.491481338843133355E-15, 1.224646799147353207E-16, -1.000000000000000000 ) ) ;
#152 = EDGE_CURVE ( 'NONE', #50, #50, #87, .T. ) ;
#153 = ORIENTED_EDGE ( 'NONE', *, *, #88, .T. ) ;
#154 = FACE_OUTER_BOUND ( 'NONE', #251, .T. ) ;
#155 = ORGANIZATION ( 'UNSPECIFIED', 'UNSPECIFIED', '' ) ;
#156 = CC_DESIGN_DATE_AND_TIME_ASSIGNMENT ( #274, #46, ( #14 ) ) ;
#157 = FACE_OUTER_BOUND ( 'NONE', #45, .T. ) ;
#158 = PLANE ( 'NONE',  #115 ) ;
#159 = APPROVAL_DATE_TIME ( #48, #130 ) ;
#160 = DIRECTION ( 'NONE',  ( 4.275831445896958607E-31, 1.000000000000000000, 1.224646799147353454E-16 ) ) ;
#161 = CARTESIAN_POINT ( 'NONE',  ( 2.444036937190193601E-13, -8.572527594031472993E-15, 70.00000000000000000 ) ) ;
#162 = FACE_BOUND ( 'NONE', #20, .T. ) ;
#163 = FACE_OUTER_BOUND ( 'NONE', #148, .T. ) ;
#164 = CARTESIAN_POINT ( 'NONE',  ( 2.433562493173664138E-13, -8.535788190057053710E-15, 69.70000000000001705 ) ) ;
#165 =( LENGTH_UNIT ( ) NAMED_UNIT ( * ) SI_UNIT ( .MILLI., .METRE. ) );
#166 = CC_DESIGN_PERSON_AND_ORGANIZATION_ASSIGNMENT ( #94, #18, ( #220 ) ) ;
#167 = AXIS2_PLACEMENT_3D ( 'NONE', #200, #206, #104 ) ;
#168 = AXIS2_PLACEMENT_3D ( 'NONE', #288, #90, #160 ) ;
#169 = ORIENTED_EDGE ( 'NONE', *, *, #93, .T. ) ;
#170 = PERSON_AND_ORGANIZATION ( #77, #155 ) ;
#171 = CARTESIAN_POINT ( 'NONE',  ( 2.444036937190193601E-13, 1.199999999999992628, 70.00000000000000000 ) ) ;
#172 = AXIS2_PLACEMENT_3D ( 'NONE', #211, #289, #188 ) ;
#173 = PERSON_AND_ORGANIZATION ( #77, #155 ) ;
#174 = DIRECTION ( 'NONE',  ( -3.491481338843133355E-15, 1.224646799147353207E-16, -1.000000000000000000 ) ) ;
#175 = ADVANCED_FACE ( 'NONE', ( #35, #133 ), #33, .T. ) ;
#176 = EDGE_LOOP ( 'NONE', ( #82 ) ) ;
#177 = AXIS2_PLACEMENT_3D ( 'NONE', #262, #281, #201 ) ;
#178 = AXIS2_PLACEMENT_3D ( 'NONE', #125, #5, #203 ) ;
#179 = CC_DESIGN_APPROVAL ( #124, ( #231 ) ) ;
#180 = FACE_OUTER_BOUND ( 'NONE', #176, .T. ) ;
#181 = ORIENTED_EDGE ( 'NONE', *, *, #24, .F. ) ;
#182 = ADVANCED_FACE ( 'NONE', ( #228, #13 ), #110, .T. ) ;
#183 = CIRCLE ( 'NONE', #218, 1.200000000000001510 ) ;
#184 = VERTEX_POINT ( 'NONE', #109 ) ;
#185 = CC_DESIGN_DATE_AND_TIME_ASSIGNMENT ( #40, #283, ( #220 ) ) ;
#186 = DESIGN_CONTEXT ( 'detailed design', #256, 'design' ) ;
#187 = FACE_OUTER_BOUND ( 'NONE', #219, .T. ) ;
#188 = DIRECTION ( 'NONE',  ( 4.275831445896958607E-31, 1.000000000000000000, 1.224646799147353454E-16 ) ) ;
#189 = CALENDAR_DATE ( 2021, 2, 12 ) ;
#190 = DIRECTION ( 'NONE',  ( -3.491481338843133355E-15, 1.224646799147353207E-16, -1.000000000000000000 ) ) ;
#191 = CARTESIAN_POINT ( 'NONE',  ( 3.591263819540293522E-14, -1.259645782025276363E-15, 10.28578838324887634 ) ) ;
#192 = APPROVAL ( #207, 'UNSPECIFIED' ) ;
#193 = EDGE_LOOP ( 'NONE', ( #85 ) ) ;
#194 = CC_DESIGN_PERSON_AND_ORGANIZATION_ASSIGNMENT ( #141, #260, ( #231 ) ) ;
#195 = VERTEX_POINT ( 'NONE', #171 ) ;
#196 = FACE_OUTER_BOUND ( 'NONE', #119, .T. ) ;
#197 = CARTESIAN_POINT ( 'NONE',  ( 0.0000000000000000000, 0.0000000000000000000, 0.0000000000000000000 ) ) ;
#198 = APPROVAL_PERSON_ORGANIZATION ( #280, #192, #284 ) ;
#199 = PRODUCT_DEFINITION_SHAPE ( 'NONE', 'NONE',  #220 ) ;
#200 = CARTESIAN_POINT ( 'NONE',  ( 0.0000000000000000000, 0.0000000000000000000, 0.0000000000000000000 ) ) ;
#201 = DIRECTION ( 'NONE',  ( -4.275831445896958607E-31, -1.000000000000000000, -1.224646799147353207E-16 ) ) ;
#202 = LOCAL_TIME ( 10, 35, 32.00000000000000000, #2 ) ;
#203 = DIRECTION ( 'NONE',  ( 0.0000000000000000000, 1.000000000000000000, 0.0000000000000000000 ) ) ;
#204 = ADVANCED_FACE ( 'NONE', ( #187, #162 ), #229, .T. ) ;
#205 = DIRECTION ( 'NONE',  ( 4.275831445896958607E-31, 1.000000000000000000, 1.224646799147353207E-16 ) ) ;
#206 = DIRECTION ( 'NONE',  ( -3.491481338843133355E-15, 1.224646799147353207E-16, -1.000000000000000000 ) ) ;
#207 = APPROVAL_STATUS ( 'not_yet_approved' ) ;
#208 =( NAMED_UNIT ( * ) SI_UNIT ( $, .STERADIAN. ) SOLID_ANGLE_UNIT ( ) );
#209 = APPROVAL_DATE_TIME ( #11, #124 ) ;
#210 = CIRCLE ( 'NONE', #62, 1.499999999999992895 ) ;
#211 = CARTESIAN_POINT ( 'NONE',  ( 0.0000000000000000000, 0.0000000000000000000, 0.0000000000000000000 ) ) ;
#212 = ADVANCED_FACE ( 'NONE', ( #196, #75 ), #225, .T. ) ;
#213 = DIRECTION ( 'NONE',  ( -3.491481338843133355E-15, 1.224646799147353207E-16, -1.000000000000000000 ) ) ;
#214 = AXIS2_PLACEMENT_3D ( 'NONE', #54, #27, #129 ) ;
#215 = VERTEX_POINT ( 'NONE', #95 ) ;
#216 = MECHANICAL_CONTEXT ( 'NONE', #65, 'mechanical' ) ;
#217 = CLOSED_SHELL ( 'NONE', ( #175, #43, #204, #4, #223, #121, #182 ) ) ;
#218 = AXIS2_PLACEMENT_3D ( 'NONE', #101, #23, #123 ) ;
#219 = EDGE_LOOP ( 'NONE', ( #153 ) ) ;
#220 = PRODUCT_DEFINITION ( 'UNKNOWN', '', #231, #186 ) ;
#221 = DIRECTION ( 'NONE',  ( -3.491481338843133355E-15, 1.224646799147353207E-16, -1.000000000000000000 ) ) ;
#222 = ORIENTED_EDGE ( 'NONE', *, *, #138, .F. ) ;
#223 = ADVANCED_FACE ( 'NONE', ( #266 ), #158, .F. ) ;
#224 = ORIENTED_EDGE ( 'NONE', *, *, #9, .T. ) ;
#225 = CONICAL_SURFACE ( 'NONE', #92, 1.200000000000001510, 0.7853981633974566057 ) ;
#226 = FACE_OUTER_BOUND ( 'NONE', #52, .T. ) ;
#227 = DATE_AND_TIME ( #189, #150 ) ;
#228 = FACE_OUTER_BOUND ( 'NONE', #140, .T. ) ;
#229 = CONICAL_SURFACE ( 'NONE', #108, 1.414999999999999147, 0.7853981633974500554 ) ;
#230 = DIRECTION ( 'NONE',  ( -4.275831445896958607E-31, -1.000000000000000000, -1.224646799147353207E-16 ) ) ;
#231 = PRODUCT_DEFINITION_FORMATION_WITH_SPECIFIED_SOURCE ( 'ANY', '', #78, .NOT_KNOWN. ) ;
#232 = CARTESIAN_POINT ( 'NONE',  ( 2.433562493173664138E-13, -8.535788190057053710E-15, 69.70000000000001705 ) ) ;
#233 = DIRECTION ( 'NONE',  ( 1.000000000000000000, 0.0000000000000000000, 0.0000000000000000000 ) ) ;
#234 = ORIENTED_EDGE ( 'NONE', *, *, #293, .T. ) ;
#235 = EDGE_LOOP ( 'NONE', ( #294 ) ) ;
#236 = AXIS2_PLACEMENT_3D ( 'NONE', #106, #174, #205 ) ;
#237 = PERSON_AND_ORGANIZATION_ROLE ( 'classification_officer' ) ;
#238 = DIRECTION ( 'NONE',  ( 0.0000000000000000000, 1.000000000000000000, 0.0000000000000000000 ) ) ;
#239 = ADVANCED_FACE ( 'NONE', ( #36 ), #31, .F. ) ;
#240 = EDGE_LOOP ( 'NONE', ( #144 ) ) ;
#241 = MANIFOLD_SOLID_BREP ( 'Corps-Déplacer/Copier1[1]', #120 ) ;
#242 = FACE_OUTER_BOUND ( 'NONE', #240, .T. ) ;
#243 = DIRECTION ( 'NONE',  ( -3.491481338843133355E-15, 1.224646799147353207E-16, -1.000000000000000000 ) ) ;
#244 = DIRECTION ( 'NONE',  ( -3.491481338843133355E-15, 1.224646799147353207E-16, -1.000000000000000000 ) ) ;
#245 = DIRECTION ( 'NONE',  ( 0.0000000000000000000, 1.000000000000000000, 0.0000000000000000000 ) ) ;
#246 = CARTESIAN_POINT ( 'NONE',  ( -6.050301495944192513E-31, 2.122160092466527311E-32, -1.732875220793503786E-16 ) ) ;
#247 = PRODUCT_RELATED_PRODUCT_CATEGORY ( 'detail', '', ( #78 ) ) ;
#248 = AXIS2_PLACEMENT_3D ( 'NONE', #102, #79, #26 ) ;
#249 = CONICAL_SURFACE ( 'NONE', #178, 1.665000000000000036, 0.5235987755983010361 ) ;
#250 = ADVANCED_FACE ( 'NONE', ( #163, #157 ), #111, .T. ) ;
#251 = EDGE_LOOP ( 'NONE', ( #279 ) ) ;
#252 = PERSON_AND_ORGANIZATION_ROLE ( 'design_owner' ) ;
#253 = VERTEX_POINT ( 'NONE', #113 ) ;
#254 = APPROVAL_ROLE ( '' ) ;
#255 = EDGE_LOOP ( 'NONE', ( #181 ) ) ;
#256 = APPLICATION_CONTEXT ( 'configuration controlled 3d designs of mechanical parts and assemblies' ) ;
#257 = CARTESIAN_POINT ( 'NONE',  ( 3.591263819540293522E-14, 1.499999999999991562, 10.28578838324887634 ) ) ;
#258 = PLANE ( 'NONE',  #177 ) ;
#259 = AXIS2_PLACEMENT_3D ( 'NONE', #112, #15, #64 ) ;
#260 = PERSON_AND_ORGANIZATION_ROLE ( 'design_supplier' ) ;
#261 = CC_DESIGN_PERSON_AND_ORGANIZATION_ASSIGNMENT ( #303, #237, ( #14 ) ) ;
#262 = CARTESIAN_POINT ( 'NONE',  ( 3.491481338843133355E-14, 1.248550019065994625E-32, 10.00000000000000000 ) ) ;
#263 = PLANE ( 'NONE',  #295 ) ;
#264 = ORIENTED_EDGE ( 'NONE', *, *, #152, .T. ) ;
#265 = CIRCLE ( 'NONE', #285, 1.499999999999992895 ) ;
#266 = FACE_OUTER_BOUND ( 'NONE', #255, .T. ) ;
#267 = CARTESIAN_POINT ( 'NONE',  ( 3.491481338843133355E-14, -1.224646799147353256E-15, 10.00000000000000000 ) ) ;
#268 = APPROVAL_PERSON_ORGANIZATION ( #173, #130, #254 ) ;
#269 = CARTESIAN_POINT ( 'NONE',  ( 2.444036937190193601E-13, -8.572527594031472993E-15, 70.00000000000000000 ) ) ;
#270 = COORDINATED_UNIVERSAL_TIME_OFFSET ( 1, 0, .AHEAD. ) ;
#271 = DIRECTION ( 'NONE',  ( 0.0000000000000000000, 1.000000000000000000, 0.0000000000000000000 ) ) ;
#272 = DIRECTION ( 'NONE',  ( 0.0000000000000000000, 1.000000000000000000, 0.0000000000000000000 ) ) ;
#273 =( GEOMETRIC_REPRESENTATION_CONTEXT ( 3 ) GLOBAL_UNCERTAINTY_ASSIGNED_CONTEXT ( ( #67 ) ) GLOBAL_UNIT_ASSIGNED_CONTEXT ( ( #165, #83, #208 ) ) REPRESENTATION_CONTEXT ( 'NONE', 'WORKASPACE' ) );
#274 = DATE_AND_TIME ( #301, #202 ) ;
#275 = AXIS2_PLACEMENT_3D ( 'NONE', #197, #117, #233 ) ;
#276 = EDGE_LOOP ( 'NONE', ( #169 ) ) ;
#277 = ORIENTED_EDGE ( 'NONE', *, *, #138, .T. ) ;
#278 = CARTESIAN_POINT ( 'NONE',  ( 2.433562493173664138E-13, 1.499999999999992673, 69.70000000000001705 ) ) ;
#279 = ORIENTED_EDGE ( 'NONE', *, *, #88, .F. ) ;
#280 = PERSON_AND_ORGANIZATION ( #77, #155 ) ;
#281 = DIRECTION ( 'NONE',  ( 3.491481338843133355E-15, -1.224646799147353207E-16, 1.000000000000000000 ) ) ;
#282 = VERTEX_POINT ( 'NONE', #16 ) ;
#283 = DATE_TIME_ROLE ( 'creation_date' ) ;
#284 = APPROVAL_ROLE ( '' ) ;
#285 = AXIS2_PLACEMENT_3D ( 'NONE', #21, #57, #122 ) ;
#286 = AXIS2_PLACEMENT_3D ( 'NONE', #267, #61, #245 ) ;
#287 = PERSON_AND_ORGANIZATION ( #77, #155 ) ;
#288 = CARTESIAN_POINT ( 'NONE',  ( 0.0000000000000000000, 0.0000000000000000000, 0.0000000000000000000 ) ) ;
#289 = DIRECTION ( 'NONE',  ( -3.491481338843133355E-15, 1.224646799147353207E-16, -1.000000000000000000 ) ) ;
#290 = APPROVAL_ROLE ( '' ) ;
#291 = EDGE_CURVE ( 'NONE', #89, #89, #128, .T. ) ;
#292 = DIRECTION ( 'NONE',  ( -3.491481338843133355E-15, 1.224646799147353207E-16, -1.000000000000000000 ) ) ;
#293 = EDGE_CURVE ( 'NONE', #282, #282, #296, .T. ) ;
#294 = ORIENTED_EDGE ( 'NONE', *, *, #38, .T. ) ;
#295 = AXIS2_PLACEMENT_3D ( 'NONE', #107, #221, #8 ) ;
#296 = CIRCLE ( 'NONE', #76, 1.500000000000001110 ) ;
#297 = DIRECTION ( 'NONE',  ( -3.491481338843133355E-15, 1.224646799147353207E-16, -1.000000000000000000 ) ) ;
#298 = APPROVAL_DATE_TIME ( #227, #192 ) ;
#299 = APPLICATION_PROTOCOL_DEFINITION ( 'international standard', 'config_control_design', 1994, #256 ) ;
#300 = CC_DESIGN_PERSON_AND_ORGANIZATION_ASSIGNMENT ( #287, #66, ( #231 ) ) ;
#301 = CALENDAR_DATE ( 2021, 2, 12 ) ;
#302 = EDGE_LOOP ( 'NONE', ( #84 ) ) ;
#303 = PERSON_AND_ORGANIZATION ( #77, #155 ) ;
ENDSEC;
END-ISO-10303-21;
