ISO-10303-21;
HEADER;
FILE_DESCRIPTION (( 'STEP AP203' ),
    '1' );
FILE_NAME ('321558.step',
    '2021-12-02T09:35:31',
    ( '' ),
    ( '' ),
    'SwSTEP 2.0',
    'SolidWorks 2019',
    '' );
FILE_SCHEMA (( 'CONFIG_CONTROL_DESIGN' ));
ENDSEC;

DATA;
#1 = AXIS2_PLACEMENT_3D ( 'NONE', #94, #65, #8 ) ;
#2 = APPROVAL_PERSON_ORGANIZATION ( #300, #52, #248 ) ;
#3 = PERSON_AND_ORGANIZATION_ROLE ( 'creator' ) ;
#4 = ORIENTED_EDGE ( 'NONE', *, *, #259, .F. ) ;
#5 = EDGE_LOOP ( 'NONE', ( #4 ) ) ;
#6 = VERTEX_POINT ( 'NONE', #274 ) ;
#7 = CIRCLE ( 'NONE', #131, 1.659999999999995035 ) ;
#8 = DIRECTION ( 'NONE',  ( 0.0000000000000000000, 1.000000000000000000, 0.0000000000000000000 ) ) ;
#9 = APPROVAL_PERSON_ORGANIZATION ( #86, #267, #237 ) ;
#10 = DIRECTION ( 'NONE',  ( 0.0000000000000000000, 1.000000000000000000, 0.0000000000000000000 ) ) ;
#11 = DIRECTION ( 'NONE',  ( -3.491481338843133355E-15, 1.224646799147353207E-16, -1.000000000000000000 ) ) ;
#12 = ORIENTED_EDGE ( 'NONE', *, *, #42, .T. ) ;
#13 = EDGE_LOOP ( 'NONE', ( #231 ) ) ;
#14 = FACE_OUTER_BOUND ( 'NONE', #29, .T. ) ;
#15 = CARTESIAN_POINT ( 'NONE',  ( 0.0000000000000000000, 0.0000000000000000000, 0.0000000000000000000 ) ) ;
#16 = DATE_AND_TIME ( #97, #133 ) ;
#17 = ADVANCED_FACE ( 'NONE', ( #174, #285 ), #152, .T. ) ;
#18 = FACE_OUTER_BOUND ( 'NONE', #59, .T. ) ;
#19 = DIRECTION ( 'NONE',  ( 0.0000000000000000000, 0.0000000000000000000, 1.000000000000000000 ) ) ;
#20 = DIRECTION ( 'NONE',  ( 1.000000000000000000, 0.0000000000000000000, 0.0000000000000000000 ) ) ;
#21 = DIRECTION ( 'NONE',  ( -3.491481338843133355E-15, 1.224646799147353207E-16, -1.000000000000000000 ) ) ;
#22 = ADVANCED_BREP_SHAPE_REPRESENTATION ( '321558', ( #46, #53, #149 ), #68 ) ;
#23 = AXIS2_PLACEMENT_3D ( 'NONE', #90, #173, #260 ) ;
#24 = EDGE_LOOP ( 'NONE', ( #130 ) ) ;
#25 = CC_DESIGN_DATE_AND_TIME_ASSIGNMENT ( #16, #121, ( #100 ) ) ;
#26 = ADVANCED_FACE ( 'NONE', ( #240, #202 ), #147, .T. ) ;
#27 = APPROVAL_DATE_TIME ( #236, #267 ) ;
#28 = CIRCLE ( 'NONE', #199, 1.409999999999994147 ) ;
#29 = EDGE_LOOP ( 'NONE', ( #83 ) ) ;
#30 = SHAPE_DEFINITION_REPRESENTATION ( #70, #22 ) ;
#31 = PERSON_AND_ORGANIZATION_ROLE ( 'classification_officer' ) ;
#32 = COORDINATED_UNIVERSAL_TIME_OFFSET ( 1, 0, .AHEAD. ) ;
#33 = CONICAL_SURFACE ( 'NONE', #242, 1.659999999999995035, 0.5235987755982995928 ) ;
#34 = CARTESIAN_POINT ( 'NONE',  ( 3.491481338843133355E-14, -1.224646799147353256E-15, 10.00000000000000000 ) ) ;
#35 = EDGE_CURVE ( 'NONE', #280, #280, #116, .T. ) ;
#36 = VERTEX_POINT ( 'NONE', #223 ) ;
#37 = PERSON_AND_ORGANIZATION ( #272, #110 ) ;
#38 = ORIENTED_EDGE ( 'NONE', *, *, #234, .T. ) ;
#39 = FACE_OUTER_BOUND ( 'NONE', #13, .T. ) ;
#40 = AXIS2_PLACEMENT_3D ( 'NONE', #256, #57, #56 ) ;
#41 = CARTESIAN_POINT ( 'NONE',  ( 2.444036937190193601E-13, -8.572527594031472993E-15, 70.00000000000000000 ) ) ;
#42 = EDGE_CURVE ( 'NONE', #196, #196, #175, .T. ) ;
#43 = EDGE_LOOP ( 'NONE', ( #69 ) ) ;
#44 = FACE_OUTER_BOUND ( 'NONE', #43, .T. ) ;
#45 = FACE_OUTER_BOUND ( 'NONE', #258, .T. ) ;
#46 = MANIFOLD_SOLID_BREP ( 'Corps-Déplacer/Copier1[1]', #49 ) ;
#47 = FACE_BOUND ( 'NONE', #268, .T. ) ;
#48 = APPLICATION_PROTOCOL_DEFINITION ( 'international standard', 'config_control_design', 1994, #229 ) ;
#49 = CLOSED_SHELL ( 'NONE', ( #177, #232, #292, #132, #162 ) ) ;
#50 = DATE_TIME_ROLE ( 'creation_date' ) ;
#51 = CARTESIAN_POINT ( 'NONE',  ( 2.444036937190193601E-13, -8.572527594031472993E-15, 70.00000000000000000 ) ) ;
#52 = APPROVAL ( #250, 'UNSPECIFIED' ) ;
#53 = MANIFOLD_SOLID_BREP ( 'Corps-Déplacer/Copier1[2]', #58 ) ;
#54 = CALENDAR_DATE ( 2021, 2, 12 ) ;
#55 = COORDINATED_UNIVERSAL_TIME_OFFSET ( 1, 0, .AHEAD. ) ;
#56 = DIRECTION ( 'NONE',  ( -4.275831445896958607E-31, -1.000000000000000000, -1.224646799147353207E-16 ) ) ;
#57 = DIRECTION ( 'NONE',  ( 3.491481338843133355E-15, -1.224646799147353207E-16, 1.000000000000000000 ) ) ;
#58 = CLOSED_SHELL ( 'NONE', ( #183, #17, #91, #127, #125, #26, #293 ) ) ;
#59 = EDGE_LOOP ( 'NONE', ( #62 ) ) ;
#60 = DIRECTION ( 'NONE',  ( -3.491481338843133355E-15, 1.224646799147353207E-16, -1.000000000000000000 ) ) ;
#61 = PERSON_AND_ORGANIZATION ( #272, #110 ) ;
#62 = ORIENTED_EDGE ( 'NONE', *, *, #92, .T. ) ;
#63 = CIRCLE ( 'NONE', #230, 1.499999999999992895 ) ;
#64 = DATE_AND_TIME ( #151, #186 ) ;
#65 = DIRECTION ( 'NONE',  ( -3.491481338843133355E-15, 1.224646799147353207E-16, -1.000000000000000000 ) ) ;
#66 = DIRECTION ( 'NONE',  ( -3.491481338843133355E-15, 1.224646799147353207E-16, -1.000000000000000000 ) ) ;
#67 = AXIS2_PLACEMENT_3D ( 'NONE', #153, #134, #219 ) ;
#68 =( GEOMETRIC_REPRESENTATION_CONTEXT ( 3 ) GLOBAL_UNCERTAINTY_ASSIGNED_CONTEXT ( ( #139 ) ) GLOBAL_UNIT_ASSIGNED_CONTEXT ( ( #299, #78, #257 ) ) REPRESENTATION_CONTEXT ( 'NONE', 'WORKASPACE' ) );
#69 = ORIENTED_EDGE ( 'NONE', *, *, #42, .F. ) ;
#70 = PRODUCT_DEFINITION_SHAPE ( 'NONE', 'NONE',  #76 ) ;
#71 = PLANE ( 'NONE',  #225 ) ;
#72 = FACE_OUTER_BOUND ( 'NONE', #148, .T. ) ;
#73 = APPROVAL_ROLE ( '' ) ;
#74 = DESIGN_CONTEXT ( 'detailed design', #164, 'design' ) ;
#75 = EDGE_LOOP ( 'NONE', ( #282 ) ) ;
#76 = PRODUCT_DEFINITION ( 'UNKNOWN', '', #138, #74 ) ;
#77 = AXIS2_PLACEMENT_3D ( 'NONE', #51, #271, #210 ) ;
#78 =( NAMED_UNIT ( * ) PLANE_ANGLE_UNIT ( ) SI_UNIT ( $, .RADIAN. ) );
#79 = CC_DESIGN_DATE_AND_TIME_ASSIGNMENT ( #303, #50, ( #76 ) ) ;
#80 = EDGE_CURVE ( 'NONE', #36, #36, #214, .T. ) ;
#81 = FACE_OUTER_BOUND ( 'NONE', #98, .T. ) ;
#82 = PERSON_AND_ORGANIZATION_ROLE ( 'design_owner' ) ;
#83 = ORIENTED_EDGE ( 'NONE', *, *, #276, .F. ) ;
#84 = AXIS2_PLACEMENT_3D ( 'NONE', #15, #87, #288 ) ;
#85 = LOCAL_TIME ( 10, 35, 31.00000000000000000, #172 ) ;
#86 = PERSON_AND_ORGANIZATION ( #272, #110 ) ;
#87 = DIRECTION ( 'NONE',  ( -3.491481338843133355E-15, 1.224646799147353207E-16, -1.000000000000000000 ) ) ;
#88 = CARTESIAN_POINT ( 'NONE',  ( 3.588240108004012863E-14, -1.258585206786550530E-15, 10.27712812921102348 ) ) ;
#89 = PERSON_AND_ORGANIZATION ( #272, #110 ) ;
#90 = CARTESIAN_POINT ( 'NONE',  ( 2.433562493173664138E-13, -8.535788190057053710E-15, 69.70000000000001705 ) ) ;
#91 = ADVANCED_FACE ( 'NONE', ( #18, #47 ), #93, .T. ) ;
#92 = EDGE_CURVE ( 'NONE', #128, #128, #7, .T. ) ;
#93 = CONICAL_SURFACE ( 'NONE', #249, 1.409999999999994147, 0.7853981633974500554 ) ;
#94 = CARTESIAN_POINT ( 'NONE',  ( 3.491481338843133355E-14, -1.224646799147353256E-15, 10.00000000000000000 ) ) ;
#95 = CC_DESIGN_APPROVAL ( #241, ( #100 ) ) ;
#96 = FACE_BOUND ( 'NONE', #275, .T. ) ;
#97 = CALENDAR_DATE ( 2021, 2, 12 ) ;
#98 = EDGE_LOOP ( 'NONE', ( #198 ) ) ;
#99 = AXIS2_PLACEMENT_3D ( 'NONE', #135, #245, #119 ) ;
#100 = SECURITY_CLASSIFICATION ( '', '', #156 ) ;
#101 = PERSON_AND_ORGANIZATION ( #272, #110 ) ;
#102 = APPROVAL_STATUS ( 'not_yet_approved' ) ;
#103 = DIRECTION ( 'NONE',  ( 4.275831445896958607E-31, 1.000000000000000000, 1.224646799147353207E-16 ) ) ;
#104 = DIRECTION ( 'NONE',  ( 0.0000000000000000000, 1.000000000000000000, 0.0000000000000000000 ) ) ;
#105 = FACE_OUTER_BOUND ( 'NONE', #159, .T. ) ;
#106 = CARTESIAN_POINT ( 'NONE',  ( -6.028922338714686780E-31, 2.114661293553210578E-32, -1.726751986797760994E-16 ) ) ;
#107 = PLANE ( 'NONE',  #40 ) ;
#108 = CIRCLE ( 'NONE', #137, 1.499999999999992895 ) ;
#109 = EDGE_LOOP ( 'NONE', ( #289 ) ) ;
#110 = ORGANIZATION ( 'UNSPECIFIED', 'UNSPECIFIED', '' ) ;
#111 = VERTEX_POINT ( 'NONE', #188 ) ;
#112 = CC_DESIGN_PERSON_AND_ORGANIZATION_ASSIGNMENT ( #61, #197, ( #138 ) ) ;
#113 = CC_DESIGN_PERSON_AND_ORGANIZATION_ASSIGNMENT ( #101, #82, ( #204 ) ) ;
#114 = PERSON_AND_ORGANIZATION_ROLE ( 'creator' ) ;
#115 = AXIS2_PLACEMENT_3D ( 'NONE', #136, #11, #286 ) ;
#116 = CIRCLE ( 'NONE', #1, 1.659999999999995035 ) ;
#117 = DIRECTION ( 'NONE',  ( 0.0000000000000000000, 1.000000000000000000, 0.0000000000000000000 ) ) ;
#118 = ORIENTED_EDGE ( 'NONE', *, *, #234, .F. ) ;
#119 = DIRECTION ( 'NONE',  ( 0.0000000000000000000, 1.000000000000000000, 0.0000000000000000000 ) ) ;
#120 = DIRECTION ( 'NONE',  ( -3.491481338843133355E-15, 1.224646799147353207E-16, -1.000000000000000000 ) ) ;
#121 = DATE_TIME_ROLE ( 'classification_date' ) ;
#122 = DIRECTION ( 'NONE',  ( 0.0000000000000000000, 1.000000000000000000, 0.0000000000000000000 ) ) ;
#123 = DIRECTION ( 'NONE',  ( 4.275831445896958607E-31, 1.000000000000000000, 1.224646799147353207E-16 ) ) ;
#124 = AXIS2_PLACEMENT_3D ( 'NONE', #163, #297, #104 ) ;
#125 = ADVANCED_FACE ( 'NONE', ( #14 ), #262, .F. ) ;
#126 = DIRECTION ( 'NONE',  ( -4.275831445896958607E-31, -1.000000000000000000, -1.224646799147353207E-16 ) ) ;
#127 = ADVANCED_FACE ( 'NONE', ( #263 ), #71, .T. ) ;
#128 = VERTEX_POINT ( 'NONE', #191 ) ;
#129 = DIRECTION ( 'NONE',  ( -3.491481338843133355E-15, 1.224646799147353207E-16, -1.000000000000000000 ) ) ;
#130 = ORIENTED_EDGE ( 'NONE', *, *, #212, .T. ) ;
#131 = AXIS2_PLACEMENT_3D ( 'NONE', #270, #192, #180 ) ;
#132 = ADVANCED_FACE ( 'NONE', ( #44, #155 ), #217, .T. ) ;
#133 = LOCAL_TIME ( 10, 35, 31.00000000000000000, #216 ) ;
#134 = DIRECTION ( 'NONE',  ( -3.491481338843133355E-15, 1.224646799147353207E-16, -1.000000000000000000 ) ) ;
#135 = CARTESIAN_POINT ( 'NONE',  ( 2.444036937190193601E-13, -8.572527594031472993E-15, 70.00000000000000000 ) ) ;
#136 = CARTESIAN_POINT ( 'NONE',  ( 0.0000000000000000000, 0.0000000000000000000, 0.0000000000000000000 ) ) ;
#137 = AXIS2_PLACEMENT_3D ( 'NONE', #251, #144, #146 ) ;
#138 = PRODUCT_DEFINITION_FORMATION_WITH_SPECIFIED_SOURCE ( 'ANY', '', #204, .NOT_KNOWN. ) ;
#139 = UNCERTAINTY_MEASURE_WITH_UNIT (LENGTH_MEASURE( 1.000000000000000082E-05 ), #299, 'distance_accuracy_value', 'NONE');
#140 = FACE_OUTER_BOUND ( 'NONE', #5, .T. ) ;
#141 = EDGE_LOOP ( 'NONE', ( #244 ) ) ;
#142 = CYLINDRICAL_SURFACE ( 'NONE', #115, 1.499999999999996891 ) ;
#143 = APPLICATION_PROTOCOL_DEFINITION ( 'international standard', 'config_control_design', 1994, #164 ) ;
#144 = DIRECTION ( 'NONE',  ( -3.491481338843133355E-15, 1.224646799147353207E-16, -1.000000000000000000 ) ) ;
#145 = DIRECTION ( 'NONE',  ( 3.491481338843133355E-15, -1.224646799147353207E-16, 1.000000000000000000 ) ) ;
#146 = DIRECTION ( 'NONE',  ( 0.0000000000000000000, 1.000000000000000000, 0.0000000000000000000 ) ) ;
#147 = CONICAL_SURFACE ( 'NONE', #235, 1.200000000000001510, 0.7853981633974566057 ) ;
#148 = EDGE_LOOP ( 'NONE', ( #179 ) ) ;
#149 = AXIS2_PLACEMENT_3D ( 'NONE', #227, #19, #20 ) ;
#150 = ORIENTED_EDGE ( 'NONE', *, *, #80, .F. ) ;
#151 = CALENDAR_DATE ( 2021, 2, 12 ) ;
#152 = CYLINDRICAL_SURFACE ( 'NONE', #84, 1.659999999999995035 ) ;
#153 = CARTESIAN_POINT ( 'NONE',  ( 2.433562493173664138E-13, -8.535788190057053710E-15, 69.70000000000001705 ) ) ;
#154 = AXIS2_PLACEMENT_3D ( 'NONE', #167, #253, #122 ) ;
#155 = FACE_BOUND ( 'NONE', #184, .T. ) ;
#156 = SECURITY_CLASSIFICATION_LEVEL ( 'unclassified' ) ;
#157 = CARTESIAN_POINT ( 'NONE',  ( 2.444036937190193601E-13, -8.572527594031472993E-15, 70.00000000000000000 ) ) ;
#158 = COORDINATED_UNIVERSAL_TIME_OFFSET ( 1, 0, .AHEAD. ) ;
#159 = EDGE_LOOP ( 'NONE', ( #118 ) ) ;
#160 = CARTESIAN_POINT ( 'NONE',  ( -3.014461169357343390E-31, 1.057330646776605289E-32, -8.633759933988804969E-17 ) ) ;
#161 = DIRECTION ( 'NONE',  ( -3.491481338843133355E-15, 1.224646799147353207E-16, -1.000000000000000000 ) ) ;
#162 = ADVANCED_FACE ( 'NONE', ( #39 ), #203, .F. ) ;
#163 = CARTESIAN_POINT ( 'NONE',  ( 3.491481338843133355E-14, -1.224646799147353256E-15, 10.00000000000000000 ) ) ;
#164 = APPLICATION_CONTEXT ( 'configuration controlled 3d designs of mechanical parts and assemblies' ) ;
#165 = AXIS2_PLACEMENT_3D ( 'NONE', #41, #178, #117 ) ;
#166 = CARTESIAN_POINT ( 'NONE',  ( 3.588240108004012863E-14, 1.499999999999991562, 10.27712812921102348 ) ) ;
#167 = CARTESIAN_POINT ( 'NONE',  ( 3.491481338843133355E-14, -1.224646799147353256E-15, 10.00000000000000000 ) ) ;
#168 = CC_DESIGN_PERSON_AND_ORGANIZATION_ASSIGNMENT ( #37, #31, ( #100 ) ) ;
#169 = CARTESIAN_POINT ( 'NONE',  ( 2.444036937190193601E-13, 1.199999999999992628, 70.00000000000000000 ) ) ;
#170 = ORIENTED_EDGE ( 'NONE', *, *, #259, .T. ) ;
#171 = EDGE_CURVE ( 'NONE', #206, #206, #255, .T. ) ;
#172 = COORDINATED_UNIVERSAL_TIME_OFFSET ( 1, 0, .AHEAD. ) ;
#173 = DIRECTION ( 'NONE',  ( -3.491481338843133355E-15, 1.224646799147353207E-16, -1.000000000000000000 ) ) ;
#174 = FACE_OUTER_BOUND ( 'NONE', #24, .T. ) ;
#175 = CIRCLE ( 'NONE', #23, 1.500000000000001110 ) ;
#176 = APPROVAL_PERSON_ORGANIZATION ( #89, #241, #73 ) ;
#177 = ADVANCED_FACE ( 'NONE', ( #81 ), #107, .F. ) ;
#178 = DIRECTION ( 'NONE',  ( -3.491481338843133355E-15, 1.224646799147353207E-16, -1.000000000000000000 ) ) ;
#179 = ORIENTED_EDGE ( 'NONE', *, *, #80, .T. ) ;
#180 = DIRECTION ( 'NONE',  ( 4.640795046716244668E-31, 1.000000000000000000, 1.306267677693382691E-16 ) ) ;
#181 = CARTESIAN_POINT ( 'NONE',  ( 3.491481338843133355E-14, 1.659999999999993703, 10.00000000000000000 ) ) ;
#182 = CC_DESIGN_PERSON_AND_ORGANIZATION_ASSIGNMENT ( #213, #3, ( #76 ) ) ;
#183 = ADVANCED_FACE ( 'NONE', ( #96, #277 ), #33, .T. ) ;
#184 = EDGE_LOOP ( 'NONE', ( #218 ) ) ;
#185 = AXIS2_PLACEMENT_3D ( 'NONE', #157, #120, #264 ) ;
#186 = LOCAL_TIME ( 10, 35, 31.00000000000000000, #158 ) ;
#187 = MECHANICAL_CONTEXT ( 'NONE', #229, 'mechanical' ) ;
#188 = CARTESIAN_POINT ( 'NONE',  ( 3.588240108004012863E-14, 1.499999999999991562, 10.27712812921102348 ) ) ;
#189 = FACE_BOUND ( 'NONE', #224, .T. ) ;
#190 = PRODUCT_RELATED_PRODUCT_CATEGORY ( 'detail', '', ( #204 ) ) ;
#191 = CARTESIAN_POINT ( 'NONE',  ( 8.728703347107835360E-16, 1.659999999999995035, 0.2500000000000000555 ) ) ;
#192 = DIRECTION ( 'NONE',  ( -3.491481338843133355E-15, 1.224646799147353207E-16, -1.000000000000000000 ) ) ;
#193 = EDGE_LOOP ( 'NONE', ( #150 ) ) ;
#194 = DATE_AND_TIME ( #287, #296 ) ;
#195 = CARTESIAN_POINT ( 'NONE',  ( 2.444036937190193601E-13, -8.572527594031472993E-15, 70.00000000000000000 ) ) ;
#196 = VERTEX_POINT ( 'NONE', #284 ) ;
#197 = PERSON_AND_ORGANIZATION_ROLE ( 'design_supplier' ) ;
#198 = ORIENTED_EDGE ( 'NONE', *, *, #35, .T. ) ;
#199 = AXIS2_PLACEMENT_3D ( 'NONE', #106, #21, #103 ) ;
#200 = DIRECTION ( 'NONE',  ( -3.491481338843133355E-15, 1.224646799147353207E-16, -1.000000000000000000 ) ) ;
#201 = CC_DESIGN_APPROVAL ( #52, ( #138 ) ) ;
#202 = FACE_BOUND ( 'NONE', #141, .T. ) ;
#203 = PLANE ( 'NONE',  #273 ) ;
#204 = PRODUCT ( '321558', '321558', '', ( #187 ) ) ;
#205 = CARTESIAN_POINT ( 'NONE',  ( -6.028922338714686780E-31, 2.114661293553210578E-32, -1.726751986797760994E-16 ) ) ;
#206 = VERTEX_POINT ( 'NONE', #233 ) ;
#207 = CIRCLE ( 'NONE', #124, 1.659999999999995035 ) ;
#208 = CC_DESIGN_SECURITY_CLASSIFICATION ( #100, ( #138 ) ) ;
#209 = DIRECTION ( 'NONE',  ( 0.0000000000000000000, 1.000000000000000000, 0.0000000000000000000 ) ) ;
#210 = DIRECTION ( 'NONE',  ( 0.0000000000000000000, 1.000000000000000000, 0.0000000000000000000 ) ) ;
#211 = VERTEX_POINT ( 'NONE', #166 ) ;
#212 = EDGE_CURVE ( 'NONE', #6, #6, #207, .T. ) ;
#213 = PERSON_AND_ORGANIZATION ( #272, #110 ) ;
#214 = CIRCLE ( 'NONE', #67, 1.500000000000001110 ) ;
#215 = APPROVAL_DATE_TIME ( #64, #241 ) ;
#216 = COORDINATED_UNIVERSAL_TIME_OFFSET ( 1, 0, .AHEAD. ) ;
#217 = CONICAL_SURFACE ( 'NONE', #99, 1.200000000000001510, 0.7853981633974566057 ) ;
#218 = ORIENTED_EDGE ( 'NONE', *, *, #171, .T. ) ;
#219 = DIRECTION ( 'NONE',  ( 0.0000000000000000000, 1.000000000000000000, 0.0000000000000000000 ) ) ;
#220 = CC_DESIGN_PERSON_AND_ORGANIZATION_ASSIGNMENT ( #222, #114, ( #138 ) ) ;
#221 = APPROVAL_STATUS ( 'not_yet_approved' ) ;
#222 = PERSON_AND_ORGANIZATION ( #272, #110 ) ;
#223 = CARTESIAN_POINT ( 'NONE',  ( 2.433562493173664138E-13, 1.499999999999992673, 69.70000000000001705 ) ) ;
#224 = EDGE_LOOP ( 'NONE', ( #38 ) ) ;
#225 = AXIS2_PLACEMENT_3D ( 'NONE', #160, #161, #123 ) ;
#226 = LOCAL_TIME ( 10, 35, 31.00000000000000000, #55 ) ;
#227 = CARTESIAN_POINT ( 'NONE',  ( 0.0000000000000000000, 0.0000000000000000000, 0.0000000000000000000 ) ) ;
#228 = ORIENTED_EDGE ( 'NONE', *, *, #92, .F. ) ;
#229 = APPLICATION_CONTEXT ( 'configuration controlled 3d designs of mechanical parts and assemblies' ) ;
#230 = AXIS2_PLACEMENT_3D ( 'NONE', #88, #129, #295 ) ;
#231 = ORIENTED_EDGE ( 'NONE', *, *, #171, .F. ) ;
#232 = ADVANCED_FACE ( 'NONE', ( #189, #269 ), #294, .T. ) ;
#233 = CARTESIAN_POINT ( 'NONE',  ( 2.444036937190193601E-13, 1.199999999999992628, 70.00000000000000000 ) ) ;
#234 = EDGE_CURVE ( 'NONE', #111, #111, #63, .T. ) ;
#235 = AXIS2_PLACEMENT_3D ( 'NONE', #195, #60, #10 ) ;
#236 = DATE_AND_TIME ( #54, #226 ) ;
#237 = APPROVAL_ROLE ( '' ) ;
#238 = AXIS2_PLACEMENT_3D ( 'NONE', #291, #200, #283 ) ;
#239 = ORIENTED_EDGE ( 'NONE', *, *, #35, .F. ) ;
#240 = FACE_OUTER_BOUND ( 'NONE', #193, .T. ) ;
#241 = APPROVAL ( #221, 'UNSPECIFIED' ) ;
#242 = AXIS2_PLACEMENT_3D ( 'NONE', #34, #281, #209 ) ;
#243 = CC_DESIGN_APPROVAL ( #267, ( #76 ) ) ;
#244 = ORIENTED_EDGE ( 'NONE', *, *, #276, .T. ) ;
#245 = DIRECTION ( 'NONE',  ( -3.491481338843133355E-15, 1.224646799147353207E-16, -1.000000000000000000 ) ) ;
#246 = DIRECTION ( 'NONE',  ( 4.275831445896958607E-31, 1.000000000000000000, 1.224646799147353207E-16 ) ) ;
#247 = EDGE_LOOP ( 'NONE', ( #239 ) ) ;
#248 = APPROVAL_ROLE ( '' ) ;
#249 = AXIS2_PLACEMENT_3D ( 'NONE', #205, #145, #126 ) ;
#250 = APPROVAL_STATUS ( 'not_yet_approved' ) ;
#251 = CARTESIAN_POINT ( 'NONE',  ( 3.588240108004012863E-14, -1.258585206786550530E-15, 10.27712812921102348 ) ) ;
#252 = VERTEX_POINT ( 'NONE', #298 ) ;
#253 = DIRECTION ( 'NONE',  ( -3.491481338843133355E-15, 1.224646799147353207E-16, -1.000000000000000000 ) ) ;
#254 = EDGE_LOOP ( 'NONE', ( #228 ) ) ;
#255 = CIRCLE ( 'NONE', #165, 1.200000000000001510 ) ;
#256 = CARTESIAN_POINT ( 'NONE',  ( 3.491481338843133355E-14, 1.244800619609336122E-32, 10.00000000000000000 ) ) ;
#257 =( NAMED_UNIT ( * ) SI_UNIT ( $, .STERADIAN. ) SOLID_ANGLE_UNIT ( ) );
#258 = EDGE_LOOP ( 'NONE', ( #12 ) ) ;
#259 = EDGE_CURVE ( 'NONE', #211, #211, #108, .T. ) ;
#260 = DIRECTION ( 'NONE',  ( 0.0000000000000000000, 1.000000000000000000, 0.0000000000000000000 ) ) ;
#261 = CIRCLE ( 'NONE', #77, 1.200000000000001510 ) ;
#262 = PLANE ( 'NONE',  #185 ) ;
#263 = FACE_OUTER_BOUND ( 'NONE', #75, .T. ) ;
#264 = DIRECTION ( 'NONE',  ( 4.275831445896958607E-31, 1.000000000000000000, 1.224646799147353207E-16 ) ) ;
#265 = CYLINDRICAL_SURFACE ( 'NONE', #238, 1.499999999999996891 ) ;
#266 = EDGE_CURVE ( 'NONE', #252, #252, #28, .T. ) ;
#267 = APPROVAL ( #102, 'UNSPECIFIED' ) ;
#268 = EDGE_LOOP ( 'NONE', ( #302 ) ) ;
#269 = FACE_OUTER_BOUND ( 'NONE', #247, .T. ) ;
#270 = CARTESIAN_POINT ( 'NONE',  ( 8.728703347107827472E-16, -3.061616997868381169E-17, 0.2499999999999998335 ) ) ;
#271 = DIRECTION ( 'NONE',  ( -3.491481338843133355E-15, 1.224646799147353207E-16, -1.000000000000000000 ) ) ;
#272 = PERSON ( 'UNSPECIFIED', 'UNSPECIFIED', 'UNSPECIFIED', ('UNSPECIFIED'), ('UNSPECIFIED'), ('UNSPECIFIED') ) ;
#273 = AXIS2_PLACEMENT_3D ( 'NONE', #290, #66, #246 ) ;
#274 = CARTESIAN_POINT ( 'NONE',  ( 3.491481338843133355E-14, 1.659999999999993703, 10.00000000000000000 ) ) ;
#275 = EDGE_LOOP ( 'NONE', ( #170 ) ) ;
#276 = EDGE_CURVE ( 'NONE', #301, #301, #261, .T. ) ;
#277 = FACE_OUTER_BOUND ( 'NONE', #109, .T. ) ;
#278 = CALENDAR_DATE ( 2021, 2, 12 ) ;
#279 = APPROVAL_DATE_TIME ( #194, #52 ) ;
#280 = VERTEX_POINT ( 'NONE', #181 ) ;
#281 = DIRECTION ( 'NONE',  ( -3.491481338843133355E-15, 1.224646799147353207E-16, -1.000000000000000000 ) ) ;
#282 = ORIENTED_EDGE ( 'NONE', *, *, #266, .T. ) ;
#283 = DIRECTION ( 'NONE',  ( 4.275831445896958607E-31, 1.000000000000000000, 1.224646799147353454E-16 ) ) ;
#284 = CARTESIAN_POINT ( 'NONE',  ( 2.433562493173664138E-13, 1.499999999999992673, 69.70000000000001705 ) ) ;
#285 = FACE_OUTER_BOUND ( 'NONE', #254, .T. ) ;
#286 = DIRECTION ( 'NONE',  ( 4.275831445896958607E-31, 1.000000000000000000, 1.224646799147353454E-16 ) ) ;
#287 = CALENDAR_DATE ( 2021, 2, 12 ) ;
#288 = DIRECTION ( 'NONE',  ( 4.275831445896958607E-31, 1.000000000000000000, 1.224646799147353207E-16 ) ) ;
#289 = ORIENTED_EDGE ( 'NONE', *, *, #212, .F. ) ;
#290 = CARTESIAN_POINT ( 'NONE',  ( 2.444036937190193601E-13, 8.998558695971026591E-33, 70.00000000000000000 ) ) ;
#291 = CARTESIAN_POINT ( 'NONE',  ( 0.0000000000000000000, 0.0000000000000000000, 0.0000000000000000000 ) ) ;
#292 = ADVANCED_FACE ( 'NONE', ( #105, #45 ), #265, .T. ) ;
#293 = ADVANCED_FACE ( 'NONE', ( #140, #72 ), #142, .T. ) ;
#294 = CONICAL_SURFACE ( 'NONE', #154, 1.659999999999995035, 0.5235987755982995928 ) ;
#295 = DIRECTION ( 'NONE',  ( 0.0000000000000000000, 1.000000000000000000, 0.0000000000000000000 ) ) ;
#296 = LOCAL_TIME ( 10, 35, 31.00000000000000000, #32 ) ;
#297 = DIRECTION ( 'NONE',  ( -3.491481338843133355E-15, 1.224646799147353207E-16, -1.000000000000000000 ) ) ;
#298 = CARTESIAN_POINT ( 'NONE',  ( 0.0000000000000000000, 1.409999999999994147, 0.0000000000000000000 ) ) ;
#299 =( LENGTH_UNIT ( ) NAMED_UNIT ( * ) SI_UNIT ( .MILLI., .METRE. ) );
#300 = PERSON_AND_ORGANIZATION ( #272, #110 ) ;
#301 = VERTEX_POINT ( 'NONE', #169 ) ;
#302 = ORIENTED_EDGE ( 'NONE', *, *, #266, .F. ) ;
#303 = DATE_AND_TIME ( #278, #85 ) ;
ENDSEC;
END-ISO-10303-21;
