ISO-10303-21;
HEADER;
FILE_DESCRIPTION (( 'STEP AP203' ),
    '1' );
FILE_NAME ('321557.step',
    '2021-12-02T09:35:30',
    ( '' ),
    ( '' ),
    'SwSTEP 2.0',
    'SolidWorks 2019',
    '' );
FILE_SCHEMA (( 'CONFIG_CONTROL_DESIGN' ));
ENDSEC;

DATA;
#1 = ORIENTED_EDGE ( 'NONE', *, *, #121, .T. ) ;
#2 = ADVANCED_BREP_SHAPE_REPRESENTATION ( '321557', ( #36, #27, #23 ), #289 ) ;
#3 = DIRECTION ( 'NONE',  ( 0.0000000000000000000, 1.000000000000000000, 0.0000000000000000000 ) ) ;
#4 = EDGE_LOOP ( 'NONE', ( #88 ) ) ;
#5 = FACE_OUTER_BOUND ( 'NONE', #302, .T. ) ;
#6 = ADVANCED_FACE ( 'NONE', ( #96, #126 ), #273, .T. ) ;
#7 = PLANE ( 'NONE',  #76 ) ;
#8 = APPLICATION_CONTEXT ( 'configuration controlled 3d designs of mechanical parts and assemblies' ) ;
#9 = CARTESIAN_POINT ( 'NONE',  ( -6.007543181485223085E-31, 2.107162494639908625E-32, -1.720628752802030281E-16 ) ) ;
#10 = CARTESIAN_POINT ( 'NONE',  ( 3.491481338843133355E-14, -1.224646799147353256E-15, 10.00000000000000000 ) ) ;
#11 = FACE_OUTER_BOUND ( 'NONE', #197, .T. ) ;
#12 = EDGE_CURVE ( 'NONE', #163, #163, #170, .T. ) ;
#13 = EDGE_LOOP ( 'NONE', ( #1 ) ) ;
#14 = DIRECTION ( 'NONE',  ( 0.0000000000000000000, 1.000000000000000000, 0.0000000000000000000 ) ) ;
#15 = DIRECTION ( 'NONE',  ( 0.0000000000000000000, 1.000000000000000000, 0.0000000000000000000 ) ) ;
#16 = ADVANCED_FACE ( 'NONE', ( #83, #249 ), #244, .T. ) ;
#17 = FACE_OUTER_BOUND ( 'NONE', #149, .T. ) ;
#18 = APPROVAL_DATE_TIME ( #285, #301 ) ;
#19 = CONICAL_SURFACE ( 'NONE', #145, 1.655000000000000027, 0.5235987755983009251 ) ;
#20 = DIRECTION ( 'NONE',  ( 4.275831445896958607E-31, 1.000000000000000000, 1.224646799147353207E-16 ) ) ;
#21 = CALENDAR_DATE ( 2021, 2, 12 ) ;
#22 = AXIS2_PLACEMENT_3D ( 'NONE', #102, #66, #165 ) ;
#23 = AXIS2_PLACEMENT_3D ( 'NONE', #26, #104, #193 ) ;
#24 = COORDINATED_UNIVERSAL_TIME_OFFSET ( 1, 0, .AHEAD. ) ;
#25 = APPROVAL ( #72, 'UNSPECIFIED' ) ;
#26 = CARTESIAN_POINT ( 'NONE',  ( 0.0000000000000000000, 0.0000000000000000000, 0.0000000000000000000 ) ) ;
#27 = MANIFOLD_SOLID_BREP ( 'Corps-Déplacer/Copier1[2]', #98 ) ;
#28 = EDGE_CURVE ( 'NONE', #187, #187, #137, .T. ) ;
#29 = DATE_AND_TIME ( #287, #218 ) ;
#30 = CIRCLE ( 'NONE', #299, 1.655000000000000027 ) ;
#31 = DIRECTION ( 'NONE',  ( 0.0000000000000000000, 1.000000000000000000, 0.0000000000000000000 ) ) ;
#32 = FACE_BOUND ( 'NONE', #157, .T. ) ;
#33 = ORIENTED_EDGE ( 'NONE', *, *, #117, .F. ) ;
#34 = APPROVAL_PERSON_ORGANIZATION ( #140, #209, #300 ) ;
#35 = VERTEX_POINT ( 'NONE', #211 ) ;
#36 = MANIFOLD_SOLID_BREP ( 'Corps-Déplacer/Copier1[1]', #103 ) ;
#37 = DIRECTION ( 'NONE',  ( -4.275831445896958607E-31, -1.000000000000000000, -1.224646799147353207E-16 ) ) ;
#38 = APPLICATION_CONTEXT ( 'configuration controlled 3d designs of mechanical parts and assemblies' ) ;
#39 = SHAPE_DEFINITION_REPRESENTATION ( #92, #2 ) ;
#40 = FACE_BOUND ( 'NONE', #13, .T. ) ;
#41 = CC_DESIGN_APPROVAL ( #301, ( #234 ) ) ;
#42 = ADVANCED_FACE ( 'NONE', ( #142, #272 ), #196, .T. ) ;
#43 = CC_DESIGN_APPROVAL ( #209, ( #248 ) ) ;
#44 = PERSON_AND_ORGANIZATION_ROLE ( 'design_owner' ) ;
#45 = CC_DESIGN_PERSON_AND_ORGANIZATION_ASSIGNMENT ( #281, #44, ( #116 ) ) ;
#46 = EDGE_LOOP ( 'NONE', ( #155 ) ) ;
#47 = DIRECTION ( 'NONE',  ( -3.491481338843133355E-15, 1.224646799147353207E-16, -1.000000000000000000 ) ) ;
#48 = EDGE_LOOP ( 'NONE', ( #107 ) ) ;
#49 = DIRECTION ( 'NONE',  ( -3.491481338843133355E-15, 1.224646799147353207E-16, -1.000000000000000000 ) ) ;
#50 = DIRECTION ( 'NONE',  ( -3.491481338843133355E-15, 1.224646799147353207E-16, -1.000000000000000000 ) ) ;
#51 = DIRECTION ( 'NONE',  ( 4.275831445896958607E-31, 1.000000000000000000, 1.224646799147353207E-16 ) ) ;
#52 = AXIS2_PLACEMENT_3D ( 'NONE', #60, #49, #293 ) ;
#53 = EDGE_LOOP ( 'NONE', ( #173 ) ) ;
#54 = AXIS2_PLACEMENT_3D ( 'NONE', #119, #277, #15 ) ;
#55 = CC_DESIGN_PERSON_AND_ORGANIZATION_ASSIGNMENT ( #120, #74, ( #234 ) ) ;
#56 = FACE_OUTER_BOUND ( 'NONE', #111, .T. ) ;
#57 = DIRECTION ( 'NONE',  ( -3.491481338843133355E-15, 1.224646799147353207E-16, -1.000000000000000000 ) ) ;
#58 = CARTESIAN_POINT ( 'NONE',  ( 2.433562493173664138E-13, 1.499999999999992673, 69.70000000000001705 ) ) ;
#59 = CARTESIAN_POINT ( 'NONE',  ( 0.0000000000000000000, 0.0000000000000000000, 0.0000000000000000000 ) ) ;
#60 = CARTESIAN_POINT ( 'NONE',  ( 2.444036937190193601E-13, -8.572527594031472993E-15, 70.00000000000000000 ) ) ;
#61 = DIRECTION ( 'NONE',  ( 0.0000000000000000000, 1.000000000000000000, 0.0000000000000000000 ) ) ;
#62 = DIRECTION ( 'NONE',  ( -3.491481338843133355E-15, 1.224646799147353207E-16, -1.000000000000000000 ) ) ;
#63 = ORGANIZATION ( 'UNSPECIFIED', 'UNSPECIFIED', '' ) ;
#64 = VERTEX_POINT ( 'NONE', #139 ) ;
#65 = ADVANCED_FACE ( 'NONE', ( #265, #56 ), #79, .T. ) ;
#66 = DIRECTION ( 'NONE',  ( -3.491481338843133355E-15, 1.224646799147353207E-16, -1.000000000000000000 ) ) ;
#67 = CARTESIAN_POINT ( 'NONE',  ( 2.444036937190193601E-13, 1.199999999999992628, 70.00000000000000000 ) ) ;
#68 = CIRCLE ( 'NONE', #85, 1.500000000000001110 ) ;
#69 = EDGE_CURVE ( 'NONE', #64, #64, #105, .T. ) ;
#70 = SECURITY_CLASSIFICATION_LEVEL ( 'unclassified' ) ;
#71 =( NAMED_UNIT ( * ) PLANE_ANGLE_UNIT ( ) SI_UNIT ( $, .RADIAN. ) );
#72 = APPROVAL_STATUS ( 'not_yet_approved' ) ;
#73 = AXIS2_PLACEMENT_3D ( 'NONE', #261, #162, #51 ) ;
#74 = PERSON_AND_ORGANIZATION_ROLE ( 'design_supplier' ) ;
#75 = AXIS2_PLACEMENT_3D ( 'NONE', #115, #47, #243 ) ;
#76 = AXIS2_PLACEMENT_3D ( 'NONE', #199, #141, #37 ) ;
#77 = ORIENTED_EDGE ( 'NONE', *, *, #28, .T. ) ;
#78 = FACE_OUTER_BOUND ( 'NONE', #53, .T. ) ;
#79 = CYLINDRICAL_SURFACE ( 'NONE', #73, 1.655000000000000027 ) ;
#80 = COORDINATED_UNIVERSAL_TIME_OFFSET ( 1, 0, .AHEAD. ) ;
#81 = FACE_BOUND ( 'NONE', #282, .T. ) ;
#82 = ADVANCED_FACE ( 'NONE', ( #32, #151 ), #19, .T. ) ;
#83 = FACE_OUTER_BOUND ( 'NONE', #227, .T. ) ;
#84 = DIRECTION ( 'NONE',  ( -3.491481338843133355E-15, 1.224646799147353207E-16, -1.000000000000000000 ) ) ;
#85 = AXIS2_PLACEMENT_3D ( 'NONE', #198, #242, #31 ) ;
#86 = CARTESIAN_POINT ( 'NONE',  ( 2.444036937190193601E-13, -8.572527594031472993E-15, 70.00000000000000000 ) ) ;
#87 = APPROVAL_STATUS ( 'not_yet_approved' ) ;
#88 = ORIENTED_EDGE ( 'NONE', *, *, #93, .T. ) ;
#89 = DATE_TIME_ROLE ( 'creation_date' ) ;
#90 = CARTESIAN_POINT ( 'NONE',  ( 3.585216396467737883E-14, 1.499999999999991562, 10.26846787517318660 ) ) ;
#91 = DIRECTION ( 'NONE',  ( 4.275831445896958607E-31, 1.000000000000000000, 1.224646799147353207E-16 ) ) ;
#92 = PRODUCT_DEFINITION_SHAPE ( 'NONE', 'NONE',  #260 ) ;
#93 = EDGE_CURVE ( 'NONE', #250, #250, #184, .T. ) ;
#94 = AXIS2_PLACEMENT_3D ( 'NONE', #86, #128, #174 ) ;
#95 = PERSON_AND_ORGANIZATION ( #270, #63 ) ;
#96 = FACE_OUTER_BOUND ( 'NONE', #283, .T. ) ;
#97 = CC_DESIGN_DATE_AND_TIME_ASSIGNMENT ( #286, #254, ( #248 ) ) ;
#98 = CLOSED_SHELL ( 'NONE', ( #82, #65, #205, #297, #251, #6, #42 ) ) ;
#99 = DATE_AND_TIME ( #21, #148 ) ;
#100 = COORDINATED_UNIVERSAL_TIME_OFFSET ( 1, 0, .AHEAD. ) ;
#101 = COORDINATED_UNIVERSAL_TIME_OFFSET ( 1, 0, .AHEAD. ) ;
#102 = CARTESIAN_POINT ( 'NONE',  ( 3.491481338843133355E-14, -1.224646799147353256E-15, 10.00000000000000000 ) ) ;
#103 = CLOSED_SHELL ( 'NONE', ( #253, #109, #16, #164, #106 ) ) ;
#104 = DIRECTION ( 'NONE',  ( 0.0000000000000000000, 0.0000000000000000000, 1.000000000000000000 ) ) ;
#105 = CIRCLE ( 'NONE', #75, 1.500000000000001110 ) ;
#106 = ADVANCED_FACE ( 'NONE', ( #11 ), #183, .F. ) ;
#107 = ORIENTED_EDGE ( 'NONE', *, *, #28, .F. ) ;
#108 = FACE_BOUND ( 'NONE', #152, .T. ) ;
#109 = ADVANCED_FACE ( 'NONE', ( #40, #17 ), #204, .T. ) ;
#110 = CARTESIAN_POINT ( 'NONE',  ( -6.007543181485223085E-31, 2.107162494639908625E-32, -1.720628752802030281E-16 ) ) ;
#111 = EDGE_LOOP ( 'NONE', ( #259 ) ) ;
#112 = CARTESIAN_POINT ( 'NONE',  ( 3.585216396467737883E-14, -1.257524631547826669E-15, 10.26846787517318660 ) ) ;
#113 = CARTESIAN_POINT ( 'NONE',  ( 2.444036937190193601E-13, 8.998558695971026591E-33, 70.00000000000000000 ) ) ;
#114 = VERTEX_POINT ( 'NONE', #58 ) ;
#115 = CARTESIAN_POINT ( 'NONE',  ( 2.433562493173664138E-13, -8.535788190057053710E-15, 69.70000000000001705 ) ) ;
#116 = PRODUCT ( '321557', '321557', '', ( #171 ) ) ;
#117 = EDGE_CURVE ( 'NONE', #231, #231, #257, .T. ) ;
#118 = CARTESIAN_POINT ( 'NONE',  ( 2.444036937190193601E-13, -8.572527594031472993E-15, 70.00000000000000000 ) ) ;
#119 = CARTESIAN_POINT ( 'NONE',  ( 3.585216396467737883E-14, -1.257524631547826669E-15, 10.26846787517318660 ) ) ;
#120 = PERSON_AND_ORGANIZATION ( #270, #63 ) ;
#121 = EDGE_CURVE ( 'NONE', #186, #186, #188, .T. ) ;
#122 = DIRECTION ( 'NONE',  ( 4.275831445896958607E-31, 1.000000000000000000, 1.224646799147353454E-16 ) ) ;
#123 = APPLICATION_PROTOCOL_DEFINITION ( 'international standard', 'config_control_design', 1994, #8 ) ;
#124 = EDGE_CURVE ( 'NONE', #114, #114, #68, .T. ) ;
#125 = PERSON_AND_ORGANIZATION_ROLE ( 'creator' ) ;
#126 = FACE_BOUND ( 'NONE', #246, .T. ) ;
#127 = ORIENTED_EDGE ( 'NONE', *, *, #93, .F. ) ;
#128 = DIRECTION ( 'NONE',  ( -3.491481338843133355E-15, 1.224646799147353207E-16, -1.000000000000000000 ) ) ;
#129 = CARTESIAN_POINT ( 'NONE',  ( 3.491481338843133355E-14, -1.224646799147353256E-15, 10.00000000000000000 ) ) ;
#130 = ORIENTED_EDGE ( 'NONE', *, *, #190, .F. ) ;
#131 = DIRECTION ( 'NONE',  ( 4.275831445896958607E-31, 1.000000000000000000, 1.224646799147353454E-16 ) ) ;
#132 = ORIENTED_EDGE ( 'NONE', *, *, #124, .F. ) ;
#133 = DIRECTION ( 'NONE',  ( -3.491481338843133355E-15, 1.224646799147353207E-16, -1.000000000000000000 ) ) ;
#134 = CARTESIAN_POINT ( 'NONE',  ( 3.491481338843133355E-14, 1.654999999999998694, 10.00000000000000000 ) ) ;
#135 = CARTESIAN_POINT ( 'NONE',  ( 0.0000000000000000000, 1.404999999999999138, 0.0000000000000000000 ) ) ;
#136 = CARTESIAN_POINT ( 'NONE',  ( 3.491481338843133355E-14, -1.224646799147353256E-15, 10.00000000000000000 ) ) ;
#137 = CIRCLE ( 'NONE', #22, 1.655000000000000027 ) ;
#138 = CC_DESIGN_APPROVAL ( #25, ( #260 ) ) ;
#139 = CARTESIAN_POINT ( 'NONE',  ( 2.433562493173664138E-13, 1.499999999999992673, 69.70000000000001705 ) ) ;
#140 = PERSON_AND_ORGANIZATION ( #270, #63 ) ;
#141 = DIRECTION ( 'NONE',  ( 3.491481338843133355E-15, -1.224646799147353207E-16, 1.000000000000000000 ) ) ;
#142 = FACE_OUTER_BOUND ( 'NONE', #169, .T. ) ;
#143 = APPROVAL_STATUS ( 'not_yet_approved' ) ;
#144 = EDGE_CURVE ( 'NONE', #35, #35, #30, .T. ) ;
#145 = AXIS2_PLACEMENT_3D ( 'NONE', #129, #295, #223 ) ;
#146 = PERSON_AND_ORGANIZATION ( #270, #63 ) ;
#147 = PERSON_AND_ORGANIZATION ( #270, #63 ) ;
#148 = LOCAL_TIME ( 10, 35, 30.00000000000000000, #101 ) ;
#149 = EDGE_LOOP ( 'NONE', ( #216 ) ) ;
#150 = DIRECTION ( 'NONE',  ( 3.491481338843133355E-15, -1.224646799147353207E-16, 1.000000000000000000 ) ) ;
#151 = FACE_OUTER_BOUND ( 'NONE', #48, .T. ) ;
#152 = EDGE_LOOP ( 'NONE', ( #176 ) ) ;
#153 = PLANE ( 'NONE',  #94 ) ;
#154 = ORIENTED_EDGE ( 'NONE', *, *, #69, .F. ) ;
#155 = ORIENTED_EDGE ( 'NONE', *, *, #124, .T. ) ;
#156 = UNCERTAINTY_MEASURE_WITH_UNIT (LENGTH_MEASURE( 1.000000000000000082E-05 ), #294, 'distance_accuracy_value', 'NONE');
#157 = EDGE_LOOP ( 'NONE', ( #240 ) ) ;
#158 = CARTESIAN_POINT ( 'NONE',  ( 0.0000000000000000000, 0.0000000000000000000, 0.0000000000000000000 ) ) ;
#159 = CARTESIAN_POINT ( 'NONE',  ( 2.444036937190193601E-13, 1.199999999999992628, 70.00000000000000000 ) ) ;
#160 = APPLICATION_PROTOCOL_DEFINITION ( 'international standard', 'config_control_design', 1994, #38 ) ;
#161 = AXIS2_PLACEMENT_3D ( 'NONE', #177, #288, #61 ) ;
#162 = DIRECTION ( 'NONE',  ( -3.491481338843133355E-15, 1.224646799147353207E-16, -1.000000000000000000 ) ) ;
#163 = VERTEX_POINT ( 'NONE', #134 ) ;
#164 = ADVANCED_FACE ( 'NONE', ( #5, #108 ), #236, .T. ) ;
#165 = DIRECTION ( 'NONE',  ( 0.0000000000000000000, 1.000000000000000000, 0.0000000000000000000 ) ) ;
#166 = PERSON_AND_ORGANIZATION ( #270, #63 ) ;
#167 = DIRECTION ( 'NONE',  ( -3.491481338843133355E-15, 1.224646799147353207E-16, -1.000000000000000000 ) ) ;
#168 = AXIS2_PLACEMENT_3D ( 'NONE', #113, #206, #292 ) ;
#169 = EDGE_LOOP ( 'NONE', ( #195 ) ) ;
#170 = CIRCLE ( 'NONE', #233, 1.655000000000000027 ) ;
#171 = MECHANICAL_CONTEXT ( 'NONE', #38, 'mechanical' ) ;
#172 = ORIENTED_EDGE ( 'NONE', *, *, #190, .T. ) ;
#173 = ORIENTED_EDGE ( 'NONE', *, *, #144, .T. ) ;
#174 = DIRECTION ( 'NONE',  ( 4.275831445896958607E-31, 1.000000000000000000, 1.224646799147353207E-16 ) ) ;
#175 = COORDINATED_UNIVERSAL_TIME_OFFSET ( 1, 0, .AHEAD. ) ;
#176 = ORIENTED_EDGE ( 'NONE', *, *, #117, .T. ) ;
#177 = CARTESIAN_POINT ( 'NONE',  ( 2.444036937190193601E-13, -8.572527594031472993E-15, 70.00000000000000000 ) ) ;
#178 = AXIS2_PLACEMENT_3D ( 'NONE', #9, #150, #238 ) ;
#179 = DIRECTION ( 'NONE',  ( 0.0000000000000000000, 1.000000000000000000, 0.0000000000000000000 ) ) ;
#180 = ORIENTED_EDGE ( 'NONE', *, *, #69, .T. ) ;
#181 = APPROVAL_ROLE ( '' ) ;
#182 = DIRECTION ( 'NONE',  ( 0.0000000000000000000, 1.000000000000000000, 0.0000000000000000000 ) ) ;
#183 = PLANE ( 'NONE',  #168 ) ;
#184 = CIRCLE ( 'NONE', #220, 1.404999999999999138 ) ;
#185 = APPROVAL_PERSON_ORGANIZATION ( #146, #25, #237 ) ;
#186 = VERTEX_POINT ( 'NONE', #90 ) ;
#187 = VERTEX_POINT ( 'NONE', #228 ) ;
#188 = CIRCLE ( 'NONE', #217, 1.499999999999992895 ) ;
#189 = LOCAL_TIME ( 10, 35, 30.00000000000000000, #175 ) ;
#190 = EDGE_CURVE ( 'NONE', #290, #290, #241, .T. ) ;
#191 = AXIS2_PLACEMENT_3D ( 'NONE', #59, #62, #131 ) ;
#192 = PLANE ( 'NONE',  #230 ) ;
#193 = DIRECTION ( 'NONE',  ( 1.000000000000000000, 0.0000000000000000000, 0.0000000000000000000 ) ) ;
#194 = PERSON_AND_ORGANIZATION_ROLE ( 'classification_officer' ) ;
#195 = ORIENTED_EDGE ( 'NONE', *, *, #262, .F. ) ;
#196 = CYLINDRICAL_SURFACE ( 'NONE', #191, 1.499999999999996891 ) ;
#197 = EDGE_LOOP ( 'NONE', ( #33 ) ) ;
#198 = CARTESIAN_POINT ( 'NONE',  ( 2.433562493173664138E-13, -8.535788190057053710E-15, 69.70000000000001705 ) ) ;
#199 = CARTESIAN_POINT ( 'NONE',  ( 3.491481338843133355E-14, 1.241051220152685282E-32, 10.00000000000000000 ) ) ;
#200 = CC_DESIGN_DATE_AND_TIME_ASSIGNMENT ( #29, #89, ( #260 ) ) ;
#201 = ORIENTED_EDGE ( 'NONE', *, *, #121, .F. ) ;
#202 = CARTESIAN_POINT ( 'NONE',  ( 2.444036937190193601E-13, -8.572527594031472993E-15, 70.00000000000000000 ) ) ;
#203 = DESIGN_CONTEXT ( 'detailed design', #8, 'design' ) ;
#204 = CONICAL_SURFACE ( 'NONE', #247, 1.655000000000000027, 0.5235987755983009251 ) ;
#205 = ADVANCED_FACE ( 'NONE', ( #78, #81 ), #213, .T. ) ;
#206 = DIRECTION ( 'NONE',  ( -3.491481338843133355E-15, 1.224646799147353207E-16, -1.000000000000000000 ) ) ;
#207 = DIRECTION ( 'NONE',  ( -3.491481338843133355E-15, 1.224646799147353207E-16, -1.000000000000000000 ) ) ;
#208 = FACE_OUTER_BOUND ( 'NONE', #4, .T. ) ;
#209 = APPROVAL ( #143, 'UNSPECIFIED' ) ;
#210 = CIRCLE ( 'NONE', #54, 1.499999999999992895 ) ;
#211 = CARTESIAN_POINT ( 'NONE',  ( 8.728703347107835360E-16, 1.655000000000000027, 0.2500000000000000555 ) ) ;
#212 = ORIENTED_EDGE ( 'NONE', *, *, #12, .T. ) ;
#213 = CONICAL_SURFACE ( 'NONE', #178, 1.404999999999999138, 0.7853981633974500554 ) ;
#214 = APPROVAL_DATE_TIME ( #99, #209 ) ;
#215 = PRODUCT_RELATED_PRODUCT_CATEGORY ( 'detail', '', ( #116 ) ) ;
#216 = ORIENTED_EDGE ( 'NONE', *, *, #12, .F. ) ;
#217 = AXIS2_PLACEMENT_3D ( 'NONE', #112, #84, #182 ) ;
#218 = LOCAL_TIME ( 10, 35, 30.00000000000000000, #100 ) ;
#219 = PERSON_AND_ORGANIZATION ( #270, #63 ) ;
#220 = AXIS2_PLACEMENT_3D ( 'NONE', #110, #269, #91 ) ;
#221 =( NAMED_UNIT ( * ) SI_UNIT ( $, .STERADIAN. ) SOLID_ANGLE_UNIT ( ) );
#222 = FACE_OUTER_BOUND ( 'NONE', #266, .T. ) ;
#223 = DIRECTION ( 'NONE',  ( 0.0000000000000000000, 1.000000000000000000, 0.0000000000000000000 ) ) ;
#224 = EDGE_LOOP ( 'NONE', ( #180 ) ) ;
#225 = DIRECTION ( 'NONE',  ( 4.654815575558274015E-31, 1.000000000000000000, 1.310214105722663983E-16 ) ) ;
#226 = CARTESIAN_POINT ( 'NONE',  ( 3.585216396467737883E-14, 1.499999999999991562, 10.26846787517318660 ) ) ;
#227 = EDGE_LOOP ( 'NONE', ( #201 ) ) ;
#228 = CARTESIAN_POINT ( 'NONE',  ( 3.491481338843133355E-14, 1.654999999999998694, 10.00000000000000000 ) ) ;
#229 = CARTESIAN_POINT ( 'NONE',  ( -3.003771590742611542E-31, 1.053581247319954313E-32, -8.603143764010151405E-17 ) ) ;
#230 = AXIS2_PLACEMENT_3D ( 'NONE', #229, #274, #20 ) ;
#231 = VERTEX_POINT ( 'NONE', #159 ) ;
#232 = DIRECTION ( 'NONE',  ( 0.0000000000000000000, 1.000000000000000000, 0.0000000000000000000 ) ) ;
#233 = AXIS2_PLACEMENT_3D ( 'NONE', #10, #57, #179 ) ;
#234 = PRODUCT_DEFINITION_FORMATION_WITH_SPECIFIED_SOURCE ( 'ANY', '', #116, .NOT_KNOWN. ) ;
#235 = EDGE_LOOP ( 'NONE', ( #130 ) ) ;
#236 = CONICAL_SURFACE ( 'NONE', #52, 1.200000000000001510, 0.7853981633974566057 ) ;
#237 = APPROVAL_ROLE ( '' ) ;
#238 = DIRECTION ( 'NONE',  ( -4.275831445896958607E-31, -1.000000000000000000, -1.224646799147353207E-16 ) ) ;
#239 = CALENDAR_DATE ( 2021, 2, 12 ) ;
#240 = ORIENTED_EDGE ( 'NONE', *, *, #262, .T. ) ;
#241 = CIRCLE ( 'NONE', #275, 1.200000000000001510 ) ;
#242 = DIRECTION ( 'NONE',  ( -3.491481338843133355E-15, 1.224646799147353207E-16, -1.000000000000000000 ) ) ;
#243 = DIRECTION ( 'NONE',  ( 0.0000000000000000000, 1.000000000000000000, 0.0000000000000000000 ) ) ;
#244 = CYLINDRICAL_SURFACE ( 'NONE', #267, 1.499999999999996891 ) ;
#245 = VERTEX_POINT ( 'NONE', #226 ) ;
#246 = EDGE_LOOP ( 'NONE', ( #172 ) ) ;
#247 = AXIS2_PLACEMENT_3D ( 'NONE', #136, #167, #232 ) ;
#248 = SECURITY_CLASSIFICATION ( '', '', #70 ) ;
#249 = FACE_OUTER_BOUND ( 'NONE', #224, .T. ) ;
#250 = VERTEX_POINT ( 'NONE', #135 ) ;
#251 = ADVANCED_FACE ( 'NONE', ( #264 ), #153, .F. ) ;
#252 = LOCAL_TIME ( 10, 35, 30.00000000000000000, #80 ) ;
#253 = ADVANCED_FACE ( 'NONE', ( #222 ), #7, .F. ) ;
#254 = DATE_TIME_ROLE ( 'classification_date' ) ;
#255 = APPROVAL_DATE_TIME ( #256, #25 ) ;
#256 = DATE_AND_TIME ( #303, #268 ) ;
#257 = CIRCLE ( 'NONE', #296, 1.200000000000001510 ) ;
#258 = CC_DESIGN_PERSON_AND_ORGANIZATION_ASSIGNMENT ( #147, #194, ( #248 ) ) ;
#259 = ORIENTED_EDGE ( 'NONE', *, *, #144, .F. ) ;
#260 = PRODUCT_DEFINITION ( 'UNKNOWN', '', #234, #203 ) ;
#261 = CARTESIAN_POINT ( 'NONE',  ( 0.0000000000000000000, 0.0000000000000000000, 0.0000000000000000000 ) ) ;
#262 = EDGE_CURVE ( 'NONE', #245, #245, #210, .T. ) ;
#263 = EDGE_LOOP ( 'NONE', ( #77 ) ) ;
#264 = FACE_OUTER_BOUND ( 'NONE', #235, .T. ) ;
#265 = FACE_OUTER_BOUND ( 'NONE', #263, .T. ) ;
#266 = EDGE_LOOP ( 'NONE', ( #212 ) ) ;
#267 = AXIS2_PLACEMENT_3D ( 'NONE', #158, #133, #122 ) ;
#268 = LOCAL_TIME ( 10, 35, 30.00000000000000000, #24 ) ;
#269 = DIRECTION ( 'NONE',  ( -3.491481338843133355E-15, 1.224646799147353207E-16, -1.000000000000000000 ) ) ;
#270 = PERSON ( 'UNSPECIFIED', 'UNSPECIFIED', 'UNSPECIFIED', ('UNSPECIFIED'), ('UNSPECIFIED'), ('UNSPECIFIED') ) ;
#271 = CALENDAR_DATE ( 2021, 2, 12 ) ;
#272 = FACE_OUTER_BOUND ( 'NONE', #46, .T. ) ;
#273 = CONICAL_SURFACE ( 'NONE', #161, 1.200000000000001510, 0.7853981633974566057 ) ;
#274 = DIRECTION ( 'NONE',  ( -3.491481338843133355E-15, 1.224646799147353207E-16, -1.000000000000000000 ) ) ;
#275 = AXIS2_PLACEMENT_3D ( 'NONE', #202, #284, #14 ) ;
#276 = APPROVAL_PERSON_ORGANIZATION ( #219, #301, #181 ) ;
#277 = DIRECTION ( 'NONE',  ( -3.491481338843133355E-15, 1.224646799147353207E-16, -1.000000000000000000 ) ) ;
#278 = CC_DESIGN_PERSON_AND_ORGANIZATION_ASSIGNMENT ( #166, #298, ( #260 ) ) ;
#279 = CC_DESIGN_SECURITY_CLASSIFICATION ( #248, ( #234 ) ) ;
#280 = CC_DESIGN_PERSON_AND_ORGANIZATION_ASSIGNMENT ( #95, #125, ( #234 ) ) ;
#281 = PERSON_AND_ORGANIZATION ( #270, #63 ) ;
#282 = EDGE_LOOP ( 'NONE', ( #127 ) ) ;
#283 = EDGE_LOOP ( 'NONE', ( #132 ) ) ;
#284 = DIRECTION ( 'NONE',  ( -3.491481338843133355E-15, 1.224646799147353207E-16, -1.000000000000000000 ) ) ;
#285 = DATE_AND_TIME ( #271, #189 ) ;
#286 = DATE_AND_TIME ( #239, #252 ) ;
#287 = CALENDAR_DATE ( 2021, 2, 12 ) ;
#288 = DIRECTION ( 'NONE',  ( -3.491481338843133355E-15, 1.224646799147353207E-16, -1.000000000000000000 ) ) ;
#289 =( GEOMETRIC_REPRESENTATION_CONTEXT ( 3 ) GLOBAL_UNCERTAINTY_ASSIGNED_CONTEXT ( ( #156 ) ) GLOBAL_UNIT_ASSIGNED_CONTEXT ( ( #294, #71, #221 ) ) REPRESENTATION_CONTEXT ( 'NONE', 'WORKASPACE' ) );
#290 = VERTEX_POINT ( 'NONE', #67 ) ;
#291 = CARTESIAN_POINT ( 'NONE',  ( 8.728703347107827472E-16, -3.061616997868381169E-17, 0.2499999999999998335 ) ) ;
#292 = DIRECTION ( 'NONE',  ( 4.275831445896958607E-31, 1.000000000000000000, 1.224646799147353207E-16 ) ) ;
#293 = DIRECTION ( 'NONE',  ( 0.0000000000000000000, 1.000000000000000000, 0.0000000000000000000 ) ) ;
#294 =( LENGTH_UNIT ( ) NAMED_UNIT ( * ) SI_UNIT ( .MILLI., .METRE. ) );
#295 = DIRECTION ( 'NONE',  ( -3.491481338843133355E-15, 1.224646799147353207E-16, -1.000000000000000000 ) ) ;
#296 = AXIS2_PLACEMENT_3D ( 'NONE', #118, #50, #3 ) ;
#297 = ADVANCED_FACE ( 'NONE', ( #208 ), #192, .T. ) ;
#298 = PERSON_AND_ORGANIZATION_ROLE ( 'creator' ) ;
#299 = AXIS2_PLACEMENT_3D ( 'NONE', #291, #207, #225 ) ;
#300 = APPROVAL_ROLE ( '' ) ;
#301 = APPROVAL ( #87, 'UNSPECIFIED' ) ;
#302 = EDGE_LOOP ( 'NONE', ( #154 ) ) ;
#303 = CALENDAR_DATE ( 2021, 2, 12 ) ;
ENDSEC;
END-ISO-10303-21;
