ISO-10303-21;
HEADER;
FILE_DESCRIPTION (( 'STEP AP203' ),
    '1' );
FILE_NAME ('321556.step',
    '2021-12-02T09:35:30',
    ( '' ),
    ( '' ),
    'SwSTEP 2.0',
    'SolidWorks 2019',
    '' );
FILE_SCHEMA (( 'CONFIG_CONTROL_DESIGN' ));
ENDSEC;

DATA;
#1 = LOCAL_TIME ( 10, 35, 30.00000000000000000, #288 ) ;
#2 = SECURITY_CLASSIFICATION_LEVEL ( 'unclassified' ) ;
#3 = EDGE_LOOP ( 'NONE', ( #66 ) ) ;
#4 = CYLINDRICAL_SURFACE ( 'NONE', #303, 1.499999999999996891 ) ;
#5 = DIRECTION ( 'NONE',  ( -3.491481338843133355E-15, 1.224646799147353207E-16, -1.000000000000000000 ) ) ;
#6 = FACE_OUTER_BOUND ( 'NONE', #94, .T. ) ;
#7 = DIRECTION ( 'NONE',  ( 4.275831445896958607E-31, 1.000000000000000000, 1.224646799147353207E-16 ) ) ;
#8 = AXIS2_PLACEMENT_3D ( 'NONE', #266, #261, #239 ) ;
#9 = CARTESIAN_POINT ( 'NONE',  ( 3.582192684931461641E-14, -1.256464056309102019E-15, 10.25980762113534439 ) ) ;
#10 = AXIS2_PLACEMENT_3D ( 'NONE', #9, #54, #154 ) ;
#11 = CARTESIAN_POINT ( 'NONE',  ( 0.0000000000000000000, 0.0000000000000000000, 0.0000000000000000000 ) ) ;
#12 = CC_DESIGN_PERSON_AND_ORGANIZATION_ASSIGNMENT ( #232, #45, ( #297 ) ) ;
#13 = CARTESIAN_POINT ( 'NONE',  ( 2.433562493173664138E-13, 1.499999999999992673, 69.70000000000001705 ) ) ;
#14 = APPROVAL_STATUS ( 'not_yet_approved' ) ;
#15 = ORIENTED_EDGE ( 'NONE', *, *, #34, .F. ) ;
#16 = PERSON_AND_ORGANIZATION_ROLE ( 'design_owner' ) ;
#17 = AXIS2_PLACEMENT_3D ( 'NONE', #201, #186, #130 ) ;
#18 = ORIENTED_EDGE ( 'NONE', *, *, #173, .T. ) ;
#19 = ORIENTED_EDGE ( 'NONE', *, *, #138, .T. ) ;
#20 = CC_DESIGN_PERSON_AND_ORGANIZATION_ASSIGNMENT ( #26, #16, ( #117 ) ) ;
#21 = PERSON_AND_ORGANIZATION ( #162, #105 ) ;
#22 = ORIENTED_EDGE ( 'NONE', *, *, #183, .T. ) ;
#23 = AXIS2_PLACEMENT_3D ( 'NONE', #51, #49, #78 ) ;
#24 = LOCAL_TIME ( 10, 35, 30.00000000000000000, #226 ) ;
#25 = CARTESIAN_POINT ( 'NONE',  ( 3.582192684931461641E-14, -1.256464056309102019E-15, 10.25980762113534439 ) ) ;
#26 = PERSON_AND_ORGANIZATION ( #162, #105 ) ;
#27 = LOCAL_TIME ( 10, 35, 30.00000000000000000, #37 ) ;
#28 = DIRECTION ( 'NONE',  ( -3.491481338843133355E-15, 1.224646799147353207E-16, -1.000000000000000000 ) ) ;
#29 = FACE_OUTER_BOUND ( 'NONE', #169, .T. ) ;
#30 = EDGE_CURVE ( 'NONE', #106, #106, #240, .T. ) ;
#31 = APPROVAL_STATUS ( 'not_yet_approved' ) ;
#32 = CIRCLE ( 'NONE', #211, 1.200000000000001510 ) ;
#33 = CIRCLE ( 'NONE', #17, 1.649999999999999911 ) ;
#34 = EDGE_CURVE ( 'NONE', #260, #260, #122, .T. ) ;
#35 = UNCERTAINTY_MEASURE_WITH_UNIT (LENGTH_MEASURE( 1.000000000000000082E-05 ), #52, 'distance_accuracy_value', 'NONE');
#36 = DATE_AND_TIME ( #249, #1 ) ;
#37 = COORDINATED_UNIVERSAL_TIME_OFFSET ( 1, 0, .AHEAD. ) ;
#38 = CARTESIAN_POINT ( 'NONE',  ( 3.582192684931461641E-14, 1.499999999999991562, 10.25980762113534439 ) ) ;
#39 = EDGE_LOOP ( 'NONE', ( #277 ) ) ;
#40 = CLOSED_SHELL ( 'NONE', ( #189, #43, #228, #178, #188 ) ) ;
#41 = CC_DESIGN_APPROVAL ( #270, ( #126 ) ) ;
#42 = CC_DESIGN_DATE_AND_TIME_ASSIGNMENT ( #227, #62, ( #147 ) ) ;
#43 = ADVANCED_FACE ( 'NONE', ( #148, #236 ), #264, .T. ) ;
#44 = APPROVAL_DATE_TIME ( #171, #67 ) ;
#45 = PERSON_AND_ORGANIZATION_ROLE ( 'creator' ) ;
#46 = EDGE_LOOP ( 'NONE', ( #116 ) ) ;
#47 = EDGE_LOOP ( 'NONE', ( #15 ) ) ;
#48 = DIRECTION ( 'NONE',  ( -3.491481338843133355E-15, 1.224646799147353207E-16, -1.000000000000000000 ) ) ;
#49 = DIRECTION ( 'NONE',  ( -3.491481338843133355E-15, 1.224646799147353207E-16, -1.000000000000000000 ) ) ;
#50 = CARTESIAN_POINT ( 'NONE',  ( 2.433562493173664138E-13, 1.499999999999992673, 69.70000000000001705 ) ) ;
#51 = CARTESIAN_POINT ( 'NONE',  ( 2.444036937190193601E-13, -8.572527594031472993E-15, 70.00000000000000000 ) ) ;
#52 =( LENGTH_UNIT ( ) NAMED_UNIT ( * ) SI_UNIT ( .MILLI., .METRE. ) );
#53 = DIRECTION ( 'NONE',  ( 4.275831445896958607E-31, 1.000000000000000000, 1.224646799147353207E-16 ) ) ;
#54 = DIRECTION ( 'NONE',  ( -3.491481338843133355E-15, 1.224646799147353207E-16, -1.000000000000000000 ) ) ;
#55 = DIRECTION ( 'NONE',  ( -3.491481338843133355E-15, 1.224646799147353207E-16, -1.000000000000000000 ) ) ;
#56 = DIRECTION ( 'NONE',  ( 0.0000000000000000000, 1.000000000000000000, 0.0000000000000000000 ) ) ;
#57 = DIRECTION ( 'NONE',  ( -3.491481338843133355E-15, 1.224646799147353207E-16, -1.000000000000000000 ) ) ;
#58 = APPROVAL_DATE_TIME ( #36, #79 ) ;
#59 = VERTEX_POINT ( 'NONE', #61 ) ;
#60 = FACE_OUTER_BOUND ( 'NONE', #109, .T. ) ;
#61 = CARTESIAN_POINT ( 'NONE',  ( 2.444036937190193601E-13, 1.199999999999992628, 70.00000000000000000 ) ) ;
#62 = DATE_TIME_ROLE ( 'classification_date' ) ;
#63 =( NAMED_UNIT ( * ) PLANE_ANGLE_UNIT ( ) SI_UNIT ( $, .RADIAN. ) );
#64 = ADVANCED_FACE ( 'NONE', ( #135, #84 ), #115, .T. ) ;
#65 = APPROVAL_PERSON_ORGANIZATION ( #231, #270, #271 ) ;
#66 = ORIENTED_EDGE ( 'NONE', *, *, #100, .T. ) ;
#67 = APPROVAL ( #90, 'UNSPECIFIED' ) ;
#68 = ADVANCED_FACE ( 'NONE', ( #207, #280 ), #4, .T. ) ;
#69 = ORIENTED_EDGE ( 'NONE', *, *, #173, .F. ) ;
#70 = COORDINATED_UNIVERSAL_TIME_OFFSET ( 1, 0, .AHEAD. ) ;
#71 = EDGE_LOOP ( 'NONE', ( #69 ) ) ;
#72 = DIRECTION ( 'NONE',  ( 1.000000000000000000, 0.0000000000000000000, 0.0000000000000000000 ) ) ;
#73 = CARTESIAN_POINT ( 'NONE',  ( 2.433562493173664138E-13, -8.535788190057053710E-15, 69.70000000000001705 ) ) ;
#74 = AXIS2_PLACEMENT_3D ( 'NONE', #210, #125, #243 ) ;
#75 = FACE_BOUND ( 'NONE', #220, .T. ) ;
#76 = CYLINDRICAL_SURFACE ( 'NONE', #153, 1.499999999999996891 ) ;
#77 = CARTESIAN_POINT ( 'NONE',  ( 3.582192684931461641E-14, 1.499999999999991562, 10.25980762113534439 ) ) ;
#78 = DIRECTION ( 'NONE',  ( 0.0000000000000000000, 1.000000000000000000, 0.0000000000000000000 ) ) ;
#79 = APPROVAL ( #31, 'UNSPECIFIED' ) ;
#80 = EDGE_CURVE ( 'NONE', #206, #206, #195, .T. ) ;
#81 = DIRECTION ( 'NONE',  ( 0.0000000000000000000, 1.000000000000000000, 0.0000000000000000000 ) ) ;
#82 = DIRECTION ( 'NONE',  ( -3.491481338843133355E-15, 1.224646799147353207E-16, -1.000000000000000000 ) ) ;
#83 = VERTEX_POINT ( 'NONE', #204 ) ;
#84 = FACE_OUTER_BOUND ( 'NONE', #233, .T. ) ;
#85 = CARTESIAN_POINT ( 'NONE',  ( 2.444036937190193601E-13, 8.998558695971026591E-33, 70.00000000000000000 ) ) ;
#86 = PLANE ( 'NONE',  #269 ) ;
#87 = APPROVAL_PERSON_ORGANIZATION ( #244, #79, #161 ) ;
#88 = PLANE ( 'NONE',  #74 ) ;
#89 = ORIENTED_EDGE ( 'NONE', *, *, #30, .T. ) ;
#90 = APPROVAL_STATUS ( 'not_yet_approved' ) ;
#91 = AXIS2_PLACEMENT_3D ( 'NONE', #237, #5, #98 ) ;
#92 = EDGE_LOOP ( 'NONE', ( #18 ) ) ;
#93 = DIRECTION ( 'NONE',  ( 0.0000000000000000000, 1.000000000000000000, 0.0000000000000000000 ) ) ;
#94 = EDGE_LOOP ( 'NONE', ( #118 ) ) ;
#95 = EDGE_LOOP ( 'NONE', ( #198 ) ) ;
#96 = EDGE_LOOP ( 'NONE', ( #300 ) ) ;
#97 = APPROVAL_DATE_TIME ( #121, #270 ) ;
#98 = DIRECTION ( 'NONE',  ( 4.275831445896958607E-31, 1.000000000000000000, 1.224646799147353207E-16 ) ) ;
#99 = CC_DESIGN_PERSON_AND_ORGANIZATION_ASSIGNMENT ( #179, #137, ( #147 ) ) ;
#100 = EDGE_CURVE ( 'NONE', #102, #102, #32, .T. ) ;
#101 = CARTESIAN_POINT ( 'NONE',  ( 2.444036937190193601E-13, -8.572527594031472993E-15, 70.00000000000000000 ) ) ;
#102 = VERTEX_POINT ( 'NONE', #268 ) ;
#103 = CARTESIAN_POINT ( 'NONE',  ( 2.444036937190193601E-13, -8.572527594031472993E-15, 70.00000000000000000 ) ) ;
#104 = VERTEX_POINT ( 'NONE', #289 ) ;
#105 = ORGANIZATION ( 'UNSPECIFIED', 'UNSPECIFIED', '' ) ;
#106 = VERTEX_POINT ( 'NONE', #77 ) ;
#107 = CARTESIAN_POINT ( 'NONE',  ( 3.491481338843133355E-14, -1.224646799147353256E-15, 10.00000000000000000 ) ) ;
#108 = CC_DESIGN_DATE_AND_TIME_ASSIGNMENT ( #283, #133, ( #126 ) ) ;
#109 = EDGE_LOOP ( 'NONE', ( #298 ) ) ;
#110 = VERTEX_POINT ( 'NONE', #229 ) ;
#111 = MANIFOLD_SOLID_BREP ( 'Corps-Déplacer/Copier1[1]', #40 ) ;
#112 = EDGE_LOOP ( 'NONE', ( #215 ) ) ;
#113 = MANIFOLD_SOLID_BREP ( 'Corps-Déplacer/Copier1[2]', #176 ) ;
#114 = ADVANCED_FACE ( 'NONE', ( #199, #75 ), #158, .T. ) ;
#115 = CONICAL_SURFACE ( 'NONE', #152, 1.649999999999999911, 0.5235987755982993708 ) ;
#116 = ORIENTED_EDGE ( 'NONE', *, *, #281, .F. ) ;
#117 = PRODUCT ( '321556', '321556', '', ( #256 ) ) ;
#118 = ORIENTED_EDGE ( 'NONE', *, *, #193, .T. ) ;
#119 =( NAMED_UNIT ( * ) SI_UNIT ( $, .STERADIAN. ) SOLID_ANGLE_UNIT ( ) );
#120 = APPLICATION_CONTEXT ( 'configuration controlled 3d designs of mechanical parts and assemblies' ) ;
#121 = DATE_AND_TIME ( #219, #27 ) ;
#122 = CIRCLE ( 'NONE', #170, 1.500000000000001110 ) ;
#123 = CIRCLE ( 'NONE', #287, 1.649999999999999911 ) ;
#124 = CARTESIAN_POINT ( 'NONE',  ( 3.491481338843133355E-14, -1.224646799147353256E-15, 10.00000000000000000 ) ) ;
#125 = DIRECTION ( 'NONE',  ( 3.491481338843133355E-15, -1.224646799147353207E-16, 1.000000000000000000 ) ) ;
#126 = PRODUCT_DEFINITION ( 'UNKNOWN', '', #297, #160 ) ;
#127 = DIRECTION ( 'NONE',  ( -3.491481338843133355E-15, 1.224646799147353207E-16, -1.000000000000000000 ) ) ;
#128 = CIRCLE ( 'NONE', #252, 1.649999999999999911 ) ;
#129 = FACE_OUTER_BOUND ( 'NONE', #71, .T. ) ;
#130 = DIRECTION ( 'NONE',  ( 4.668921077302390398E-31, 1.000000000000000000, 1.314184451497581259E-16 ) ) ;
#131 = FACE_OUTER_BOUND ( 'NONE', #47, .T. ) ;
#132 = CALENDAR_DATE ( 2021, 2, 12 ) ;
#133 = DATE_TIME_ROLE ( 'creation_date' ) ;
#134 = DIRECTION ( 'NONE',  ( 0.0000000000000000000, 1.000000000000000000, 0.0000000000000000000 ) ) ;
#135 = FACE_BOUND ( 'NONE', #253, .T. ) ;
#136 = FACE_OUTER_BOUND ( 'NONE', #92, .T. ) ;
#137 = PERSON_AND_ORGANIZATION_ROLE ( 'classification_officer' ) ;
#138 = EDGE_CURVE ( 'NONE', #59, #59, #286, .T. ) ;
#139 = APPLICATION_PROTOCOL_DEFINITION ( 'international standard', 'config_control_design', 1994, #250 ) ;
#140 = VERTEX_POINT ( 'NONE', #13 ) ;
#141 = PERSON_AND_ORGANIZATION ( #162, #105 ) ;
#142 = CALENDAR_DATE ( 2021, 2, 12 ) ;
#143 = ORIENTED_EDGE ( 'NONE', *, *, #183, .F. ) ;
#144 = AXIS2_PLACEMENT_3D ( 'NONE', #290, #28, #7 ) ;
#145 = ORIENTED_EDGE ( 'NONE', *, *, #80, .T. ) ;
#146 = AXIS2_PLACEMENT_3D ( 'NONE', #245, #149, #180 ) ;
#147 = SECURITY_CLASSIFICATION ( '', '', #2 ) ;
#148 = FACE_BOUND ( 'NONE', #174, .T. ) ;
#149 = DIRECTION ( 'NONE',  ( -3.491481338843133355E-15, 1.224646799147353207E-16, -1.000000000000000000 ) ) ;
#150 = DIRECTION ( 'NONE',  ( -3.491481338843133355E-15, 1.224646799147353207E-16, -1.000000000000000000 ) ) ;
#151 = DIRECTION ( 'NONE',  ( 3.491481338843133355E-15, -1.224646799147353207E-16, 1.000000000000000000 ) ) ;
#152 = AXIS2_PLACEMENT_3D ( 'NONE', #155, #127, #56 ) ;
#153 = AXIS2_PLACEMENT_3D ( 'NONE', #203, #284, #159 ) ;
#154 = DIRECTION ( 'NONE',  ( 0.0000000000000000000, 1.000000000000000000, 0.0000000000000000000 ) ) ;
#155 = CARTESIAN_POINT ( 'NONE',  ( 3.491481338843133355E-14, -1.224646799147353256E-15, 10.00000000000000000 ) ) ;
#156 = DIRECTION ( 'NONE',  ( 0.0000000000000000000, 1.000000000000000000, 0.0000000000000000000 ) ) ;
#157 = FACE_OUTER_BOUND ( 'NONE', #217, .T. ) ;
#158 = CONICAL_SURFACE ( 'NONE', #166, 1.399999999999999023, 0.7853981633974500554 ) ;
#159 = DIRECTION ( 'NONE',  ( 4.275831445896958607E-31, 1.000000000000000000, 1.224646799147353454E-16 ) ) ;
#160 = DESIGN_CONTEXT ( 'detailed design', #250, 'design' ) ;
#161 = APPROVAL_ROLE ( '' ) ;
#162 = PERSON ( 'UNSPECIFIED', 'UNSPECIFIED', 'UNSPECIFIED', ('UNSPECIFIED'), ('UNSPECIFIED'), ('UNSPECIFIED') ) ;
#163 = ADVANCED_FACE ( 'NONE', ( #131, #224 ), #273, .T. ) ;
#164 = CIRCLE ( 'NONE', #8, 1.500000000000001110 ) ;
#165 = VERTEX_POINT ( 'NONE', #38 ) ;
#166 = AXIS2_PLACEMENT_3D ( 'NONE', #181, #151, #258 ) ;
#167 = AXIS2_PLACEMENT_3D ( 'NONE', #285, #82, #182 ) ;
#168 = ORIENTED_EDGE ( 'NONE', *, *, #80, .F. ) ;
#169 = EDGE_LOOP ( 'NONE', ( #213 ) ) ;
#170 = AXIS2_PLACEMENT_3D ( 'NONE', #73, #48, #192 ) ;
#171 = DATE_AND_TIME ( #212, #279 ) ;
#172 = CONICAL_SURFACE ( 'NONE', #191, 1.200000000000001510, 0.7853981633974566057 ) ;
#173 = EDGE_CURVE ( 'NONE', #140, #140, #164, .T. ) ;
#174 = EDGE_LOOP ( 'NONE', ( #22 ) ) ;
#175 = APPLICATION_PROTOCOL_DEFINITION ( 'international standard', 'config_control_design', 1994, #120 ) ;
#176 = CLOSED_SHELL ( 'NONE', ( #64, #214, #114, #294, #230, #163, #68 ) ) ;
#177 = AXIS2_PLACEMENT_3D ( 'NONE', #85, #185, #254 ) ;
#178 = ADVANCED_FACE ( 'NONE', ( #129, #267 ), #172, .T. ) ;
#179 = PERSON_AND_ORGANIZATION ( #162, #105 ) ;
#180 = DIRECTION ( 'NONE',  ( 0.0000000000000000000, 1.000000000000000000, 0.0000000000000000000 ) ) ;
#181 = CARTESIAN_POINT ( 'NONE',  ( -5.986164024255738371E-31, 2.099663695726599556E-32, -1.714505518806293405E-16 ) ) ;
#182 = DIRECTION ( 'NONE',  ( 4.275831445896958607E-31, 1.000000000000000000, 1.224646799147353207E-16 ) ) ;
#183 = EDGE_CURVE ( 'NONE', #165, #165, #200, .T. ) ;
#184 = CARTESIAN_POINT ( 'NONE',  ( 3.491481338843133355E-14, -1.224646799147353256E-15, 10.00000000000000000 ) ) ;
#185 = DIRECTION ( 'NONE',  ( -3.491481338843133355E-15, 1.224646799147353207E-16, -1.000000000000000000 ) ) ;
#186 = DIRECTION ( 'NONE',  ( -3.491481338843133355E-15, 1.224646799147353207E-16, -1.000000000000000000 ) ) ;
#187 = PERSON_AND_ORGANIZATION ( #162, #105 ) ;
#188 = ADVANCED_FACE ( 'NONE', ( #29 ), #205, .F. ) ;
#189 = ADVANCED_FACE ( 'NONE', ( #299 ), #88, .F. ) ;
#190 =( GEOMETRIC_REPRESENTATION_CONTEXT ( 3 ) GLOBAL_UNCERTAINTY_ASSIGNED_CONTEXT ( ( #35 ) ) GLOBAL_UNIT_ASSIGNED_CONTEXT ( ( #52, #63, #119 ) ) REPRESENTATION_CONTEXT ( 'NONE', 'WORKASPACE' ) );
#191 = AXIS2_PLACEMENT_3D ( 'NONE', #103, #263, #156 ) ;
#192 = DIRECTION ( 'NONE',  ( 0.0000000000000000000, 1.000000000000000000, 0.0000000000000000000 ) ) ;
#193 = EDGE_CURVE ( 'NONE', #110, #110, #123, .T. ) ;
#194 = PRODUCT_DEFINITION_SHAPE ( 'NONE', 'NONE',  #126 ) ;
#195 = CIRCLE ( 'NONE', #91, 1.399999999999999023 ) ;
#196 = DIRECTION ( 'NONE',  ( 0.0000000000000000000, 1.000000000000000000, 0.0000000000000000000 ) ) ;
#197 = LOCAL_TIME ( 10, 35, 30.00000000000000000, #291 ) ;
#198 = ORIENTED_EDGE ( 'NONE', *, *, #30, .F. ) ;
#199 = FACE_OUTER_BOUND ( 'NONE', #275, .T. ) ;
#200 = CIRCLE ( 'NONE', #10, 1.499999999999992895 ) ;
#201 = CARTESIAN_POINT ( 'NONE',  ( 8.728703347107827472E-16, -3.061616997868381169E-17, 0.2499999999999998335 ) ) ;
#202 = DIRECTION ( 'NONE',  ( -3.491481338843133355E-15, 1.224646799147353207E-16, -1.000000000000000000 ) ) ;
#203 = CARTESIAN_POINT ( 'NONE',  ( 0.0000000000000000000, 0.0000000000000000000, 0.0000000000000000000 ) ) ;
#204 = CARTESIAN_POINT ( 'NONE',  ( 3.491481338843133355E-14, 1.649999999999998579, 10.00000000000000000 ) ) ;
#205 = PLANE ( 'NONE',  #177 ) ;
#206 = VERTEX_POINT ( 'NONE', #223 ) ;
#207 = FACE_OUTER_BOUND ( 'NONE', #95, .T. ) ;
#208 = CC_DESIGN_SECURITY_CLASSIFICATION ( #147, ( #297 ) ) ;
#209 = EDGE_LOOP ( 'NONE', ( #145 ) ) ;
#210 = CARTESIAN_POINT ( 'NONE',  ( 3.491481338843133355E-14, 1.237301820696030884E-32, 10.00000000000000000 ) ) ;
#211 = AXIS2_PLACEMENT_3D ( 'NONE', #101, #202, #81 ) ;
#212 = CALENDAR_DATE ( 2021, 2, 12 ) ;
#213 = ORIENTED_EDGE ( 'NONE', *, *, #100, .F. ) ;
#214 = ADVANCED_FACE ( 'NONE', ( #6, #60 ), #248, .T. ) ;
#215 = ORIENTED_EDGE ( 'NONE', *, *, #34, .T. ) ;
#216 = PERSON_AND_ORGANIZATION_ROLE ( 'design_supplier' ) ;
#217 = EDGE_LOOP ( 'NONE', ( #143 ) ) ;
#218 = DIRECTION ( 'NONE',  ( -3.491481338843133355E-15, 1.224646799147353207E-16, -1.000000000000000000 ) ) ;
#219 = CALENDAR_DATE ( 2021, 2, 12 ) ;
#220 = EDGE_LOOP ( 'NONE', ( #168 ) ) ;
#221 = CC_DESIGN_APPROVAL ( #67, ( #297 ) ) ;
#222 = CC_DESIGN_PERSON_AND_ORGANIZATION_ASSIGNMENT ( #187, #247, ( #126 ) ) ;
#223 = CARTESIAN_POINT ( 'NONE',  ( 0.0000000000000000000, 1.399999999999999023, 0.0000000000000000000 ) ) ;
#224 = FACE_BOUND ( 'NONE', #255, .T. ) ;
#225 = DIRECTION ( 'NONE',  ( 4.275831445896958607E-31, 1.000000000000000000, 1.224646799147353454E-16 ) ) ;
#226 = COORDINATED_UNIVERSAL_TIME_OFFSET ( 1, 0, .AHEAD. ) ;
#227 = DATE_AND_TIME ( #142, #197 ) ;
#228 = ADVANCED_FACE ( 'NONE', ( #157, #136 ), #76, .T. ) ;
#229 = CARTESIAN_POINT ( 'NONE',  ( 3.491481338843133355E-14, 1.649999999999998579, 10.00000000000000000 ) ) ;
#230 = ADVANCED_FACE ( 'NONE', ( #242 ), #262, .F. ) ;
#231 = PERSON_AND_ORGANIZATION ( #162, #105 ) ;
#232 = PERSON_AND_ORGANIZATION ( #162, #105 ) ;
#233 = EDGE_LOOP ( 'NONE', ( #278 ) ) ;
#234 = ORIENTED_EDGE ( 'NONE', *, *, #296, .T. ) ;
#235 = APPROVAL_ROLE ( '' ) ;
#236 = FACE_OUTER_BOUND ( 'NONE', #46, .T. ) ;
#237 = CARTESIAN_POINT ( 'NONE',  ( -5.986164024255738371E-31, 2.099663695726599556E-32, -1.714505518806293405E-16 ) ) ;
#238 = PRODUCT_RELATED_PRODUCT_CATEGORY ( 'detail', '', ( #117 ) ) ;
#239 = DIRECTION ( 'NONE',  ( 0.0000000000000000000, 1.000000000000000000, 0.0000000000000000000 ) ) ;
#240 = CIRCLE ( 'NONE', #293, 1.499999999999992895 ) ;
#241 = DIRECTION ( 'NONE',  ( 0.0000000000000000000, 1.000000000000000000, 0.0000000000000000000 ) ) ;
#242 = FACE_OUTER_BOUND ( 'NONE', #39, .T. ) ;
#243 = DIRECTION ( 'NONE',  ( -4.275831445896958607E-31, -1.000000000000000000, -1.224646799147353207E-16 ) ) ;
#244 = PERSON_AND_ORGANIZATION ( #162, #105 ) ;
#245 = CARTESIAN_POINT ( 'NONE',  ( 2.444036937190193601E-13, -8.572527594031472993E-15, 70.00000000000000000 ) ) ;
#246 = AXIS2_PLACEMENT_3D ( 'NONE', #301, #276, #72 ) ;
#247 = PERSON_AND_ORGANIZATION_ROLE ( 'creator' ) ;
#248 = CYLINDRICAL_SURFACE ( 'NONE', #167, 1.649999999999999911 ) ;
#249 = CALENDAR_DATE ( 2021, 2, 12 ) ;
#250 = APPLICATION_CONTEXT ( 'configuration controlled 3d designs of mechanical parts and assemblies' ) ;
#251 = DIRECTION ( 'NONE',  ( -3.491481338843133355E-15, 1.224646799147353207E-16, -1.000000000000000000 ) ) ;
#252 = AXIS2_PLACEMENT_3D ( 'NONE', #107, #150, #134 ) ;
#253 = EDGE_LOOP ( 'NONE', ( #89 ) ) ;
#254 = DIRECTION ( 'NONE',  ( 4.275831445896958607E-31, 1.000000000000000000, 1.224646799147353207E-16 ) ) ;
#255 = EDGE_LOOP ( 'NONE', ( #19 ) ) ;
#256 = MECHANICAL_CONTEXT ( 'NONE', #120, 'mechanical' ) ;
#257 = AXIS2_PLACEMENT_3D ( 'NONE', #124, #251, #93 ) ;
#258 = DIRECTION ( 'NONE',  ( -4.275831445896958607E-31, -1.000000000000000000, -1.224646799147353207E-16 ) ) ;
#259 = CC_DESIGN_PERSON_AND_ORGANIZATION_ASSIGNMENT ( #21, #216, ( #297 ) ) ;
#260 = VERTEX_POINT ( 'NONE', #50 ) ;
#261 = DIRECTION ( 'NONE',  ( -3.491481338843133355E-15, 1.224646799147353207E-16, -1.000000000000000000 ) ) ;
#262 = PLANE ( 'NONE',  #144 ) ;
#263 = DIRECTION ( 'NONE',  ( -3.491481338843133355E-15, 1.224646799147353207E-16, -1.000000000000000000 ) ) ;
#264 = CONICAL_SURFACE ( 'NONE', #257, 1.649999999999999911, 0.5235987755982993708 ) ;
#265 = CARTESIAN_POINT ( 'NONE',  ( -2.993082012127869185E-31, 1.049831847863299778E-32, -8.572527594031467027E-17 ) ) ;
#266 = CARTESIAN_POINT ( 'NONE',  ( 2.433562493173664138E-13, -8.535788190057053710E-15, 69.70000000000001705 ) ) ;
#267 = FACE_BOUND ( 'NONE', #3, .T. ) ;
#268 = CARTESIAN_POINT ( 'NONE',  ( 2.444036937190193601E-13, 1.199999999999992628, 70.00000000000000000 ) ) ;
#269 = AXIS2_PLACEMENT_3D ( 'NONE', #265, #55, #53 ) ;
#270 = APPROVAL ( #14, 'UNSPECIFIED' ) ;
#271 = APPROVAL_ROLE ( '' ) ;
#272 = SHAPE_DEFINITION_REPRESENTATION ( #194, #302 ) ;
#273 = CONICAL_SURFACE ( 'NONE', #146, 1.200000000000001510, 0.7853981633974566057 ) ;
#274 = APPROVAL_PERSON_ORGANIZATION ( #141, #67, #235 ) ;
#275 = EDGE_LOOP ( 'NONE', ( #234 ) ) ;
#276 = DIRECTION ( 'NONE',  ( 0.0000000000000000000, 0.0000000000000000000, 1.000000000000000000 ) ) ;
#277 = ORIENTED_EDGE ( 'NONE', *, *, #138, .F. ) ;
#278 = ORIENTED_EDGE ( 'NONE', *, *, #193, .F. ) ;
#279 = LOCAL_TIME ( 10, 35, 30.00000000000000000, #70 ) ;
#280 = FACE_OUTER_BOUND ( 'NONE', #112, .T. ) ;
#281 = EDGE_CURVE ( 'NONE', #83, #83, #128, .T. ) ;
#282 = DIRECTION ( 'NONE',  ( -3.491481338843133355E-15, 1.224646799147353207E-16, -1.000000000000000000 ) ) ;
#283 = DATE_AND_TIME ( #132, #24 ) ;
#284 = DIRECTION ( 'NONE',  ( -3.491481338843133355E-15, 1.224646799147353207E-16, -1.000000000000000000 ) ) ;
#285 = CARTESIAN_POINT ( 'NONE',  ( 0.0000000000000000000, 0.0000000000000000000, 0.0000000000000000000 ) ) ;
#286 = CIRCLE ( 'NONE', #23, 1.200000000000001510 ) ;
#287 = AXIS2_PLACEMENT_3D ( 'NONE', #184, #57, #241 ) ;
#288 = COORDINATED_UNIVERSAL_TIME_OFFSET ( 1, 0, .AHEAD. ) ;
#289 = CARTESIAN_POINT ( 'NONE',  ( 8.728703347107835360E-16, 1.649999999999999911, 0.2500000000000000555 ) ) ;
#290 = CARTESIAN_POINT ( 'NONE',  ( 2.444036937190193601E-13, -8.572527594031472993E-15, 70.00000000000000000 ) ) ;
#291 = COORDINATED_UNIVERSAL_TIME_OFFSET ( 1, 0, .AHEAD. ) ;
#292 = FACE_OUTER_BOUND ( 'NONE', #209, .T. ) ;
#293 = AXIS2_PLACEMENT_3D ( 'NONE', #25, #218, #196 ) ;
#294 = ADVANCED_FACE ( 'NONE', ( #292 ), #86, .T. ) ;
#295 = CC_DESIGN_APPROVAL ( #79, ( #147 ) ) ;
#296 = EDGE_CURVE ( 'NONE', #104, #104, #33, .T. ) ;
#297 = PRODUCT_DEFINITION_FORMATION_WITH_SPECIFIED_SOURCE ( 'ANY', '', #117, .NOT_KNOWN. ) ;
#298 = ORIENTED_EDGE ( 'NONE', *, *, #296, .F. ) ;
#299 = FACE_OUTER_BOUND ( 'NONE', #96, .T. ) ;
#300 = ORIENTED_EDGE ( 'NONE', *, *, #281, .T. ) ;
#301 = CARTESIAN_POINT ( 'NONE',  ( 0.0000000000000000000, 0.0000000000000000000, 0.0000000000000000000 ) ) ;
#302 = ADVANCED_BREP_SHAPE_REPRESENTATION ( '321556', ( #111, #113, #246 ), #190 ) ;
#303 = AXIS2_PLACEMENT_3D ( 'NONE', #11, #282, #225 ) ;
ENDSEC;
END-ISO-10303-21;
