ISO-10303-21;
HEADER;
FILE_DESCRIPTION (( 'STEP AP203' ),
    '1' );
FILE_NAME ('321555.step',
    '2021-12-02T09:35:29',
    ( '' ),
    ( '' ),
    'SwSTEP 2.0',
    'SolidWorks 2019',
    '' );
FILE_SCHEMA (( 'CONFIG_CONTROL_DESIGN' ));
ENDSEC;

DATA;
#1 = FACE_OUTER_BOUND ( 'NONE', #84, .T. ) ;
#2 = AXIS2_PLACEMENT_3D ( 'NONE', #21, #117, #301 ) ;
#3 = LOCAL_TIME ( 10, 35, 29.00000000000000000, #227 ) ;
#4 = DIRECTION ( 'NONE',  ( 0.0000000000000000000, 1.000000000000000000, 0.0000000000000000000 ) ) ;
#5 = PRODUCT_RELATED_PRODUCT_CATEGORY ( 'detail', '', ( #13 ) ) ;
#6 = DIRECTION ( 'NONE',  ( -3.491481338843133355E-15, 1.224646799147353207E-16, -1.000000000000000000 ) ) ;
#7 = ADVANCED_FACE ( 'NONE', ( #226 ), #112, .F. ) ;
#8 = VERTEX_POINT ( 'NONE', #289 ) ;
#9 = CARTESIAN_POINT ( 'NONE',  ( 3.579168973395183505E-14, -1.255403481070376975E-15, 10.25114736709749863 ) ) ;
#10 = CARTESIAN_POINT ( 'NONE',  ( 2.433562493173664138E-13, -8.535788190057053710E-15, 69.70000000000001705 ) ) ;
#11 = EDGE_CURVE ( 'NONE', #218, #218, #297, .T. ) ;
#12 = CIRCLE ( 'NONE', #168, 1.499999999999992895 ) ;
#13 = PRODUCT ( '321555', '321555', '', ( #229 ) ) ;
#14 = EDGE_CURVE ( 'NONE', #299, #299, #31, .T. ) ;
#15 = CARTESIAN_POINT ( 'NONE',  ( 8.728703347107827472E-16, -3.061616997868381169E-17, 0.2499999999999998335 ) ) ;
#16 = DATE_AND_TIME ( #135, #252 ) ;
#17 = AXIS2_PLACEMENT_3D ( 'NONE', #193, #74, #200 ) ;
#18 = DIRECTION ( 'NONE',  ( -3.491481338843133355E-15, 1.224646799147353207E-16, -1.000000000000000000 ) ) ;
#19 = ADVANCED_FACE ( 'NONE', ( #285 ), #234, .F. ) ;
#20 = APPROVAL_STATUS ( 'not_yet_approved' ) ;
#21 = CARTESIAN_POINT ( 'NONE',  ( 0.0000000000000000000, 0.0000000000000000000, 0.0000000000000000000 ) ) ;
#22 = DIRECTION ( 'NONE',  ( 4.275831445896958607E-31, 1.000000000000000000, 1.224646799147353207E-16 ) ) ;
#23 = CIRCLE ( 'NONE', #161, 1.499999999999992895 ) ;
#24 = SECURITY_CLASSIFICATION ( '', '', #32 ) ;
#25 = CARTESIAN_POINT ( 'NONE',  ( 2.444036937190193601E-13, 8.998558695971026591E-33, 70.00000000000000000 ) ) ;
#26 = PERSON_AND_ORGANIZATION ( #85, #59 ) ;
#27 = APPROVAL_DATE_TIME ( #16, #206 ) ;
#28 = CLOSED_SHELL ( 'NONE', ( #37, #154, #217, #232, #130, #271, #210 ) ) ;
#29 = COORDINATED_UNIVERSAL_TIME_OFFSET ( 1, 0, .AHEAD. ) ;
#30 = FACE_OUTER_BOUND ( 'NONE', #60, .T. ) ;
#31 = CIRCLE ( 'NONE', #82, 1.645000000000000018 ) ;
#32 = SECURITY_CLASSIFICATION_LEVEL ( 'unclassified' ) ;
#33 = EDGE_LOOP ( 'NONE', ( #176 ) ) ;
#34 = CARTESIAN_POINT ( 'NONE',  ( 2.444036937190193601E-13, 1.199999999999992628, 70.00000000000000000 ) ) ;
#35 = EDGE_LOOP ( 'NONE', ( #159 ) ) ;
#36 = LOCAL_TIME ( 10, 35, 29.00000000000000000, #242 ) ;
#37 = ADVANCED_FACE ( 'NONE', ( #120, #216 ), #245, .T. ) ;
#38 = EDGE_LOOP ( 'NONE', ( #113 ) ) ;
#39 =( NAMED_UNIT ( * ) SI_UNIT ( $, .STERADIAN. ) SOLID_ANGLE_UNIT ( ) );
#40 = DIRECTION ( 'NONE',  ( 0.0000000000000000000, 0.0000000000000000000, 1.000000000000000000 ) ) ;
#41 = DIRECTION ( 'NONE',  ( -3.491481338843133355E-15, 1.224646799147353207E-16, -1.000000000000000000 ) ) ;
#42 = DIRECTION ( 'NONE',  ( 0.0000000000000000000, 1.000000000000000000, 0.0000000000000000000 ) ) ;
#43 = PRODUCT_DEFINITION_FORMATION_WITH_SPECIFIED_SOURCE ( 'ANY', '', #13, .NOT_KNOWN. ) ;
#44 = DIRECTION ( 'NONE',  ( 0.0000000000000000000, 1.000000000000000000, 0.0000000000000000000 ) ) ;
#45 = DIRECTION ( 'NONE',  ( 3.491481338843133355E-15, -1.224646799147353207E-16, 1.000000000000000000 ) ) ;
#46 = FACE_BOUND ( 'NONE', #136, .T. ) ;
#47 = PERSON_AND_ORGANIZATION_ROLE ( 'classification_officer' ) ;
#48 = DIRECTION ( 'NONE',  ( 0.0000000000000000000, 1.000000000000000000, 0.0000000000000000000 ) ) ;
#49 = PERSON_AND_ORGANIZATION ( #85, #59 ) ;
#50 = DIRECTION ( 'NONE',  ( 0.0000000000000000000, 1.000000000000000000, 0.0000000000000000000 ) ) ;
#51 = APPROVAL_ROLE ( '' ) ;
#52 = CARTESIAN_POINT ( 'NONE',  ( 3.491481338843133355E-14, 1.644999999999998685, 10.00000000000000000 ) ) ;
#53 = APPROVAL_DATE_TIME ( #219, #259 ) ;
#54 = ORIENTED_EDGE ( 'NONE', *, *, #275, .T. ) ;
#55 = VERTEX_POINT ( 'NONE', #152 ) ;
#56 = AXIS2_PLACEMENT_3D ( 'NONE', #149, #104, #48 ) ;
#57 = ORIENTED_EDGE ( 'NONE', *, *, #201, .F. ) ;
#58 = ORIENTED_EDGE ( 'NONE', *, *, #164, .T. ) ;
#59 = ORGANIZATION ( 'UNSPECIFIED', 'UNSPECIFIED', '' ) ;
#60 = EDGE_LOOP ( 'NONE', ( #115 ) ) ;
#61 = PERSON_AND_ORGANIZATION ( #85, #59 ) ;
#62 = FACE_OUTER_BOUND ( 'NONE', #180, .T. ) ;
#63 = CARTESIAN_POINT ( 'NONE',  ( 3.491481338843133355E-14, -1.224646799147353256E-15, 10.00000000000000000 ) ) ;
#64 = CIRCLE ( 'NONE', #110, 1.200000000000001510 ) ;
#65 = CIRCLE ( 'NONE', #257, 1.645000000000000018 ) ;
#66 = CARTESIAN_POINT ( 'NONE',  ( 2.444036937190193601E-13, -8.572527594031472993E-15, 70.00000000000000000 ) ) ;
#67 = DIRECTION ( 'NONE',  ( -3.491481338843133355E-15, 1.224646799147353207E-16, -1.000000000000000000 ) ) ;
#68 = PERSON_AND_ORGANIZATION ( #85, #59 ) ;
#69 = AXIS2_PLACEMENT_3D ( 'NONE', #214, #18, #215 ) ;
#70 = FACE_OUTER_BOUND ( 'NONE', #293, .T. ) ;
#71 = ADVANCED_FACE ( 'NONE', ( #233, #62 ), #230, .T. ) ;
#72 = DIRECTION ( 'NONE',  ( -3.491481338843133355E-15, 1.224646799147353207E-16, -1.000000000000000000 ) ) ;
#73 = PERSON_AND_ORGANIZATION ( #85, #59 ) ;
#74 = DIRECTION ( 'NONE',  ( -3.491481338843133355E-15, 1.224646799147353207E-16, -1.000000000000000000 ) ) ;
#75 = VERTEX_POINT ( 'NONE', #175 ) ;
#76 = CIRCLE ( 'NONE', #277, 1.394999999999999130 ) ;
#77 = DIRECTION ( 'NONE',  ( 0.0000000000000000000, 1.000000000000000000, 0.0000000000000000000 ) ) ;
#78 = DATE_TIME_ROLE ( 'classification_date' ) ;
#79 = CALENDAR_DATE ( 2021, 2, 12 ) ;
#80 = FACE_BOUND ( 'NONE', #131, .T. ) ;
#81 = ORIENTED_EDGE ( 'NONE', *, *, #254, .F. ) ;
#82 = AXIS2_PLACEMENT_3D ( 'NONE', #63, #101, #231 ) ;
#83 = DATE_AND_TIME ( #79, #286 ) ;
#84 = EDGE_LOOP ( 'NONE', ( #87 ) ) ;
#85 = PERSON ( 'UNSPECIFIED', 'UNSPECIFIED', 'UNSPECIFIED', ('UNSPECIFIED'), ('UNSPECIFIED'), ('UNSPECIFIED') ) ;
#86 = PRODUCT_DEFINITION ( 'UNKNOWN', '', #43, #156 ) ;
#87 = ORIENTED_EDGE ( 'NONE', *, *, #11, .F. ) ;
#88 = CARTESIAN_POINT ( 'NONE',  ( 3.491481338843133355E-14, 1.644999999999998685, 10.00000000000000000 ) ) ;
#89 = DIRECTION ( 'NONE',  ( 3.491481338843133355E-15, -1.224646799147353207E-16, 1.000000000000000000 ) ) ;
#90 = CALENDAR_DATE ( 2021, 2, 12 ) ;
#91 = ORIENTED_EDGE ( 'NONE', *, *, #263, .F. ) ;
#92 = ORIENTED_EDGE ( 'NONE', *, *, #14, .T. ) ;
#93 = CARTESIAN_POINT ( 'NONE',  ( 2.444036937190193601E-13, -8.572527594031472993E-15, 70.00000000000000000 ) ) ;
#94 = CARTESIAN_POINT ( 'NONE',  ( 0.0000000000000000000, 0.0000000000000000000, 0.0000000000000000000 ) ) ;
#95 = DIRECTION ( 'NONE',  ( 4.275831445896958607E-31, 1.000000000000000000, 1.224646799147353207E-16 ) ) ;
#96 = AXIS2_PLACEMENT_3D ( 'NONE', #25, #67, #95 ) ;
#97 = APPROVAL_PERSON_ORGANIZATION ( #61, #206, #276 ) ;
#98 = CC_DESIGN_PERSON_AND_ORGANIZATION_ASSIGNMENT ( #173, #103, ( #43 ) ) ;
#99 = DIRECTION ( 'NONE',  ( -3.491481338843133355E-15, 1.224646799147353207E-16, -1.000000000000000000 ) ) ;
#100 = APPLICATION_PROTOCOL_DEFINITION ( 'international standard', 'config_control_design', 1994, #221 ) ;
#101 = DIRECTION ( 'NONE',  ( -3.491481338843133355E-15, 1.224646799147353207E-16, -1.000000000000000000 ) ) ;
#102 = DIRECTION ( 'NONE',  ( 0.0000000000000000000, 1.000000000000000000, 0.0000000000000000000 ) ) ;
#103 = PERSON_AND_ORGANIZATION_ROLE ( 'creator' ) ;
#104 = DIRECTION ( 'NONE',  ( -3.491481338843133355E-15, 1.224646799147353207E-16, -1.000000000000000000 ) ) ;
#105 = CYLINDRICAL_SURFACE ( 'NONE', #17, 1.499999999999996891 ) ;
#106 = CALENDAR_DATE ( 2021, 2, 12 ) ;
#107 = CLOSED_SHELL ( 'NONE', ( #7, #236, #71, #196, #19 ) ) ;
#108 = AXIS2_PLACEMENT_3D ( 'NONE', #94, #40, #282 ) ;
#109 = COORDINATED_UNIVERSAL_TIME_OFFSET ( 1, 0, .AHEAD. ) ;
#110 = AXIS2_PLACEMENT_3D ( 'NONE', #93, #99, #191 ) ;
#111 = ORIENTED_EDGE ( 'NONE', *, *, #254, .T. ) ;
#112 = PLANE ( 'NONE',  #143 ) ;
#113 = ORIENTED_EDGE ( 'NONE', *, *, #201, .T. ) ;
#114 = CC_DESIGN_APPROVAL ( #206, ( #43 ) ) ;
#115 = ORIENTED_EDGE ( 'NONE', *, *, #275, .F. ) ;
#116 = FACE_OUTER_BOUND ( 'NONE', #248, .T. ) ;
#117 = DIRECTION ( 'NONE',  ( -3.491481338843133355E-15, 1.224646799147353207E-16, -1.000000000000000000 ) ) ;
#118 = EDGE_CURVE ( 'NONE', #208, #208, #172, .T. ) ;
#119 = CIRCLE ( 'NONE', #294, 1.500000000000001110 ) ;
#120 = FACE_BOUND ( 'NONE', #38, .T. ) ;
#121 = CARTESIAN_POINT ( 'NONE',  ( 2.433562493173664138E-13, 1.499999999999992673, 69.70000000000001705 ) ) ;
#122 = CARTESIAN_POINT ( 'NONE',  ( -2.982392433513126828E-31, 1.046082448406644970E-32, -8.541911424052782648E-17 ) ) ;
#123 = FACE_BOUND ( 'NONE', #165, .T. ) ;
#124 = CARTESIAN_POINT ( 'NONE',  ( 3.491481338843133355E-14, -1.224646799147353256E-15, 10.00000000000000000 ) ) ;
#125 = DATE_AND_TIME ( #106, #36 ) ;
#126 = CALENDAR_DATE ( 2021, 2, 12 ) ;
#127 = FACE_OUTER_BOUND ( 'NONE', #133, .T. ) ;
#128 = VERTEX_POINT ( 'NONE', #249 ) ;
#129 = ORIENTED_EDGE ( 'NONE', *, *, #251, .T. ) ;
#130 = ADVANCED_FACE ( 'NONE', ( #145 ), #255, .F. ) ;
#131 = EDGE_LOOP ( 'NONE', ( #91 ) ) ;
#132 = CONICAL_SURFACE ( 'NONE', #153, 1.200000000000001510, 0.7853981633974566057 ) ;
#133 = EDGE_LOOP ( 'NONE', ( #57 ) ) ;
#134 = EDGE_LOOP ( 'NONE', ( #54 ) ) ;
#135 = CALENDAR_DATE ( 2021, 2, 12 ) ;
#136 = EDGE_LOOP ( 'NONE', ( #58 ) ) ;
#137 = PRODUCT_DEFINITION_SHAPE ( 'NONE', 'NONE',  #86 ) ;
#138 = AXIS2_PLACEMENT_3D ( 'NONE', #258, #212, #280 ) ;
#139 = APPROVAL ( #269, 'UNSPECIFIED' ) ;
#140 =( GEOMETRIC_REPRESENTATION_CONTEXT ( 3 ) GLOBAL_UNCERTAINTY_ASSIGNED_CONTEXT ( ( #270 ) ) GLOBAL_UNIT_ASSIGNED_CONTEXT ( ( #188, #256, #39 ) ) REPRESENTATION_CONTEXT ( 'NONE', 'WORKASPACE' ) );
#141 = DIRECTION ( 'NONE',  ( -3.491481338843133355E-15, 1.224646799147353207E-16, -1.000000000000000000 ) ) ;
#142 = CC_DESIGN_PERSON_AND_ORGANIZATION_ASSIGNMENT ( #26, #192, ( #13 ) ) ;
#143 = AXIS2_PLACEMENT_3D ( 'NONE', #207, #89, #184 ) ;
#144 = ADVANCED_BREP_SHAPE_REPRESENTATION ( '321555', ( #199, #213, #108 ), #140 ) ;
#145 = FACE_OUTER_BOUND ( 'NONE', #33, .T. ) ;
#146 = DIRECTION ( 'NONE',  ( -3.491481338843133355E-15, 1.224646799147353207E-16, -1.000000000000000000 ) ) ;
#147 = CARTESIAN_POINT ( 'NONE',  ( 2.444036937190193601E-13, -8.572527594031472993E-15, 70.00000000000000000 ) ) ;
#148 = DIRECTION ( 'NONE',  ( -4.275831445896958607E-31, -1.000000000000000000, -1.224646799147353207E-16 ) ) ;
#149 = CARTESIAN_POINT ( 'NONE',  ( 2.444036937190193601E-13, -8.572527594031472993E-15, 70.00000000000000000 ) ) ;
#150 = PERSON_AND_ORGANIZATION_ROLE ( 'creator' ) ;
#151 = DIRECTION ( 'NONE',  ( 0.0000000000000000000, 1.000000000000000000, 0.0000000000000000000 ) ) ;
#152 = CARTESIAN_POINT ( 'NONE',  ( 2.444036937190193601E-13, 1.199999999999992628, 70.00000000000000000 ) ) ;
#153 = AXIS2_PLACEMENT_3D ( 'NONE', #66, #261, #42 ) ;
#154 = ADVANCED_FACE ( 'NONE', ( #116, #1 ), #190, .T. ) ;
#155 = ORIENTED_EDGE ( 'NONE', *, *, #251, .F. ) ;
#156 = DESIGN_CONTEXT ( 'detailed design', #292, 'design' ) ;
#157 = CC_DESIGN_PERSON_AND_ORGANIZATION_ASSIGNMENT ( #49, #195, ( #43 ) ) ;
#158 = VERTEX_POINT ( 'NONE', #34 ) ;
#159 = ORIENTED_EDGE ( 'NONE', *, *, #118, .F. ) ;
#160 = CC_DESIGN_APPROVAL ( #259, ( #86 ) ) ;
#161 = AXIS2_PLACEMENT_3D ( 'NONE', #9, #222, #151 ) ;
#162 = EDGE_LOOP ( 'NONE', ( #155 ) ) ;
#163 = COORDINATED_UNIVERSAL_TIME_OFFSET ( 1, 0, .AHEAD. ) ;
#164 = EDGE_CURVE ( 'NONE', #55, #55, #64, .T. ) ;
#165 = EDGE_LOOP ( 'NONE', ( #111 ) ) ;
#166 = CARTESIAN_POINT ( 'NONE',  ( 2.433562493173664138E-13, -8.535788190057053710E-15, 69.70000000000001705 ) ) ;
#167 = DATE_AND_TIME ( #90, #3 ) ;
#168 = AXIS2_PLACEMENT_3D ( 'NONE', #266, #72, #102 ) ;
#169 = FACE_BOUND ( 'NONE', #291, .T. ) ;
#170 = FACE_OUTER_BOUND ( 'NONE', #223, .T. ) ;
#171 = DIRECTION ( 'NONE',  ( 0.0000000000000000000, 1.000000000000000000, 0.0000000000000000000 ) ) ;
#172 = CIRCLE ( 'NONE', #302, 1.500000000000001110 ) ;
#173 = PERSON_AND_ORGANIZATION ( #85, #59 ) ;
#174 = AXIS2_PLACEMENT_3D ( 'NONE', #122, #238, #272 ) ;
#175 = CARTESIAN_POINT ( 'NONE',  ( 0.0000000000000000000, 1.394999999999999130, 0.0000000000000000000 ) ) ;
#176 = ORIENTED_EDGE ( 'NONE', *, *, #164, .F. ) ;
#177 = PERSON_AND_ORGANIZATION ( #85, #59 ) ;
#178 = VERTEX_POINT ( 'NONE', #52 ) ;
#179 = PLANE ( 'NONE',  #174 ) ;
#180 = EDGE_LOOP ( 'NONE', ( #129 ) ) ;
#181 = EDGE_LOOP ( 'NONE', ( #81 ) ) ;
#182 = CC_DESIGN_SECURITY_CLASSIFICATION ( #24, ( #43 ) ) ;
#183 = ORIENTED_EDGE ( 'NONE', *, *, #11, .T. ) ;
#184 = DIRECTION ( 'NONE',  ( -4.275831445896958607E-31, -1.000000000000000000, -1.224646799147353207E-16 ) ) ;
#185 = AXIS2_PLACEMENT_3D ( 'NONE', #244, #146, #171 ) ;
#186 = CC_DESIGN_PERSON_AND_ORGANIZATION_ASSIGNMENT ( #73, #47, ( #24 ) ) ;
#187 = DIRECTION ( 'NONE',  ( 4.683112326777472959E-31, 1.000000000000000000, 1.318178933113075232E-16 ) ) ;
#188 =( LENGTH_UNIT ( ) NAMED_UNIT ( * ) SI_UNIT ( .MILLI., .METRE. ) );
#189 = APPROVAL_PERSON_ORGANIZATION ( #177, #139, #51 ) ;
#190 = CYLINDRICAL_SURFACE ( 'NONE', #237, 1.645000000000000018 ) ;
#191 = DIRECTION ( 'NONE',  ( 0.0000000000000000000, 1.000000000000000000, 0.0000000000000000000 ) ) ;
#192 = PERSON_AND_ORGANIZATION_ROLE ( 'design_owner' ) ;
#193 = CARTESIAN_POINT ( 'NONE',  ( 0.0000000000000000000, 0.0000000000000000000, 0.0000000000000000000 ) ) ;
#194 = DIRECTION ( 'NONE',  ( 4.275831445896958607E-31, 1.000000000000000000, 1.224646799147353207E-16 ) ) ;
#195 = PERSON_AND_ORGANIZATION_ROLE ( 'design_supplier' ) ;
#196 = ADVANCED_FACE ( 'NONE', ( #284, #169 ), #132, .T. ) ;
#197 = CARTESIAN_POINT ( 'NONE',  ( -5.964784867026253657E-31, 2.092164896813289940E-32, -1.708382284810556530E-16 ) ) ;
#198 = CONICAL_SURFACE ( 'NONE', #185, 1.645000000000000018, 0.5235987755983008141 ) ;
#199 = MANIFOLD_SOLID_BREP ( 'Corps-Déplacer/Copier1[1]', #107 ) ;
#200 = DIRECTION ( 'NONE',  ( 4.275831445896958607E-31, 1.000000000000000000, 1.224646799147353454E-16 ) ) ;
#201 = EDGE_CURVE ( 'NONE', #243, #243, #23, .T. ) ;
#202 = EDGE_LOOP ( 'NONE', ( #253 ) ) ;
#203 = AXIS2_PLACEMENT_3D ( 'NONE', #15, #141, #187 ) ;
#204 = AXIS2_PLACEMENT_3D ( 'NONE', #147, #268, #77 ) ;
#205 = ORIENTED_EDGE ( 'NONE', *, *, #263, .T. ) ;
#206 = APPROVAL ( #20, 'UNSPECIFIED' ) ;
#207 = CARTESIAN_POINT ( 'NONE',  ( 3.491481338843133355E-14, 1.233552421239375939E-32, 10.00000000000000000 ) ) ;
#208 = VERTEX_POINT ( 'NONE', #121 ) ;
#209 = CONICAL_SURFACE ( 'NONE', #246, 1.394999999999999130, 0.7853981633974500554 ) ;
#210 = ADVANCED_FACE ( 'NONE', ( #127, #287 ), #105, .T. ) ;
#211 = CARTESIAN_POINT ( 'NONE',  ( 0.0000000000000000000, 0.0000000000000000000, 0.0000000000000000000 ) ) ;
#212 = DIRECTION ( 'NONE',  ( -3.491481338843133355E-15, 1.224646799147353207E-16, -1.000000000000000000 ) ) ;
#213 = MANIFOLD_SOLID_BREP ( 'Corps-Déplacer/Copier1[2]', #28 ) ;
#214 = CARTESIAN_POINT ( 'NONE',  ( 2.444036937190193601E-13, -8.572527594031472993E-15, 70.00000000000000000 ) ) ;
#215 = DIRECTION ( 'NONE',  ( 4.275831445896958607E-31, 1.000000000000000000, 1.224646799147353207E-16 ) ) ;
#216 = FACE_OUTER_BOUND ( 'NONE', #202, .T. ) ;
#217 = ADVANCED_FACE ( 'NONE', ( #70, #80 ), #209, .T. ) ;
#218 = VERTEX_POINT ( 'NONE', #260 ) ;
#219 = DATE_AND_TIME ( #126, #303 ) ;
#220 = APPROVAL_PERSON_ORGANIZATION ( #68, #259, #240 ) ;
#221 = APPLICATION_CONTEXT ( 'configuration controlled 3d designs of mechanical parts and assemblies' ) ;
#222 = DIRECTION ( 'NONE',  ( -3.491481338843133355E-15, 1.224646799147353207E-16, -1.000000000000000000 ) ) ;
#223 = EDGE_LOOP ( 'NONE', ( #205 ) ) ;
#224 = PERSON_AND_ORGANIZATION ( #85, #59 ) ;
#225 = CC_DESIGN_DATE_AND_TIME_ASSIGNMENT ( #167, #278, ( #86 ) ) ;
#226 = FACE_OUTER_BOUND ( 'NONE', #134, .T. ) ;
#227 = COORDINATED_UNIVERSAL_TIME_OFFSET ( 1, 0, .AHEAD. ) ;
#228 = CIRCLE ( 'NONE', #56, 1.200000000000001510 ) ;
#229 = MECHANICAL_CONTEXT ( 'NONE', #221, 'mechanical' ) ;
#230 = CYLINDRICAL_SURFACE ( 'NONE', #2, 1.499999999999996891 ) ;
#231 = DIRECTION ( 'NONE',  ( 0.0000000000000000000, 1.000000000000000000, 0.0000000000000000000 ) ) ;
#232 = ADVANCED_FACE ( 'NONE', ( #170 ), #179, .T. ) ;
#233 = FACE_OUTER_BOUND ( 'NONE', #181, .T. ) ;
#234 = PLANE ( 'NONE',  #96 ) ;
#235 = DIRECTION ( 'NONE',  ( -3.491481338843133355E-15, 1.224646799147353207E-16, -1.000000000000000000 ) ) ;
#236 = ADVANCED_FACE ( 'NONE', ( #123, #30 ), #198, .T. ) ;
#237 = AXIS2_PLACEMENT_3D ( 'NONE', #211, #298, #22 ) ;
#238 = DIRECTION ( 'NONE',  ( -3.491481338843133355E-15, 1.224646799147353207E-16, -1.000000000000000000 ) ) ;
#239 = CC_DESIGN_APPROVAL ( #139, ( #24 ) ) ;
#240 = APPROVAL_ROLE ( '' ) ;
#241 = CARTESIAN_POINT ( 'NONE',  ( 3.579168973395183505E-14, 1.499999999999991562, 10.25114736709749863 ) ) ;
#242 = COORDINATED_UNIVERSAL_TIME_OFFSET ( 1, 0, .AHEAD. ) ;
#243 = VERTEX_POINT ( 'NONE', #241 ) ;
#244 = CARTESIAN_POINT ( 'NONE',  ( 3.491481338843133355E-14, -1.224646799147353256E-15, 10.00000000000000000 ) ) ;
#245 = CONICAL_SURFACE ( 'NONE', #138, 1.645000000000000018, 0.5235987755983008141 ) ;
#246 = AXIS2_PLACEMENT_3D ( 'NONE', #264, #45, #148 ) ;
#247 = CC_DESIGN_DATE_AND_TIME_ASSIGNMENT ( #125, #78, ( #24 ) ) ;
#248 = EDGE_LOOP ( 'NONE', ( #92 ) ) ;
#249 = CARTESIAN_POINT ( 'NONE',  ( 2.433562493173664138E-13, 1.499999999999992673, 69.70000000000001705 ) ) ;
#250 = APPROVAL_DATE_TIME ( #83, #139 ) ;
#251 = EDGE_CURVE ( 'NONE', #128, #128, #119, .T. ) ;
#252 = LOCAL_TIME ( 10, 35, 29.00000000000000000, #163 ) ;
#253 = ORIENTED_EDGE ( 'NONE', *, *, #14, .F. ) ;
#254 = EDGE_CURVE ( 'NONE', #8, #8, #12, .T. ) ;
#255 = PLANE ( 'NONE',  #69 ) ;
#256 =( NAMED_UNIT ( * ) PLANE_ANGLE_UNIT ( ) SI_UNIT ( $, .RADIAN. ) );
#257 = AXIS2_PLACEMENT_3D ( 'NONE', #124, #6, #50 ) ;
#258 = CARTESIAN_POINT ( 'NONE',  ( 3.491481338843133355E-14, -1.224646799147353256E-15, 10.00000000000000000 ) ) ;
#259 = APPROVAL ( #262, 'UNSPECIFIED' ) ;
#260 = CARTESIAN_POINT ( 'NONE',  ( 8.728703347107835360E-16, 1.645000000000000018, 0.2500000000000000555 ) ) ;
#261 = DIRECTION ( 'NONE',  ( -3.491481338843133355E-15, 1.224646799147353207E-16, -1.000000000000000000 ) ) ;
#262 = APPROVAL_STATUS ( 'not_yet_approved' ) ;
#263 = EDGE_CURVE ( 'NONE', #75, #75, #76, .T. ) ;
#264 = CARTESIAN_POINT ( 'NONE',  ( -5.964784867026253657E-31, 2.092164896813289940E-32, -1.708382284810556530E-16 ) ) ;
#265 = DIRECTION ( 'NONE',  ( -3.491481338843133355E-15, 1.224646799147353207E-16, -1.000000000000000000 ) ) ;
#266 = CARTESIAN_POINT ( 'NONE',  ( 3.579168973395183505E-14, -1.255403481070376975E-15, 10.25114736709749863 ) ) ;
#267 = SHAPE_DEFINITION_REPRESENTATION ( #137, #144 ) ;
#268 = DIRECTION ( 'NONE',  ( -3.491481338843133355E-15, 1.224646799147353207E-16, -1.000000000000000000 ) ) ;
#269 = APPROVAL_STATUS ( 'not_yet_approved' ) ;
#270 = UNCERTAINTY_MEASURE_WITH_UNIT (LENGTH_MEASURE( 1.000000000000000082E-05 ), #188, 'distance_accuracy_value', 'NONE');
#271 = ADVANCED_FACE ( 'NONE', ( #288, #46 ), #274, .T. ) ;
#272 = DIRECTION ( 'NONE',  ( 4.275831445896958607E-31, 1.000000000000000000, 1.224646799147353207E-16 ) ) ;
#273 = ORIENTED_EDGE ( 'NONE', *, *, #118, .T. ) ;
#274 = CONICAL_SURFACE ( 'NONE', #204, 1.200000000000001510, 0.7853981633974566057 ) ;
#275 = EDGE_CURVE ( 'NONE', #178, #178, #65, .T. ) ;
#276 = APPROVAL_ROLE ( '' ) ;
#277 = AXIS2_PLACEMENT_3D ( 'NONE', #197, #265, #194 ) ;
#278 = DATE_TIME_ROLE ( 'creation_date' ) ;
#279 = EDGE_LOOP ( 'NONE', ( #273 ) ) ;
#280 = DIRECTION ( 'NONE',  ( 0.0000000000000000000, 1.000000000000000000, 0.0000000000000000000 ) ) ;
#281 = APPLICATION_PROTOCOL_DEFINITION ( 'international standard', 'config_control_design', 1994, #292 ) ;
#282 = DIRECTION ( 'NONE',  ( 1.000000000000000000, 0.0000000000000000000, 0.0000000000000000000 ) ) ;
#283 = CC_DESIGN_PERSON_AND_ORGANIZATION_ASSIGNMENT ( #224, #150, ( #86 ) ) ;
#284 = FACE_OUTER_BOUND ( 'NONE', #162, .T. ) ;
#285 = FACE_OUTER_BOUND ( 'NONE', #290, .T. ) ;
#286 = LOCAL_TIME ( 10, 35, 29.00000000000000000, #109 ) ;
#287 = FACE_OUTER_BOUND ( 'NONE', #279, .T. ) ;
#288 = FACE_OUTER_BOUND ( 'NONE', #35, .T. ) ;
#289 = CARTESIAN_POINT ( 'NONE',  ( 3.579168973395183505E-14, 1.499999999999991562, 10.25114736709749863 ) ) ;
#290 = EDGE_LOOP ( 'NONE', ( #295 ) ) ;
#291 = EDGE_LOOP ( 'NONE', ( #296 ) ) ;
#292 = APPLICATION_CONTEXT ( 'configuration controlled 3d designs of mechanical parts and assemblies' ) ;
#293 = EDGE_LOOP ( 'NONE', ( #183 ) ) ;
#294 = AXIS2_PLACEMENT_3D ( 'NONE', #10, #235, #4 ) ;
#295 = ORIENTED_EDGE ( 'NONE', *, *, #300, .F. ) ;
#296 = ORIENTED_EDGE ( 'NONE', *, *, #300, .T. ) ;
#297 = CIRCLE ( 'NONE', #203, 1.645000000000000018 ) ;
#298 = DIRECTION ( 'NONE',  ( -3.491481338843133355E-15, 1.224646799147353207E-16, -1.000000000000000000 ) ) ;
#299 = VERTEX_POINT ( 'NONE', #88 ) ;
#300 = EDGE_CURVE ( 'NONE', #158, #158, #228, .T. ) ;
#301 = DIRECTION ( 'NONE',  ( 4.275831445896958607E-31, 1.000000000000000000, 1.224646799147353454E-16 ) ) ;
#302 = AXIS2_PLACEMENT_3D ( 'NONE', #166, #41, #44 ) ;
#303 = LOCAL_TIME ( 10, 35, 29.00000000000000000, #29 ) ;
ENDSEC;
END-ISO-10303-21;
