ISO-10303-21;
HEADER;
FILE_DESCRIPTION (( 'STEP AP203' ),
    '1' );
FILE_NAME ('321554.step',
    '2021-12-02T09:35:28',
    ( '' ),
    ( '' ),
    'SwSTEP 2.0',
    'SolidWorks 2019',
    '' );
FILE_SCHEMA (( 'CONFIG_CONTROL_DESIGN' ));
ENDSEC;

DATA;
#1 = CARTESIAN_POINT ( 'NONE',  ( 3.491481338843133355E-14, 1.229803021782721131E-32, 10.00000000000000000 ) ) ;
#2 = LOCAL_TIME ( 10, 35, 28.00000000000000000, #254 ) ;
#3 = VERTEX_POINT ( 'NONE', #269 ) ;
#4 = ORIENTED_EDGE ( 'NONE', *, *, #77, .F. ) ;
#5 = CALENDAR_DATE ( 2021, 2, 12 ) ;
#6 =( GEOMETRIC_REPRESENTATION_CONTEXT ( 3 ) GLOBAL_UNCERTAINTY_ASSIGNED_CONTEXT ( ( #134 ) ) GLOBAL_UNIT_ASSIGNED_CONTEXT ( ( #107, #150, #46 ) ) REPRESENTATION_CONTEXT ( 'NONE', 'WORKASPACE' ) );
#7 = CARTESIAN_POINT ( 'NONE',  ( 3.576145261858906632E-14, 1.499999999999991562, 10.24248711305965465 ) ) ;
#8 = DIRECTION ( 'NONE',  ( -3.491481338843133355E-15, 1.224646799147353207E-16, -1.000000000000000000 ) ) ;
#9 = DESIGN_CONTEXT ( 'detailed design', #289, 'design' ) ;
#10 = APPROVAL_ROLE ( '' ) ;
#11 = ADVANCED_FACE ( 'NONE', ( #83 ), #49, .F. ) ;
#12 = APPROVAL_DATE_TIME ( #204, #274 ) ;
#13 = AXIS2_PLACEMENT_3D ( 'NONE', #183, #116, #155 ) ;
#14 = DIRECTION ( 'NONE',  ( 0.0000000000000000000, 1.000000000000000000, 0.0000000000000000000 ) ) ;
#15 = APPLICATION_CONTEXT ( 'configuration controlled 3d designs of mechanical parts and assemblies' ) ;
#16 = LOCAL_TIME ( 10, 35, 28.00000000000000000, #140 ) ;
#17 = FACE_OUTER_BOUND ( 'NONE', #245, .T. ) ;
#18 = ADVANCED_FACE ( 'NONE', ( #174 ), #85, .T. ) ;
#19 = CYLINDRICAL_SURFACE ( 'NONE', #279, 1.639999999999999902 ) ;
#20 = CC_DESIGN_DATE_AND_TIME_ASSIGNMENT ( #33, #299, ( #71 ) ) ;
#21 = CARTESIAN_POINT ( 'NONE',  ( 3.491481338843133355E-14, -1.224646799147353256E-15, 10.00000000000000000 ) ) ;
#22 = CIRCLE ( 'NONE', #165, 1.500000000000001110 ) ;
#23 = DIRECTION ( 'NONE',  ( 4.275831445896958607E-31, 1.000000000000000000, 1.224646799147353454E-16 ) ) ;
#24 = EDGE_LOOP ( 'NONE', ( #246 ) ) ;
#25 = ADVANCED_FACE ( 'NONE', ( #86, #178 ), #92, .T. ) ;
#26 = EDGE_LOOP ( 'NONE', ( #243 ) ) ;
#27 = APPROVAL_PERSON_ORGANIZATION ( #130, #167, #10 ) ;
#28 = ADVANCED_FACE ( 'NONE', ( #90, #32 ), #242, .T. ) ;
#29 = CARTESIAN_POINT ( 'NONE',  ( 3.576145261858906632E-14, -1.254342905831652128E-15, 10.24248711305965465 ) ) ;
#30 = PERSON_AND_ORGANIZATION ( #68, #100 ) ;
#31 = PERSON_AND_ORGANIZATION_ROLE ( 'creator' ) ;
#32 = FACE_BOUND ( 'NONE', #270, .T. ) ;
#33 = DATE_AND_TIME ( #57, #2 ) ;
#34 = CARTESIAN_POINT ( 'NONE',  ( 0.0000000000000000000, 0.0000000000000000000, 0.0000000000000000000 ) ) ;
#35 = CALENDAR_DATE ( 2021, 2, 12 ) ;
#36 = PERSON_AND_ORGANIZATION_ROLE ( 'design_supplier' ) ;
#37 = CC_DESIGN_SECURITY_CLASSIFICATION ( #71, ( #303 ) ) ;
#38 = PRODUCT_DEFINITION ( 'UNKNOWN', '', #303, #9 ) ;
#39 = CC_DESIGN_PERSON_AND_ORGANIZATION_ASSIGNMENT ( #157, #36, ( #303 ) ) ;
#40 = CARTESIAN_POINT ( 'NONE',  ( 0.0000000000000000000, 0.0000000000000000000, 0.0000000000000000000 ) ) ;
#41 = CYLINDRICAL_SURFACE ( 'NONE', #110, 1.499999999999996891 ) ;
#42 = CIRCLE ( 'NONE', #253, 1.500000000000001110 ) ;
#43 = FACE_BOUND ( 'NONE', #170, .T. ) ;
#44 = PERSON_AND_ORGANIZATION ( #68, #100 ) ;
#45 = CIRCLE ( 'NONE', #103, 1.499999999999992895 ) ;
#46 =( NAMED_UNIT ( * ) SI_UNIT ( $, .STERADIAN. ) SOLID_ANGLE_UNIT ( ) );
#47 = ORIENTED_EDGE ( 'NONE', *, *, #64, .T. ) ;
#48 = VERTEX_POINT ( 'NONE', #127 ) ;
#49 = PLANE ( 'NONE',  #231 ) ;
#50 = COORDINATED_UNIVERSAL_TIME_OFFSET ( 1, 0, .AHEAD. ) ;
#51 = DIRECTION ( 'NONE',  ( -3.491481338843133355E-15, 1.224646799147353207E-16, -1.000000000000000000 ) ) ;
#52 = DATE_AND_TIME ( #247, #210 ) ;
#53 = CLOSED_SHELL ( 'NONE', ( #273, #76, #25, #173, #11 ) ) ;
#54 = AXIS2_PLACEMENT_3D ( 'NONE', #182, #120, #117 ) ;
#55 = DIRECTION ( 'NONE',  ( 0.0000000000000000000, 1.000000000000000000, 0.0000000000000000000 ) ) ;
#56 = CARTESIAN_POINT ( 'NONE',  ( 2.444036937190193601E-13, -8.572527594031472993E-15, 70.00000000000000000 ) ) ;
#57 = CALENDAR_DATE ( 2021, 2, 12 ) ;
#58 = AXIS2_PLACEMENT_3D ( 'NONE', #29, #250, #14 ) ;
#59 = EDGE_CURVE ( 'NONE', #78, #78, #65, .T. ) ;
#60 = FACE_BOUND ( 'NONE', #109, .T. ) ;
#61 = PERSON_AND_ORGANIZATION ( #68, #100 ) ;
#62 = DIRECTION ( 'NONE',  ( 4.275831445896958607E-31, 1.000000000000000000, 1.224646799147353207E-16 ) ) ;
#63 = EDGE_CURVE ( 'NONE', #267, #267, #42, .T. ) ;
#64 = EDGE_CURVE ( 'NONE', #222, #222, #236, .T. ) ;
#65 = CIRCLE ( 'NONE', #13, 1.200000000000001510 ) ;
#66 = PLANE ( 'NONE',  #187 ) ;
#67 = CIRCLE ( 'NONE', #88, 1.639999999999999902 ) ;
#68 = PERSON ( 'UNSPECIFIED', 'UNSPECIFIED', 'UNSPECIFIED', ('UNSPECIFIED'), ('UNSPECIFIED'), ('UNSPECIFIED') ) ;
#69 = FACE_OUTER_BOUND ( 'NONE', #24, .T. ) ;
#70 = DIRECTION ( 'NONE',  ( 0.0000000000000000000, 1.000000000000000000, 0.0000000000000000000 ) ) ;
#71 = SECURITY_CLASSIFICATION ( '', '', #209 ) ;
#72 = DIRECTION ( 'NONE',  ( 0.0000000000000000000, 0.0000000000000000000, 1.000000000000000000 ) ) ;
#73 = ORIENTED_EDGE ( 'NONE', *, *, #156, .F. ) ;
#74 = EDGE_LOOP ( 'NONE', ( #128 ) ) ;
#75 = CALENDAR_DATE ( 2021, 2, 12 ) ;
#76 = ADVANCED_FACE ( 'NONE', ( #60, #158 ), #192, .T. ) ;
#77 = EDGE_CURVE ( 'NONE', #224, #224, #257, .T. ) ;
#78 = VERTEX_POINT ( 'NONE', #199 ) ;
#79 = ORIENTED_EDGE ( 'NONE', *, *, #181, .T. ) ;
#80 = PERSON_AND_ORGANIZATION_ROLE ( 'creator' ) ;
#81 = LOCAL_TIME ( 10, 35, 28.00000000000000000, #252 ) ;
#82 = VERTEX_POINT ( 'NONE', #169 ) ;
#83 = FACE_OUTER_BOUND ( 'NONE', #123, .T. ) ;
#84 = CARTESIAN_POINT ( 'NONE',  ( 2.433562493173664138E-13, 1.499999999999992673, 69.70000000000001705 ) ) ;
#85 = PLANE ( 'NONE',  #141 ) ;
#86 = FACE_OUTER_BOUND ( 'NONE', #240, .T. ) ;
#87 = APPROVAL_DATE_TIME ( #225, #167 ) ;
#88 = AXIS2_PLACEMENT_3D ( 'NONE', #94, #202, #55 ) ;
#89 = FACE_BOUND ( 'NONE', #177, .T. ) ;
#90 = FACE_OUTER_BOUND ( 'NONE', #195, .T. ) ;
#91 = APPROVAL_STATUS ( 'not_yet_approved' ) ;
#92 = CYLINDRICAL_SURFACE ( 'NONE', #203, 1.499999999999996891 ) ;
#93 = CONICAL_SURFACE ( 'NONE', #54, 1.200000000000001510, 0.7853981633974566057 ) ;
#94 = CARTESIAN_POINT ( 'NONE',  ( 3.491481338843133355E-14, -1.224646799147353256E-15, 10.00000000000000000 ) ) ;
#95 = APPROVAL_ROLE ( '' ) ;
#96 = DIRECTION ( 'NONE',  ( 0.0000000000000000000, 1.000000000000000000, 0.0000000000000000000 ) ) ;
#97 = FACE_OUTER_BOUND ( 'NONE', #197, .T. ) ;
#98 = ORIENTED_EDGE ( 'NONE', *, *, #122, .T. ) ;
#99 = CARTESIAN_POINT ( 'NONE',  ( 2.444036937190193601E-13, -8.572527594031472993E-15, 70.00000000000000000 ) ) ;
#100 = ORGANIZATION ( 'UNSPECIFIED', 'UNSPECIFIED', '' ) ;
#101 = DIRECTION ( 'NONE',  ( -3.491481338843133355E-15, 1.224646799147353207E-16, -1.000000000000000000 ) ) ;
#102 = DIRECTION ( 'NONE',  ( -3.491481338843133355E-15, 1.224646799147353207E-16, -1.000000000000000000 ) ) ;
#103 = AXIS2_PLACEMENT_3D ( 'NONE', #185, #281, #70 ) ;
#104 = CC_DESIGN_PERSON_AND_ORGANIZATION_ASSIGNMENT ( #44, #259, ( #166 ) ) ;
#105 = EDGE_LOOP ( 'NONE', ( #73 ) ) ;
#106 = CC_DESIGN_PERSON_AND_ORGANIZATION_ASSIGNMENT ( #251, #31, ( #303 ) ) ;
#107 =( LENGTH_UNIT ( ) NAMED_UNIT ( * ) SI_UNIT ( .MILLI., .METRE. ) );
#108 = CARTESIAN_POINT ( 'NONE',  ( 2.444036937190193601E-13, 8.998558695971026591E-33, 70.00000000000000000 ) ) ;
#109 = EDGE_LOOP ( 'NONE', ( #219 ) ) ;
#110 = AXIS2_PLACEMENT_3D ( 'NONE', #237, #146, #23 ) ;
#111 = DIRECTION ( 'NONE',  ( 4.275831445896958607E-31, 1.000000000000000000, 1.224646799147353454E-16 ) ) ;
#112 = DIRECTION ( 'NONE',  ( 0.0000000000000000000, 1.000000000000000000, 0.0000000000000000000 ) ) ;
#113 = CARTESIAN_POINT ( 'NONE',  ( 8.728703347107827472E-16, -3.061616997868381169E-17, 0.2499999999999998335 ) ) ;
#114 = AXIS2_PLACEMENT_3D ( 'NONE', #218, #118, #238 ) ;
#115 = EDGE_CURVE ( 'NONE', #3, #3, #266, .T. ) ;
#116 = DIRECTION ( 'NONE',  ( -3.491481338843133355E-15, 1.224646799147353207E-16, -1.000000000000000000 ) ) ;
#117 = DIRECTION ( 'NONE',  ( 0.0000000000000000000, 1.000000000000000000, 0.0000000000000000000 ) ) ;
#118 = DIRECTION ( 'NONE',  ( -3.491481338843133355E-15, 1.224646799147353207E-16, -1.000000000000000000 ) ) ;
#119 = ORIENTED_EDGE ( 'NONE', *, *, #263, .T. ) ;
#120 = DIRECTION ( 'NONE',  ( -3.491481338843133355E-15, 1.224646799147353207E-16, -1.000000000000000000 ) ) ;
#121 = APPROVAL_ROLE ( '' ) ;
#122 = EDGE_CURVE ( 'NONE', #48, #48, #67, .T. ) ;
#123 = EDGE_LOOP ( 'NONE', ( #268 ) ) ;
#124 = EDGE_LOOP ( 'NONE', ( #286 ) ) ;
#125 = ORIENTED_EDGE ( 'NONE', *, *, #179, .F. ) ;
#126 = EDGE_LOOP ( 'NONE', ( #98 ) ) ;
#127 = CARTESIAN_POINT ( 'NONE',  ( 3.491481338843133355E-14, 1.639999999999998570, 10.00000000000000000 ) ) ;
#128 = ORIENTED_EDGE ( 'NONE', *, *, #63, .T. ) ;
#129 = COORDINATED_UNIVERSAL_TIME_OFFSET ( 1, 0, .AHEAD. ) ;
#130 = PERSON_AND_ORGANIZATION ( #68, #100 ) ;
#131 = CARTESIAN_POINT ( 'NONE',  ( 2.433562493173664138E-13, -8.535788190057053710E-15, 69.70000000000001705 ) ) ;
#132 = CC_DESIGN_DATE_AND_TIME_ASSIGNMENT ( #52, #172, ( #38 ) ) ;
#133 = DIRECTION ( 'NONE',  ( -3.491481338843133355E-15, 1.224646799147353207E-16, -1.000000000000000000 ) ) ;
#134 = UNCERTAINTY_MEASURE_WITH_UNIT (LENGTH_MEASURE( 1.000000000000000082E-05 ), #107, 'distance_accuracy_value', 'NONE');
#135 = AXIS2_PLACEMENT_3D ( 'NONE', #217, #142, #234 ) ;
#136 = DIRECTION ( 'NONE',  ( 0.0000000000000000000, 1.000000000000000000, 0.0000000000000000000 ) ) ;
#137 = DIRECTION ( 'NONE',  ( -4.275831445896959482E-31, -1.000000000000000000, -1.224646799147353207E-16 ) ) ;
#138 = PERSON_AND_ORGANIZATION_ROLE ( 'classification_officer' ) ;
#139 = DIRECTION ( 'NONE',  ( 0.0000000000000000000, 1.000000000000000000, 0.0000000000000000000 ) ) ;
#140 = COORDINATED_UNIVERSAL_TIME_OFFSET ( 1, 0, .AHEAD. ) ;
#141 = AXIS2_PLACEMENT_3D ( 'NONE', #201, #51, #291 ) ;
#142 = DIRECTION ( 'NONE',  ( -3.491481338843133355E-15, 1.224646799147353207E-16, -1.000000000000000000 ) ) ;
#143 = PRODUCT_DEFINITION_SHAPE ( 'NONE', 'NONE',  #38 ) ;
#144 = ORIENTED_EDGE ( 'NONE', *, *, #181, .F. ) ;
#145 = AXIS2_PLACEMENT_3D ( 'NONE', #99, #256, #188 ) ;
#146 = DIRECTION ( 'NONE',  ( -3.491481338843133355E-15, 1.224646799147353207E-16, -1.000000000000000000 ) ) ;
#147 = APPLICATION_PROTOCOL_DEFINITION ( 'international standard', 'config_control_design', 1994, #15 ) ;
#148 = VERTEX_POINT ( 'NONE', #84 ) ;
#149 = AXIS2_PLACEMENT_3D ( 'NONE', #113, #255, #298 ) ;
#150 =( NAMED_UNIT ( * ) PLANE_ANGLE_UNIT ( ) SI_UNIT ( $, .RADIAN. ) );
#151 = ORIENTED_EDGE ( 'NONE', *, *, #63, .F. ) ;
#152 = CARTESIAN_POINT ( 'NONE',  ( 0.0000000000000000000, 0.0000000000000000000, 0.0000000000000000000 ) ) ;
#153 = CARTESIAN_POINT ( 'NONE',  ( 2.433562493173664138E-13, 1.499999999999992673, 69.70000000000001705 ) ) ;
#154 = APPROVAL_STATUS ( 'not_yet_approved' ) ;
#155 = DIRECTION ( 'NONE',  ( 0.0000000000000000000, 1.000000000000000000, 0.0000000000000000000 ) ) ;
#156 = EDGE_CURVE ( 'NONE', #148, #148, #22, .T. ) ;
#157 = PERSON_AND_ORGANIZATION ( #68, #100 ) ;
#158 = FACE_OUTER_BOUND ( 'NONE', #213, .T. ) ;
#159 = APPROVAL_STATUS ( 'not_yet_approved' ) ;
#160 = DIRECTION ( 'NONE',  ( -3.491481338843133355E-15, 1.224646799147353207E-16, -1.000000000000000000 ) ) ;
#161 = FACE_OUTER_BOUND ( 'NONE', #215, .T. ) ;
#162 = AXIS2_PLACEMENT_3D ( 'NONE', #21, #101, #190 ) ;
#163 = ADVANCED_BREP_SHAPE_REPRESENTATION ( '321554', ( #297, #198, #288 ), #6 ) ;
#164 = FACE_OUTER_BOUND ( 'NONE', #74, .T. ) ;
#165 = AXIS2_PLACEMENT_3D ( 'NONE', #276, #160, #139 ) ;
#166 = PRODUCT ( '321554', '321554', '', ( #193 ) ) ;
#167 = APPROVAL ( #154, 'UNSPECIFIED' ) ;
#168 = ORIENTED_EDGE ( 'NONE', *, *, #59, .T. ) ;
#169 = CARTESIAN_POINT ( 'NONE',  ( 3.576145261858906632E-14, 1.499999999999991562, 10.24248711305965465 ) ) ;
#170 = EDGE_LOOP ( 'NONE', ( #47 ) ) ;
#171 = CC_DESIGN_APPROVAL ( #167, ( #303 ) ) ;
#172 = DATE_TIME_ROLE ( 'creation_date' ) ;
#173 = ADVANCED_FACE ( 'NONE', ( #293, #89 ), #93, .T. ) ;
#174 = FACE_OUTER_BOUND ( 'NONE', #124, .T. ) ;
#175 = DATE_AND_TIME ( #5, #81 ) ;
#176 = VERTEX_POINT ( 'NONE', #285 ) ;
#177 = EDGE_LOOP ( 'NONE', ( #168 ) ) ;
#178 = FACE_OUTER_BOUND ( 'NONE', #26, .T. ) ;
#179 = EDGE_CURVE ( 'NONE', #176, #176, #196, .T. ) ;
#180 = CC_DESIGN_APPROVAL ( #274, ( #71 ) ) ;
#181 = EDGE_CURVE ( 'NONE', #239, #239, #275, .T. ) ;
#182 = CARTESIAN_POINT ( 'NONE',  ( 2.444036937190193601E-13, -8.572527594031472993E-15, 70.00000000000000000 ) ) ;
#183 = CARTESIAN_POINT ( 'NONE',  ( 2.444036937190193601E-13, -8.572527594031472993E-15, 70.00000000000000000 ) ) ;
#184 = CONICAL_SURFACE ( 'NONE', #162, 1.639999999999999902, 0.5235987755982991487 ) ;
#185 = CARTESIAN_POINT ( 'NONE',  ( 3.576145261858906632E-14, -1.254342905831652128E-15, 10.24248711305965465 ) ) ;
#186 = CC_DESIGN_PERSON_AND_ORGANIZATION_ASSIGNMENT ( #287, #80, ( #38 ) ) ;
#187 = AXIS2_PLACEMENT_3D ( 'NONE', #216, #102, #62 ) ;
#188 = DIRECTION ( 'NONE',  ( 0.0000000000000000000, 1.000000000000000000, 0.0000000000000000000 ) ) ;
#189 = EDGE_LOOP ( 'NONE', ( #272 ) ) ;
#190 = DIRECTION ( 'NONE',  ( 0.0000000000000000000, 1.000000000000000000, 0.0000000000000000000 ) ) ;
#191 = CLOSED_SHELL ( 'NONE', ( #284, #212, #28, #18, #228, #233, #294 ) ) ;
#192 = CONICAL_SURFACE ( 'NONE', #292, 1.639999999999999902, 0.5235987755982991487 ) ;
#193 = MECHANICAL_CONTEXT ( 'NONE', #15, 'mechanical' ) ;
#194 = ORIENTED_EDGE ( 'NONE', *, *, #115, .F. ) ;
#195 = EDGE_LOOP ( 'NONE', ( #220 ) ) ;
#196 = CIRCLE ( 'NONE', #114, 1.389999999999999014 ) ;
#197 = EDGE_LOOP ( 'NONE', ( #265 ) ) ;
#198 = MANIFOLD_SOLID_BREP ( 'Corps-Déplacer/Copier1[2]', #191 ) ;
#199 = CARTESIAN_POINT ( 'NONE',  ( 2.444036937190193601E-13, 1.199999999999992628, 70.00000000000000000 ) ) ;
#200 = DIRECTION ( 'NONE',  ( 4.275831445896958607E-31, 1.000000000000000000, 1.224646799147353207E-16 ) ) ;
#201 = CARTESIAN_POINT ( 'NONE',  ( -2.971702854898384033E-31, 1.042333048949990298E-32, -8.511295254074099502E-17 ) ) ;
#202 = DIRECTION ( 'NONE',  ( -3.491481338843133355E-15, 1.224646799147353207E-16, -1.000000000000000000 ) ) ;
#203 = AXIS2_PLACEMENT_3D ( 'NONE', #34, #133, #111 ) ;
#204 = DATE_AND_TIME ( #35, #16 ) ;
#205 = CONICAL_SURFACE ( 'NONE', #145, 1.200000000000001510, 0.7853981633974566057 ) ;
#206 = DIRECTION ( 'NONE',  ( 3.491481338843133355E-15, -1.224646799147353207E-16, 1.000000000000000000 ) ) ;
#207 = CARTESIAN_POINT ( 'NONE',  ( -5.943405709796768067E-31, 2.084666097899980597E-32, -1.702259050814819900E-16 ) ) ;
#208 = PERSON_AND_ORGANIZATION ( #68, #100 ) ;
#209 = SECURITY_CLASSIFICATION_LEVEL ( 'unclassified' ) ;
#210 = LOCAL_TIME ( 10, 35, 28.00000000000000000, #50 ) ;
#211 = DIRECTION ( 'NONE',  ( 3.491481338843133355E-15, -1.224646799147353207E-16, 1.000000000000000000 ) ) ;
#212 = ADVANCED_FACE ( 'NONE', ( #214, #277 ), #19, .T. ) ;
#213 = EDGE_LOOP ( 'NONE', ( #144 ) ) ;
#214 = FACE_OUTER_BOUND ( 'NONE', #126, .T. ) ;
#215 = EDGE_LOOP ( 'NONE', ( #151 ) ) ;
#216 = CARTESIAN_POINT ( 'NONE',  ( 2.444036937190193601E-13, -8.572527594031472993E-15, 70.00000000000000000 ) ) ;
#217 = CARTESIAN_POINT ( 'NONE',  ( 3.491481338843133355E-14, -1.224646799147353256E-15, 10.00000000000000000 ) ) ;
#218 = CARTESIAN_POINT ( 'NONE',  ( -5.943405709796768067E-31, 2.084666097899980597E-32, -1.702259050814819900E-16 ) ) ;
#219 = ORIENTED_EDGE ( 'NONE', *, *, #77, .T. ) ;
#220 = ORIENTED_EDGE ( 'NONE', *, *, #115, .T. ) ;
#221 = PRODUCT_RELATED_PRODUCT_CATEGORY ( 'detail', '', ( #166 ) ) ;
#222 = VERTEX_POINT ( 'NONE', #264 ) ;
#223 = AXIS2_PLACEMENT_3D ( 'NONE', #1, #211, #300 ) ;
#224 = VERTEX_POINT ( 'NONE', #7 ) ;
#225 = DATE_AND_TIME ( #75, #232 ) ;
#226 = CARTESIAN_POINT ( 'NONE',  ( 3.491481338843133355E-14, -1.224646799147353256E-15, 10.00000000000000000 ) ) ;
#227 = DIRECTION ( 'NONE',  ( -3.491481338843133355E-15, 1.224646799147353207E-16, -1.000000000000000000 ) ) ;
#228 = ADVANCED_FACE ( 'NONE', ( #97 ), #66, .F. ) ;
#229 = DIRECTION ( 'NONE',  ( -3.491481338843133355E-15, 1.224646799147353207E-16, -1.000000000000000000 ) ) ;
#230 = SHAPE_DEFINITION_REPRESENTATION ( #143, #163 ) ;
#231 = AXIS2_PLACEMENT_3D ( 'NONE', #108, #8, #200 ) ;
#232 = LOCAL_TIME ( 10, 35, 28.00000000000000000, #129 ) ;
#233 = ADVANCED_FACE ( 'NONE', ( #161, #43 ), #205, .T. ) ;
#234 = DIRECTION ( 'NONE',  ( 0.0000000000000000000, 1.000000000000000000, 0.0000000000000000000 ) ) ;
#235 = FACE_OUTER_BOUND ( 'NONE', #189, .T. ) ;
#236 = CIRCLE ( 'NONE', #248, 1.200000000000001510 ) ;
#237 = CARTESIAN_POINT ( 'NONE',  ( 0.0000000000000000000, 0.0000000000000000000, 0.0000000000000000000 ) ) ;
#238 = DIRECTION ( 'NONE',  ( 4.275831445896959482E-31, 1.000000000000000000, 1.224646799147353207E-16 ) ) ;
#239 = VERTEX_POINT ( 'NONE', #283 ) ;
#240 = EDGE_LOOP ( 'NONE', ( #4 ) ) ;
#241 = APPROVAL ( #91, 'UNSPECIFIED' ) ;
#242 = CONICAL_SURFACE ( 'NONE', #278, 1.389999999999999014, 0.7853981633974500554 ) ;
#243 = ORIENTED_EDGE ( 'NONE', *, *, #156, .T. ) ;
#244 = APPROVAL_DATE_TIME ( #175, #241 ) ;
#245 = EDGE_LOOP ( 'NONE', ( #79 ) ) ;
#246 = ORIENTED_EDGE ( 'NONE', *, *, #263, .F. ) ;
#247 = CALENDAR_DATE ( 2021, 2, 12 ) ;
#248 = AXIS2_PLACEMENT_3D ( 'NONE', #56, #227, #112 ) ;
#249 = EDGE_LOOP ( 'NONE', ( #194 ) ) ;
#250 = DIRECTION ( 'NONE',  ( -3.491481338843133355E-15, 1.224646799147353207E-16, -1.000000000000000000 ) ) ;
#251 = PERSON_AND_ORGANIZATION ( #68, #100 ) ;
#252 = COORDINATED_UNIVERSAL_TIME_OFFSET ( 1, 0, .AHEAD. ) ;
#253 = AXIS2_PLACEMENT_3D ( 'NONE', #131, #296, #136 ) ;
#254 = COORDINATED_UNIVERSAL_TIME_OFFSET ( 1, 0, .AHEAD. ) ;
#255 = DIRECTION ( 'NONE',  ( -3.491481338843133355E-15, 1.224646799147353207E-16, -1.000000000000000000 ) ) ;
#256 = DIRECTION ( 'NONE',  ( -3.491481338843133355E-15, 1.224646799147353207E-16, -1.000000000000000000 ) ) ;
#257 = CIRCLE ( 'NONE', #58, 1.499999999999992895 ) ;
#258 = FACE_BOUND ( 'NONE', #290, .T. ) ;
#259 = PERSON_AND_ORGANIZATION_ROLE ( 'design_owner' ) ;
#260 = DIRECTION ( 'NONE',  ( 4.275831445896958607E-31, 1.000000000000000000, 1.224646799147353207E-16 ) ) ;
#261 = CC_DESIGN_APPROVAL ( #241, ( #38 ) ) ;
#262 = DIRECTION ( 'NONE',  ( 1.000000000000000000, 0.0000000000000000000, 0.0000000000000000000 ) ) ;
#263 = EDGE_CURVE ( 'NONE', #82, #82, #45, .T. ) ;
#264 = CARTESIAN_POINT ( 'NONE',  ( 2.444036937190193601E-13, 1.199999999999992628, 70.00000000000000000 ) ) ;
#265 = ORIENTED_EDGE ( 'NONE', *, *, #64, .F. ) ;
#266 = CIRCLE ( 'NONE', #149, 1.639999999999999902 ) ;
#267 = VERTEX_POINT ( 'NONE', #153 ) ;
#268 = ORIENTED_EDGE ( 'NONE', *, *, #59, .F. ) ;
#269 = CARTESIAN_POINT ( 'NONE',  ( 8.728703347107835360E-16, 1.639999999999999902, 0.2500000000000000555 ) ) ;
#270 = EDGE_LOOP ( 'NONE', ( #125 ) ) ;
#271 = APPROVAL_PERSON_ORGANIZATION ( #61, #274, #95 ) ;
#272 = ORIENTED_EDGE ( 'NONE', *, *, #122, .F. ) ;
#273 = ADVANCED_FACE ( 'NONE', ( #17 ), #280, .F. ) ;
#274 = APPROVAL ( #159, 'UNSPECIFIED' ) ;
#275 = CIRCLE ( 'NONE', #135, 1.639999999999999902 ) ;
#276 = CARTESIAN_POINT ( 'NONE',  ( 2.433562493173664138E-13, -8.535788190057053710E-15, 69.70000000000001705 ) ) ;
#277 = FACE_OUTER_BOUND ( 'NONE', #249, .T. ) ;
#278 = AXIS2_PLACEMENT_3D ( 'NONE', #207, #206, #137 ) ;
#279 = AXIS2_PLACEMENT_3D ( 'NONE', #40, #302, #260 ) ;
#280 = PLANE ( 'NONE',  #223 ) ;
#281 = DIRECTION ( 'NONE',  ( -3.491481338843133355E-15, 1.224646799147353207E-16, -1.000000000000000000 ) ) ;
#282 = APPROVAL_PERSON_ORGANIZATION ( #208, #241, #121 ) ;
#283 = CARTESIAN_POINT ( 'NONE',  ( 3.491481338843133355E-14, 1.639999999999998570, 10.00000000000000000 ) ) ;
#284 = ADVANCED_FACE ( 'NONE', ( #258, #235 ), #184, .T. ) ;
#285 = CARTESIAN_POINT ( 'NONE',  ( 8.552847072295026068E-47, 1.389999999999999014, 0.0000000000000000000 ) ) ;
#286 = ORIENTED_EDGE ( 'NONE', *, *, #179, .T. ) ;
#287 = PERSON_AND_ORGANIZATION ( #68, #100 ) ;
#288 = AXIS2_PLACEMENT_3D ( 'NONE', #152, #72, #262 ) ;
#289 = APPLICATION_CONTEXT ( 'configuration controlled 3d designs of mechanical parts and assemblies' ) ;
#290 = EDGE_LOOP ( 'NONE', ( #119 ) ) ;
#291 = DIRECTION ( 'NONE',  ( 4.275831445896958607E-31, 1.000000000000000000, 1.224646799147353207E-16 ) ) ;
#292 = AXIS2_PLACEMENT_3D ( 'NONE', #226, #229, #96 ) ;
#293 = FACE_OUTER_BOUND ( 'NONE', #105, .T. ) ;
#294 = ADVANCED_FACE ( 'NONE', ( #69, #164 ), #41, .T. ) ;
#295 = CC_DESIGN_PERSON_AND_ORGANIZATION_ASSIGNMENT ( #30, #138, ( #71 ) ) ;
#296 = DIRECTION ( 'NONE',  ( -3.491481338843133355E-15, 1.224646799147353207E-16, -1.000000000000000000 ) ) ;
#297 = MANIFOLD_SOLID_BREP ( 'Corps-Déplacer/Copier1[1]', #53 ) ;
#298 = DIRECTION ( 'NONE',  ( 4.697390108261550818E-31, 1.000000000000000000, 1.322197771323785883E-16 ) ) ;
#299 = DATE_TIME_ROLE ( 'classification_date' ) ;
#300 = DIRECTION ( 'NONE',  ( -4.275831445896958607E-31, -1.000000000000000000, -1.224646799147353207E-16 ) ) ;
#301 = APPLICATION_PROTOCOL_DEFINITION ( 'international standard', 'config_control_design', 1994, #289 ) ;
#302 = DIRECTION ( 'NONE',  ( -3.491481338843133355E-15, 1.224646799147353207E-16, -1.000000000000000000 ) ) ;
#303 = PRODUCT_DEFINITION_FORMATION_WITH_SPECIFIED_SOURCE ( 'ANY', '', #166, .NOT_KNOWN. ) ;
ENDSEC;
END-ISO-10303-21;
