ISO-10303-21;
HEADER;
FILE_DESCRIPTION (( 'STEP AP203' ),
    '1' );
FILE_NAME ('321553.step',
    '2021-12-02T09:35:28',
    ( '' ),
    ( '' ),
    'SwSTEP 2.0',
    'SolidWorks 2019',
    '' );
FILE_SCHEMA (( 'CONFIG_CONTROL_DESIGN' ));
ENDSEC;

DATA;
#1 = ADVANCED_FACE ( 'NONE', ( #33, #176 ), #48, .T. ) ;
#2 = CARTESIAN_POINT ( 'NONE',  ( 2.444036937190193601E-13, -8.572527594031472993E-15, 70.00000000000000000 ) ) ;
#3 = ORIENTED_EDGE ( 'NONE', *, *, #216, .T. ) ;
#4 = CONICAL_SURFACE ( 'NONE', #122, 1.635000000000000009, 0.5235987755983005920 ) ;
#5 = COORDINATED_UNIVERSAL_TIME_OFFSET ( 1, 0, .AHEAD. ) ;
#6 = ADVANCED_FACE ( 'NONE', ( #184, #129 ), #242, .T. ) ;
#7 =( NAMED_UNIT ( * ) PLANE_ANGLE_UNIT ( ) SI_UNIT ( $, .RADIAN. ) );
#8 = EDGE_LOOP ( 'NONE', ( #203 ) ) ;
#9 = DATE_AND_TIME ( #246, #288 ) ;
#10 = AXIS2_PLACEMENT_3D ( 'NONE', #39, #140, #231 ) ;
#11 = COORDINATED_UNIVERSAL_TIME_OFFSET ( 1, 0, .AHEAD. ) ;
#12 = EDGE_CURVE ( 'NONE', #43, #43, #256, .T. ) ;
#13 = VERTEX_POINT ( 'NONE', #99 ) ;
#14 = MECHANICAL_CONTEXT ( 'NONE', #213, 'mechanical' ) ;
#15 = DIRECTION ( 'NONE',  ( 4.275831445896958607E-31, 1.000000000000000000, 1.224646799147353454E-16 ) ) ;
#16 = SECURITY_CLASSIFICATION_LEVEL ( 'unclassified' ) ;
#17 = ADVANCED_FACE ( 'NONE', ( #223, #271 ), #224, .T. ) ;
#18 = CIRCLE ( 'NONE', #295, 1.200000000000001510 ) ;
#19 = UNCERTAINTY_MEASURE_WITH_UNIT (LENGTH_MEASURE( 1.000000000000000082E-05 ), #134, 'distance_accuracy_value', 'NONE');
#20 = DIRECTION ( 'NONE',  ( -3.491481338843133355E-15, 1.224646799147353207E-16, -1.000000000000000000 ) ) ;
#21 = AXIS2_PLACEMENT_3D ( 'NONE', #232, #115, #299 ) ;
#22 = DIRECTION ( 'NONE',  ( 4.275831445896958607E-31, 1.000000000000000000, 1.224646799147353207E-16 ) ) ;
#23 = DIRECTION ( 'NONE',  ( -3.491481338843133355E-15, 1.224646799147353207E-16, -1.000000000000000000 ) ) ;
#24 = CARTESIAN_POINT ( 'NONE',  ( 2.444036937190193601E-13, -8.572527594031472993E-15, 70.00000000000000000 ) ) ;
#25 = EDGE_LOOP ( 'NONE', ( #198 ) ) ;
#26 = DIRECTION ( 'NONE',  ( 3.491481338843133355E-15, -1.224646799147353207E-16, 1.000000000000000000 ) ) ;
#27 = PRODUCT ( '321553', '321553', '', ( #14 ) ) ;
#28 = EDGE_CURVE ( 'NONE', #303, #303, #91, .T. ) ;
#29 = AXIS2_PLACEMENT_3D ( 'NONE', #301, #26, #192 ) ;
#30 = ADVANCED_BREP_SHAPE_REPRESENTATION ( '321553', ( #104, #142, #147 ), #116 ) ;
#31 = COORDINATED_UNIVERSAL_TIME_OFFSET ( 1, 0, .AHEAD. ) ;
#32 = VERTEX_POINT ( 'NONE', #75 ) ;
#33 = FACE_OUTER_BOUND ( 'NONE', #204, .T. ) ;
#34 = EDGE_LOOP ( 'NONE', ( #249 ) ) ;
#35 = CIRCLE ( 'NONE', #212, 1.200000000000001510 ) ;
#36 = LOCAL_TIME ( 10, 35, 28.00000000000000000, #31 ) ;
#37 = CARTESIAN_POINT ( 'NONE',  ( -5.922026552567283352E-31, 2.077167298986671528E-32, -1.696135816819083025E-16 ) ) ;
#38 = ORGANIZATION ( 'UNSPECIFIED', 'UNSPECIFIED', '' ) ;
#39 = CARTESIAN_POINT ( 'NONE',  ( 3.573121550322628496E-14, -1.253282330592927084E-15, 10.23382685902181066 ) ) ;
#40 = DIRECTION ( 'NONE',  ( -3.491481338843133355E-15, 1.224646799147353207E-16, -1.000000000000000000 ) ) ;
#41 = AXIS2_PLACEMENT_3D ( 'NONE', #168, #88, #164 ) ;
#42 = DIRECTION ( 'NONE',  ( -3.491481338843133355E-15, 1.224646799147353207E-16, -1.000000000000000000 ) ) ;
#43 = VERTEX_POINT ( 'NONE', #190 ) ;
#44 = APPROVAL_PERSON_ORGANIZATION ( #49, #77, #273 ) ;
#45 = FACE_OUTER_BOUND ( 'NONE', #171, .T. ) ;
#46 = PERSON_AND_ORGANIZATION ( #268, #38 ) ;
#47 = VERTEX_POINT ( 'NONE', #72 ) ;
#48 = CONICAL_SURFACE ( 'NONE', #133, 1.200000000000001510, 0.7853981633974566057 ) ;
#49 = PERSON_AND_ORGANIZATION ( #268, #38 ) ;
#50 = CARTESIAN_POINT ( 'NONE',  ( 0.0000000000000000000, 0.0000000000000000000, 0.0000000000000000000 ) ) ;
#51 = EDGE_LOOP ( 'NONE', ( #83 ) ) ;
#52 = PRODUCT_DEFINITION ( 'UNKNOWN', '', #160, #110 ) ;
#53 = PERSON_AND_ORGANIZATION ( #268, #38 ) ;
#54 = ORIENTED_EDGE ( 'NONE', *, *, #187, .F. ) ;
#55 = DATE_AND_TIME ( #180, #194 ) ;
#56 = DIRECTION ( 'NONE',  ( -3.491481338843133355E-15, 1.224646799147353207E-16, -1.000000000000000000 ) ) ;
#57 = DATE_TIME_ROLE ( 'creation_date' ) ;
#58 = CC_DESIGN_DATE_AND_TIME_ASSIGNMENT ( #9, #57, ( #52 ) ) ;
#59 = FACE_OUTER_BOUND ( 'NONE', #107, .T. ) ;
#60 = CYLINDRICAL_SURFACE ( 'NONE', #65, 1.635000000000000009 ) ;
#61 = CLOSED_SHELL ( 'NONE', ( #269, #172, #6, #1, #261 ) ) ;
#62 = CARTESIAN_POINT ( 'NONE',  ( 0.0000000000000000000, 0.0000000000000000000, 0.0000000000000000000 ) ) ;
#63 = CARTESIAN_POINT ( 'NONE',  ( 2.433562493173664138E-13, -8.535788190057053710E-15, 69.70000000000001705 ) ) ;
#64 = ADVANCED_FACE ( 'NONE', ( #281, #90 ), #139, .T. ) ;
#65 = AXIS2_PLACEMENT_3D ( 'NONE', #167, #112, #297 ) ;
#66 = DIRECTION ( 'NONE',  ( -3.491481338843133355E-15, 1.224646799147353207E-16, -1.000000000000000000 ) ) ;
#67 = CARTESIAN_POINT ( 'NONE',  ( 8.728703347107835360E-16, 1.635000000000000009, 0.2500000000000000555 ) ) ;
#68 = FACE_OUTER_BOUND ( 'NONE', #100, .T. ) ;
#69 = CIRCLE ( 'NONE', #21, 1.635000000000000009 ) ;
#70 = EDGE_LOOP ( 'NONE', ( #148 ) ) ;
#71 = LOCAL_TIME ( 10, 35, 28.00000000000000000, #11 ) ;
#72 = CARTESIAN_POINT ( 'NONE',  ( 2.433562493173664138E-13, 1.499999999999992673, 69.70000000000001705 ) ) ;
#73 = EDGE_LOOP ( 'NONE', ( #275 ) ) ;
#74 = PRODUCT_DEFINITION_SHAPE ( 'NONE', 'NONE',  #52 ) ;
#75 = CARTESIAN_POINT ( 'NONE',  ( 2.444036937190193601E-13, 1.199999999999992628, 70.00000000000000000 ) ) ;
#76 = ORIENTED_EDGE ( 'NONE', *, *, #28, .F. ) ;
#77 = APPROVAL ( #199, 'UNSPECIFIED' ) ;
#78 = ORIENTED_EDGE ( 'NONE', *, *, #216, .F. ) ;
#79 = APPROVAL_PERSON_ORGANIZATION ( #182, #163, #81 ) ;
#80 = CC_DESIGN_APPROVAL ( #279, ( #52 ) ) ;
#81 = APPROVAL_ROLE ( '' ) ;
#82 = CARTESIAN_POINT ( 'NONE',  ( 3.491481338843133355E-14, 1.634999999999998677, 10.00000000000000000 ) ) ;
#83 = ORIENTED_EDGE ( 'NONE', *, *, #266, .T. ) ;
#84 = EDGE_LOOP ( 'NONE', ( #156 ) ) ;
#85 = CARTESIAN_POINT ( 'NONE',  ( -5.922026552567283352E-31, 2.077167298986671528E-32, -1.696135816819083025E-16 ) ) ;
#86 = CC_DESIGN_PERSON_AND_ORGANIZATION_ASSIGNMENT ( #154, #247, ( #165 ) ) ;
#87 = CARTESIAN_POINT ( 'NONE',  ( 3.491481338843133355E-14, -1.224646799147353256E-15, 10.00000000000000000 ) ) ;
#88 = DIRECTION ( 'NONE',  ( -3.491481338843133355E-15, 1.224646799147353207E-16, -1.000000000000000000 ) ) ;
#89 = APPROVAL_DATE_TIME ( #302, #279 ) ;
#90 = FACE_BOUND ( 'NONE', #289, .T. ) ;
#91 = CIRCLE ( 'NONE', #260, 1.500000000000001110 ) ;
#92 = FACE_BOUND ( 'NONE', #70, .T. ) ;
#93 = CARTESIAN_POINT ( 'NONE',  ( 2.433562493173664138E-13, -8.535788190057053710E-15, 69.70000000000001705 ) ) ;
#94 = FACE_OUTER_BOUND ( 'NONE', #108, .T. ) ;
#95 = VERTEX_POINT ( 'NONE', #67 ) ;
#96 = PLANE ( 'NONE',  #230 ) ;
#97 = ADVANCED_FACE ( 'NONE', ( #92, #59 ), #4, .T. ) ;
#98 = CARTESIAN_POINT ( 'NONE',  ( 2.444036937190193601E-13, 8.998558695971026591E-33, 70.00000000000000000 ) ) ;
#99 = CARTESIAN_POINT ( 'NONE',  ( 3.573121550322628496E-14, 1.499999999999991562, 10.23382685902181066 ) ) ;
#100 = EDGE_LOOP ( 'NONE', ( #240 ) ) ;
#101 = CC_DESIGN_PERSON_AND_ORGANIZATION_ASSIGNMENT ( #136, #228, ( #160 ) ) ;
#102 = PERSON_AND_ORGANIZATION_ROLE ( 'design_supplier' ) ;
#103 = DIRECTION ( 'NONE',  ( 1.000000000000000000, 0.0000000000000000000, 0.0000000000000000000 ) ) ;
#104 = MANIFOLD_SOLID_BREP ( 'Corps-Déplacer/Copier1[1]', #61 ) ;
#105 = CIRCLE ( 'NONE', #298, 1.635000000000000009 ) ;
#106 = PERSON_AND_ORGANIZATION ( #268, #38 ) ;
#107 = EDGE_LOOP ( 'NONE', ( #54 ) ) ;
#108 = EDGE_LOOP ( 'NONE', ( #248 ) ) ;
#109 = PRODUCT_RELATED_PRODUCT_CATEGORY ( 'detail', '', ( #27 ) ) ;
#110 = DESIGN_CONTEXT ( 'detailed design', #177, 'design' ) ;
#111 = CIRCLE ( 'NONE', #186, 1.635000000000000009 ) ;
#112 = DIRECTION ( 'NONE',  ( -3.491481338843133355E-15, 1.224646799147353207E-16, -1.000000000000000000 ) ) ;
#113 = EDGE_CURVE ( 'NONE', #95, #95, #111, .T. ) ;
#114 = FACE_OUTER_BOUND ( 'NONE', #196, .T. ) ;
#115 = DIRECTION ( 'NONE',  ( -3.491481338843133355E-15, 1.224646799147353207E-16, -1.000000000000000000 ) ) ;
#116 =( GEOMETRIC_REPRESENTATION_CONTEXT ( 3 ) GLOBAL_UNCERTAINTY_ASSIGNED_CONTEXT ( ( #19 ) ) GLOBAL_UNIT_ASSIGNED_CONTEXT ( ( #134, #7, #270 ) ) REPRESENTATION_CONTEXT ( 'NONE', 'WORKASPACE' ) );
#117 = DIRECTION ( 'NONE',  ( 0.0000000000000000000, 1.000000000000000000, 0.0000000000000000000 ) ) ;
#118 = DIRECTION ( 'NONE',  ( 0.0000000000000000000, 1.000000000000000000, 0.0000000000000000000 ) ) ;
#119 = ADVANCED_FACE ( 'NONE', ( #258, #141 ), #60, .T. ) ;
#120 = ORIENTED_EDGE ( 'NONE', *, *, #113, .F. ) ;
#121 = DIRECTION ( 'NONE',  ( 0.0000000000000000000, 1.000000000000000000, 0.0000000000000000000 ) ) ;
#122 = AXIS2_PLACEMENT_3D ( 'NONE', #87, #20, #137 ) ;
#123 = FACE_BOUND ( 'NONE', #51, .T. ) ;
#124 = PERSON_AND_ORGANIZATION_ROLE ( 'creator' ) ;
#125 = APPROVAL_ROLE ( '' ) ;
#126 = AXIS2_PLACEMENT_3D ( 'NONE', #24, #262, #219 ) ;
#127 = DIRECTION ( 'NONE',  ( 4.275831445896958607E-31, 1.000000000000000000, 1.224646799147353207E-16 ) ) ;
#128 = EDGE_CURVE ( 'NONE', #244, #244, #276, .T. ) ;
#129 = FACE_OUTER_BOUND ( 'NONE', #265, .T. ) ;
#130 = CARTESIAN_POINT ( 'NONE',  ( 2.444036937190193601E-13, 1.199999999999992628, 70.00000000000000000 ) ) ;
#131 = EDGE_LOOP ( 'NONE', ( #245 ) ) ;
#132 = CARTESIAN_POINT ( 'NONE',  ( 0.0000000000000000000, 0.0000000000000000000, 0.0000000000000000000 ) ) ;
#133 = AXIS2_PLACEMENT_3D ( 'NONE', #181, #252, #205 ) ;
#134 =( LENGTH_UNIT ( ) NAMED_UNIT ( * ) SI_UNIT ( .MILLI., .METRE. ) );
#135 = EDGE_LOOP ( 'NONE', ( #120 ) ) ;
#136 = PERSON_AND_ORGANIZATION ( #268, #38 ) ;
#137 = DIRECTION ( 'NONE',  ( 0.0000000000000000000, 1.000000000000000000, 0.0000000000000000000 ) ) ;
#138 = CARTESIAN_POINT ( 'NONE',  ( 8.728703347107827472E-16, -3.061616997868381169E-17, 0.2499999999999998335 ) ) ;
#139 = CONICAL_SURFACE ( 'NONE', #201, 1.384999999999999121, 0.7853981633974500554 ) ;
#140 = DIRECTION ( 'NONE',  ( -3.491481338843133355E-15, 1.224646799147353207E-16, -1.000000000000000000 ) ) ;
#141 = FACE_OUTER_BOUND ( 'NONE', #135, .T. ) ;
#142 = MANIFOLD_SOLID_BREP ( 'Corps-Déplacer/Copier1[2]', #235 ) ;
#143 = FACE_BOUND ( 'NONE', #131, .T. ) ;
#144 = AXIS2_PLACEMENT_3D ( 'NONE', #85, #277, #127 ) ;
#145 = CC_DESIGN_PERSON_AND_ORGANIZATION_ASSIGNMENT ( #46, #151, ( #27 ) ) ;
#146 = PLANE ( 'NONE',  #174 ) ;
#147 = AXIS2_PLACEMENT_3D ( 'NONE', #50, #195, #103 ) ;
#148 = ORIENTED_EDGE ( 'NONE', *, *, #169, .T. ) ;
#149 = DIRECTION ( 'NONE',  ( 0.0000000000000000000, 1.000000000000000000, 0.0000000000000000000 ) ) ;
#150 = ORIENTED_EDGE ( 'NONE', *, *, #300, .F. ) ;
#151 = PERSON_AND_ORGANIZATION_ROLE ( 'design_owner' ) ;
#152 = CARTESIAN_POINT ( 'NONE',  ( 3.491481338843133355E-14, 1.634999999999998677, 10.00000000000000000 ) ) ;
#153 = AXIS2_PLACEMENT_3D ( 'NONE', #132, #56, #15 ) ;
#154 = PERSON_AND_ORGANIZATION ( #268, #38 ) ;
#155 = VERTEX_POINT ( 'NONE', #152 ) ;
#156 = ORIENTED_EDGE ( 'NONE', *, *, #28, .T. ) ;
#157 = APPROVAL_STATUS ( 'not_yet_approved' ) ;
#158 = CC_DESIGN_PERSON_AND_ORGANIZATION_ASSIGNMENT ( #106, #102, ( #160 ) ) ;
#159 = CARTESIAN_POINT ( 'NONE',  ( 3.573121550322628496E-14, 1.499999999999991562, 10.23382685902181066 ) ) ;
#160 = PRODUCT_DEFINITION_FORMATION_WITH_SPECIFIED_SOURCE ( 'ANY', '', #27, .NOT_KNOWN. ) ;
#161 = APPROVAL_DATE_TIME ( #55, #163 ) ;
#162 = DIRECTION ( 'NONE',  ( -3.491481338843133355E-15, 1.224646799147353207E-16, -1.000000000000000000 ) ) ;
#163 = APPROVAL ( #290, 'UNSPECIFIED' ) ;
#164 = DIRECTION ( 'NONE',  ( 0.0000000000000000000, 1.000000000000000000, 0.0000000000000000000 ) ) ;
#165 = SECURITY_CLASSIFICATION ( '', '', #16 ) ;
#166 = CC_DESIGN_APPROVAL ( #77, ( #165 ) ) ;
#167 = CARTESIAN_POINT ( 'NONE',  ( 0.0000000000000000000, 0.0000000000000000000, 0.0000000000000000000 ) ) ;
#168 = CARTESIAN_POINT ( 'NONE',  ( 3.573121550322628496E-14, -1.253282330592927084E-15, 10.23382685902181066 ) ) ;
#169 = EDGE_CURVE ( 'NONE', #13, #13, #283, .T. ) ;
#170 = FACE_OUTER_BOUND ( 'NONE', #272, .T. ) ;
#171 = EDGE_LOOP ( 'NONE', ( #3 ) ) ;
#172 = ADVANCED_FACE ( 'NONE', ( #143, #114 ), #267, .T. ) ;
#173 = CARTESIAN_POINT ( 'NONE',  ( 3.491481338843133355E-14, -1.224646799147353256E-15, 10.00000000000000000 ) ) ;
#174 = AXIS2_PLACEMENT_3D ( 'NONE', #2, #233, #22 ) ;
#175 = VERTEX_POINT ( 'NONE', #82 ) ;
#176 = FACE_BOUND ( 'NONE', #25, .T. ) ;
#177 = APPLICATION_CONTEXT ( 'configuration controlled 3d designs of mechanical parts and assemblies' ) ;
#178 = ORIENTED_EDGE ( 'NONE', *, *, #169, .F. ) ;
#179 = CC_DESIGN_SECURITY_CLASSIFICATION ( #165, ( #160 ) ) ;
#180 = CALENDAR_DATE ( 2021, 2, 12 ) ;
#181 = CARTESIAN_POINT ( 'NONE',  ( 2.444036937190193601E-13, -8.572527594031472993E-15, 70.00000000000000000 ) ) ;
#182 = PERSON_AND_ORGANIZATION ( #268, #38 ) ;
#183 = APPROVAL_DATE_TIME ( #225, #77 ) ;
#184 = FACE_OUTER_BOUND ( 'NONE', #34, .T. ) ;
#185 = EDGE_LOOP ( 'NONE', ( #287 ) ) ;
#186 = AXIS2_PLACEMENT_3D ( 'NONE', #138, #229, #188 ) ;
#187 = EDGE_CURVE ( 'NONE', #155, #155, #69, .T. ) ;
#188 = DIRECTION ( 'NONE',  ( 4.711755215626264680E-31, 1.000000000000000000, 1.326241189584714790E-16 ) ) ;
#189 = CARTESIAN_POINT ( 'NONE',  ( 3.491481338843133355E-14, -1.224646799147353256E-15, 10.00000000000000000 ) ) ;
#190 = CARTESIAN_POINT ( 'NONE',  ( 0.0000000000000000000, 1.384999999999999121, 0.0000000000000000000 ) ) ;
#191 = AXIS2_PLACEMENT_3D ( 'NONE', #62, #208, #296 ) ;
#192 = DIRECTION ( 'NONE',  ( -4.275831445896958607E-31, -1.000000000000000000, -1.224646799147353207E-16 ) ) ;
#193 = CARTESIAN_POINT ( 'NONE',  ( -2.961013276283641676E-31, 1.038583649493335764E-32, -8.480679084095415123E-17 ) ) ;
#194 = LOCAL_TIME ( 10, 35, 28.00000000000000000, #250 ) ;
#195 = DIRECTION ( 'NONE',  ( 0.0000000000000000000, 0.0000000000000000000, 1.000000000000000000 ) ) ;
#196 = EDGE_LOOP ( 'NONE', ( #78 ) ) ;
#197 = DATE_AND_TIME ( #226, #36 ) ;
#198 = ORIENTED_EDGE ( 'NONE', *, *, #257, .T. ) ;
#199 = APPROVAL_STATUS ( 'not_yet_approved' ) ;
#200 = CC_DESIGN_PERSON_AND_ORGANIZATION_ASSIGNMENT ( #210, #124, ( #52 ) ) ;
#201 = AXIS2_PLACEMENT_3D ( 'NONE', #37, #209, #206 ) ;
#202 = APPLICATION_PROTOCOL_DEFINITION ( 'international standard', 'config_control_design', 1994, #213 ) ;
#203 = ORIENTED_EDGE ( 'NONE', *, *, #113, .T. ) ;
#204 = EDGE_LOOP ( 'NONE', ( #150 ) ) ;
#205 = DIRECTION ( 'NONE',  ( 0.0000000000000000000, 1.000000000000000000, 0.0000000000000000000 ) ) ;
#206 = DIRECTION ( 'NONE',  ( -4.275831445896958607E-31, -1.000000000000000000, -1.224646799147353207E-16 ) ) ;
#207 = ADVANCED_FACE ( 'NONE', ( #234 ), #146, .F. ) ;
#208 = DIRECTION ( 'NONE',  ( -3.491481338843133355E-15, 1.224646799147353207E-16, -1.000000000000000000 ) ) ;
#209 = DIRECTION ( 'NONE',  ( 3.491481338843133355E-15, -1.224646799147353207E-16, 1.000000000000000000 ) ) ;
#210 = PERSON_AND_ORGANIZATION ( #268, #38 ) ;
#211 = ADVANCED_FACE ( 'NONE', ( #170, #123 ), #227, .T. ) ;
#212 = AXIS2_PLACEMENT_3D ( 'NONE', #286, #42, #121 ) ;
#213 = APPLICATION_CONTEXT ( 'configuration controlled 3d designs of mechanical parts and assemblies' ) ;
#214 = PLANE ( 'NONE',  #29 ) ;
#215 = ORIENTED_EDGE ( 'NONE', *, *, #12, .F. ) ;
#216 = EDGE_CURVE ( 'NONE', #175, #175, #105, .T. ) ;
#217 = CARTESIAN_POINT ( 'NONE',  ( 2.444036937190193601E-13, -8.572527594031472993E-15, 70.00000000000000000 ) ) ;
#218 = LOCAL_TIME ( 10, 35, 28.00000000000000000, #5 ) ;
#219 = DIRECTION ( 'NONE',  ( 0.0000000000000000000, 1.000000000000000000, 0.0000000000000000000 ) ) ;
#220 = DIRECTION ( 'NONE',  ( 4.275831445896958607E-31, 1.000000000000000000, 1.224646799147353207E-16 ) ) ;
#221 = DIRECTION ( 'NONE',  ( 0.0000000000000000000, 1.000000000000000000, 0.0000000000000000000 ) ) ;
#222 = AXIS2_PLACEMENT_3D ( 'NONE', #189, #40, #117 ) ;
#223 = FACE_OUTER_BOUND ( 'NONE', #237, .T. ) ;
#224 = CYLINDRICAL_SURFACE ( 'NONE', #191, 1.499999999999996891 ) ;
#225 = DATE_AND_TIME ( #292, #71 ) ;
#226 = CALENDAR_DATE ( 2021, 2, 12 ) ;
#227 = CONICAL_SURFACE ( 'NONE', #126, 1.200000000000001510, 0.7853981633974566057 ) ;
#228 = PERSON_AND_ORGANIZATION_ROLE ( 'creator' ) ;
#229 = DIRECTION ( 'NONE',  ( -3.491481338843133355E-15, 1.224646799147353207E-16, -1.000000000000000000 ) ) ;
#230 = AXIS2_PLACEMENT_3D ( 'NONE', #193, #284, #220 ) ;
#231 = DIRECTION ( 'NONE',  ( 0.0000000000000000000, 1.000000000000000000, 0.0000000000000000000 ) ) ;
#232 = CARTESIAN_POINT ( 'NONE',  ( 3.491481338843133355E-14, -1.224646799147353256E-15, 10.00000000000000000 ) ) ;
#233 = DIRECTION ( 'NONE',  ( -3.491481338843133355E-15, 1.224646799147353207E-16, -1.000000000000000000 ) ) ;
#234 = FACE_OUTER_BOUND ( 'NONE', #73, .T. ) ;
#235 = CLOSED_SHELL ( 'NONE', ( #97, #119, #64, #285, #207, #211, #17 ) ) ;
#236 = DIRECTION ( 'NONE',  ( 4.275831445896958607E-31, 1.000000000000000000, 1.224646799147353207E-16 ) ) ;
#237 = EDGE_LOOP ( 'NONE', ( #178 ) ) ;
#238 = CC_DESIGN_DATE_AND_TIME_ASSIGNMENT ( #197, #294, ( #165 ) ) ;
#239 = CARTESIAN_POINT ( 'NONE',  ( 2.433562493173664138E-13, 1.499999999999992673, 69.70000000000001705 ) ) ;
#240 = ORIENTED_EDGE ( 'NONE', *, *, #257, .F. ) ;
#241 = APPLICATION_PROTOCOL_DEFINITION ( 'international standard', 'config_control_design', 1994, #177 ) ;
#242 = CYLINDRICAL_SURFACE ( 'NONE', #153, 1.499999999999996891 ) ;
#243 = AXIS2_PLACEMENT_3D ( 'NONE', #63, #259, #149 ) ;
#244 = VERTEX_POINT ( 'NONE', #159 ) ;
#245 = ORIENTED_EDGE ( 'NONE', *, *, #128, .T. ) ;
#246 = CALENDAR_DATE ( 2021, 2, 12 ) ;
#247 = PERSON_AND_ORGANIZATION_ROLE ( 'classification_officer' ) ;
#248 = ORIENTED_EDGE ( 'NONE', *, *, #12, .T. ) ;
#249 = ORIENTED_EDGE ( 'NONE', *, *, #128, .F. ) ;
#250 = COORDINATED_UNIVERSAL_TIME_OFFSET ( 1, 0, .AHEAD. ) ;
#251 = CIRCLE ( 'NONE', #243, 1.500000000000001110 ) ;
#252 = DIRECTION ( 'NONE',  ( -3.491481338843133355E-15, 1.224646799147353207E-16, -1.000000000000000000 ) ) ;
#253 = DIRECTION ( 'NONE',  ( 0.0000000000000000000, 1.000000000000000000, 0.0000000000000000000 ) ) ;
#254 = COORDINATED_UNIVERSAL_TIME_OFFSET ( 1, 0, .AHEAD. ) ;
#255 = APPROVAL_PERSON_ORGANIZATION ( #53, #279, #125 ) ;
#256 = CIRCLE ( 'NONE', #144, 1.384999999999999121 ) ;
#257 = EDGE_CURVE ( 'NONE', #32, #32, #35, .T. ) ;
#258 = FACE_OUTER_BOUND ( 'NONE', #185, .T. ) ;
#259 = DIRECTION ( 'NONE',  ( -3.491481338843133355E-15, 1.224646799147353207E-16, -1.000000000000000000 ) ) ;
#260 = AXIS2_PLACEMENT_3D ( 'NONE', #93, #162, #253 ) ;
#261 = ADVANCED_FACE ( 'NONE', ( #68 ), #264, .F. ) ;
#262 = DIRECTION ( 'NONE',  ( -3.491481338843133355E-15, 1.224646799147353207E-16, -1.000000000000000000 ) ) ;
#263 = CALENDAR_DATE ( 2021, 2, 12 ) ;
#264 = PLANE ( 'NONE',  #280 ) ;
#265 = EDGE_LOOP ( 'NONE', ( #293 ) ) ;
#266 = EDGE_CURVE ( 'NONE', #274, #274, #18, .T. ) ;
#267 = CONICAL_SURFACE ( 'NONE', #222, 1.635000000000000009, 0.5235987755983005920 ) ;
#268 = PERSON ( 'UNSPECIFIED', 'UNSPECIFIED', 'UNSPECIFIED', ('UNSPECIFIED'), ('UNSPECIFIED'), ('UNSPECIFIED') ) ;
#269 = ADVANCED_FACE ( 'NONE', ( #45 ), #214, .F. ) ;
#270 =( NAMED_UNIT ( * ) SI_UNIT ( $, .STERADIAN. ) SOLID_ANGLE_UNIT ( ) );
#271 = FACE_OUTER_BOUND ( 'NONE', #84, .T. ) ;
#272 = EDGE_LOOP ( 'NONE', ( #76 ) ) ;
#273 = APPROVAL_ROLE ( '' ) ;
#274 = VERTEX_POINT ( 'NONE', #130 ) ;
#275 = ORIENTED_EDGE ( 'NONE', *, *, #266, .F. ) ;
#276 = CIRCLE ( 'NONE', #41, 1.499999999999992895 ) ;
#277 = DIRECTION ( 'NONE',  ( -3.491481338843133355E-15, 1.224646799147353207E-16, -1.000000000000000000 ) ) ;
#278 = SHAPE_DEFINITION_REPRESENTATION ( #74, #30 ) ;
#279 = APPROVAL ( #157, 'UNSPECIFIED' ) ;
#280 = AXIS2_PLACEMENT_3D ( 'NONE', #98, #66, #236 ) ;
#281 = FACE_OUTER_BOUND ( 'NONE', #8, .T. ) ;
#282 = DIRECTION ( 'NONE',  ( -3.491481338843133355E-15, 1.224646799147353207E-16, -1.000000000000000000 ) ) ;
#283 = CIRCLE ( 'NONE', #10, 1.499999999999992895 ) ;
#284 = DIRECTION ( 'NONE',  ( -3.491481338843133355E-15, 1.224646799147353207E-16, -1.000000000000000000 ) ) ;
#285 = ADVANCED_FACE ( 'NONE', ( #94 ), #96, .T. ) ;
#286 = CARTESIAN_POINT ( 'NONE',  ( 2.444036937190193601E-13, -8.572527594031472993E-15, 70.00000000000000000 ) ) ;
#287 = ORIENTED_EDGE ( 'NONE', *, *, #187, .T. ) ;
#288 = LOCAL_TIME ( 10, 35, 28.00000000000000000, #254 ) ;
#289 = EDGE_LOOP ( 'NONE', ( #215 ) ) ;
#290 = APPROVAL_STATUS ( 'not_yet_approved' ) ;
#291 = CC_DESIGN_APPROVAL ( #163, ( #160 ) ) ;
#292 = CALENDAR_DATE ( 2021, 2, 12 ) ;
#293 = ORIENTED_EDGE ( 'NONE', *, *, #300, .T. ) ;
#294 = DATE_TIME_ROLE ( 'classification_date' ) ;
#295 = AXIS2_PLACEMENT_3D ( 'NONE', #217, #282, #118 ) ;
#296 = DIRECTION ( 'NONE',  ( 4.275831445896958607E-31, 1.000000000000000000, 1.224646799147353454E-16 ) ) ;
#297 = DIRECTION ( 'NONE',  ( 4.275831445896958607E-31, 1.000000000000000000, 1.224646799147353207E-16 ) ) ;
#298 = AXIS2_PLACEMENT_3D ( 'NONE', #173, #23, #221 ) ;
#299 = DIRECTION ( 'NONE',  ( 0.0000000000000000000, 1.000000000000000000, 0.0000000000000000000 ) ) ;
#300 = EDGE_CURVE ( 'NONE', #47, #47, #251, .T. ) ;
#301 = CARTESIAN_POINT ( 'NONE',  ( 3.491481338843133355E-14, 1.226053622326066596E-32, 10.00000000000000000 ) ) ;
#302 = DATE_AND_TIME ( #263, #218 ) ;
#303 = VERTEX_POINT ( 'NONE', #239 ) ;
ENDSEC;
END-ISO-10303-21;
