ISO-10303-21;
HEADER;
FILE_DESCRIPTION (( 'STEP AP203' ),
    '1' );
FILE_NAME ('321552.step',
    '2021-12-02T09:35:27',
    ( '' ),
    ( '' ),
    'SwSTEP 2.0',
    'SolidWorks 2019',
    '' );
FILE_SCHEMA (( 'CONFIG_CONTROL_DESIGN' ));
ENDSEC;

DATA;
#1 = CYLINDRICAL_SURFACE ( 'NONE', #127, 1.499999999999996891 ) ;
#2 = APPROVAL ( #215, 'UNSPECIFIED' ) ;
#3 = ORIENTED_EDGE ( 'NONE', *, *, #221, .T. ) ;
#4 = AXIS2_PLACEMENT_3D ( 'NONE', #297, #174, #172 ) ;
#5 = PERSON_AND_ORGANIZATION_ROLE ( 'design_owner' ) ;
#6 = COORDINATED_UNIVERSAL_TIME_OFFSET ( 1, 0, .AHEAD. ) ;
#7 = AXIS2_PLACEMENT_3D ( 'NONE', #211, #275, #300 ) ;
#8 = VERTEX_POINT ( 'NONE', #255 ) ;
#9 = ORIENTED_EDGE ( 'NONE', *, *, #159, .F. ) ;
#10 = CIRCLE ( 'NONE', #182, 1.499999999999992895 ) ;
#11 = DATE_AND_TIME ( #48, #249 ) ;
#12 = FACE_OUTER_BOUND ( 'NONE', #137, .T. ) ;
#13 = APPROVAL_PERSON_ORGANIZATION ( #245, #261, #46 ) ;
#14 = EDGE_CURVE ( 'NONE', #177, #177, #29, .T. ) ;
#15 = DIRECTION ( 'NONE',  ( 4.275831445896958607E-31, 1.000000000000000000, 1.224646799147353454E-16 ) ) ;
#16 = FACE_OUTER_BOUND ( 'NONE', #186, .T. ) ;
#17 = CONICAL_SURFACE ( 'NONE', #303, 1.200000000000001510, 0.7853981633974566057 ) ;
#18 = CARTESIAN_POINT ( 'NONE',  ( 0.0000000000000000000, 1.379999999999999005, 0.0000000000000000000 ) ) ;
#19 = ORIENTED_EDGE ( 'NONE', *, *, #276, .F. ) ;
#20 = VERTEX_POINT ( 'NONE', #89 ) ;
#21 = LOCAL_TIME ( 10, 35, 27.00000000000000000, #191 ) ;
#22 = ADVANCED_FACE ( 'NONE', ( #66, #231 ), #232, .T. ) ;
#23 = DIRECTION ( 'NONE',  ( 3.491481338843133355E-15, -1.224646799147353207E-16, 1.000000000000000000 ) ) ;
#24 = EDGE_LOOP ( 'NONE', ( #278 ) ) ;
#25 = CIRCLE ( 'NONE', #35, 1.500000000000001110 ) ;
#26 = CC_DESIGN_APPROVAL ( #298, ( #160 ) ) ;
#27 = CARTESIAN_POINT ( 'NONE',  ( 0.0000000000000000000, 0.0000000000000000000, 0.0000000000000000000 ) ) ;
#28 = AXIS2_PLACEMENT_3D ( 'NONE', #104, #199, #247 ) ;
#29 = CIRCLE ( 'NONE', #287, 1.499999999999992895 ) ;
#30 = FACE_OUTER_BOUND ( 'NONE', #99, .T. ) ;
#31 = DIRECTION ( 'NONE',  ( 0.0000000000000000000, 1.000000000000000000, 0.0000000000000000000 ) ) ;
#32 = ADVANCED_FACE ( 'NONE', ( #42 ), #190, .F. ) ;
#33 = FACE_BOUND ( 'NONE', #169, .T. ) ;
#34 = ADVANCED_FACE ( 'NONE', ( #237, #161 ), #246, .T. ) ;
#35 = AXIS2_PLACEMENT_3D ( 'NONE', #210, #205, #87 ) ;
#36 = PLANE ( 'NONE',  #7 ) ;
#37 = CC_DESIGN_PERSON_AND_ORGANIZATION_ASSIGNMENT ( #146, #70, ( #69 ) ) ;
#38 = DIRECTION ( 'NONE',  ( -3.491481338843133355E-15, 1.224646799147353207E-16, -1.000000000000000000 ) ) ;
#39 = ORIENTED_EDGE ( 'NONE', *, *, #217, .F. ) ;
#40 = MECHANICAL_CONTEXT ( 'NONE', #273, 'mechanical' ) ;
#41 = PERSON_AND_ORGANIZATION ( #269, #115 ) ;
#42 = FACE_OUTER_BOUND ( 'NONE', #291, .T. ) ;
#43 = ORIENTED_EDGE ( 'NONE', *, *, #61, .F. ) ;
#44 = DATE_AND_TIME ( #167, #78 ) ;
#45 = ORIENTED_EDGE ( 'NONE', *, *, #14, .F. ) ;
#46 = APPROVAL_ROLE ( '' ) ;
#47 = CLOSED_SHELL ( 'NONE', ( #79, #173, #34, #93, #139, #175, #111 ) ) ;
#48 = CALENDAR_DATE ( 2021, 2, 12 ) ;
#49 = DIRECTION ( 'NONE',  ( -3.491481338843133355E-15, 1.224646799147353207E-16, -1.000000000000000000 ) ) ;
#50 = CARTESIAN_POINT ( 'NONE',  ( -2.950323697668899757E-31, 1.034834250036681093E-32, -8.450062914116731977E-17 ) ) ;
#51 = CIRCLE ( 'NONE', #178, 1.200000000000001510 ) ;
#52 = DIRECTION ( 'NONE',  ( 4.275831445896959482E-31, 1.000000000000000000, 1.224646799147353454E-16 ) ) ;
#53 = CARTESIAN_POINT ( 'NONE',  ( 2.444036937190193601E-13, -8.572527594031472993E-15, 70.00000000000000000 ) ) ;
#54 = CALENDAR_DATE ( 2021, 2, 12 ) ;
#55 = CARTESIAN_POINT ( 'NONE',  ( 0.0000000000000000000, 0.0000000000000000000, 0.0000000000000000000 ) ) ;
#56 = COORDINATED_UNIVERSAL_TIME_OFFSET ( 1, 0, .AHEAD. ) ;
#57 = CC_DESIGN_PERSON_AND_ORGANIZATION_ASSIGNMENT ( #283, #5, ( #244 ) ) ;
#58 = CARTESIAN_POINT ( 'NONE',  ( 3.491481338843133355E-14, 1.629999999999998561, 10.00000000000000000 ) ) ;
#59 = FACE_OUTER_BOUND ( 'NONE', #24, .T. ) ;
#60 = ORIENTED_EDGE ( 'NONE', *, *, #14, .T. ) ;
#61 = EDGE_CURVE ( 'NONE', #220, #220, #51, .T. ) ;
#62 = PERSON_AND_ORGANIZATION ( #269, #115 ) ;
#63 = ORIENTED_EDGE ( 'NONE', *, *, #90, .F. ) ;
#64 = SHAPE_DEFINITION_REPRESENTATION ( #299, #103 ) ;
#65 = CARTESIAN_POINT ( 'NONE',  ( 2.444036937190193601E-13, 1.199999999999992628, 70.00000000000000000 ) ) ;
#66 = FACE_BOUND ( 'NONE', #122, .T. ) ;
#67 = CIRCLE ( 'NONE', #270, 1.629999999999999893 ) ;
#68 = ORIENTED_EDGE ( 'NONE', *, *, #143, .F. ) ;
#69 = PRODUCT_DEFINITION_FORMATION_WITH_SPECIFIED_SOURCE ( 'ANY', '', #244, .NOT_KNOWN. ) ;
#70 = PERSON_AND_ORGANIZATION_ROLE ( 'creator' ) ;
#71 = DATE_AND_TIME ( #185, #21 ) ;
#72 = ORIENTED_EDGE ( 'NONE', *, *, #221, .F. ) ;
#73 = VERTEX_POINT ( 'NONE', #65 ) ;
#74 = ORIENTED_EDGE ( 'NONE', *, *, #228, .T. ) ;
#75 = PERSON_AND_ORGANIZATION_ROLE ( 'classification_officer' ) ;
#76 = ORIENTED_EDGE ( 'NONE', *, *, #61, .T. ) ;
#77 = AXIS2_PLACEMENT_3D ( 'NONE', #163, #230, #96 ) ;
#78 = LOCAL_TIME ( 10, 35, 27.00000000000000000, #6 ) ;
#79 = ADVANCED_FACE ( 'NONE', ( #105, #30 ), #110, .T. ) ;
#80 = PLANE ( 'NONE',  #28 ) ;
#81 = DATE_TIME_ROLE ( 'classification_date' ) ;
#82 = FACE_OUTER_BOUND ( 'NONE', #121, .T. ) ;
#83 = COORDINATED_UNIVERSAL_TIME_OFFSET ( 1, 0, .AHEAD. ) ;
#84 = DIRECTION ( 'NONE',  ( -3.491481338843133355E-15, 1.224646799147353207E-16, -1.000000000000000000 ) ) ;
#85 = CARTESIAN_POINT ( 'NONE',  ( 3.491481338843133355E-14, -1.224646799147353256E-15, 10.00000000000000000 ) ) ;
#86 = CYLINDRICAL_SURFACE ( 'NONE', #94, 1.499999999999996891 ) ;
#87 = DIRECTION ( 'NONE',  ( 0.0000000000000000000, 1.000000000000000000, 0.0000000000000000000 ) ) ;
#88 = ORIENTED_EDGE ( 'NONE', *, *, #238, .T. ) ;
#89 = CARTESIAN_POINT ( 'NONE',  ( 3.570097838786351623E-14, 1.499999999999991562, 10.22516660498396668 ) ) ;
#90 = EDGE_CURVE ( 'NONE', #20, #20, #10, .T. ) ;
#91 = ORIENTED_EDGE ( 'NONE', *, *, #238, .F. ) ;
#92 = DIRECTION ( 'NONE',  ( 4.726208452484014557E-31, 1.000000000000000000, 1.330309414092643532E-16 ) ) ;
#93 = ADVANCED_FACE ( 'NONE', ( #126 ), #125, .T. ) ;
#94 = AXIS2_PLACEMENT_3D ( 'NONE', #27, #149, #218 ) ;
#95 = DIRECTION ( 'NONE',  ( -3.491481338843133355E-15, 1.224646799147353207E-16, -1.000000000000000000 ) ) ;
#96 = DIRECTION ( 'NONE',  ( 1.000000000000000000, 0.0000000000000000000, 0.0000000000000000000 ) ) ;
#97 = CARTESIAN_POINT ( 'NONE',  ( -5.900647395337799514E-31, 2.069668500073362185E-32, -1.690012582823346395E-16 ) ) ;
#98 = AXIS2_PLACEMENT_3D ( 'NONE', #108, #95, #92 ) ;
#99 = EDGE_LOOP ( 'NONE', ( #91 ) ) ;
#100 = ORIENTED_EDGE ( 'NONE', *, *, #143, .T. ) ;
#101 = AXIS2_PLACEMENT_3D ( 'NONE', #119, #117, #141 ) ;
#102 = CARTESIAN_POINT ( 'NONE',  ( 3.570097838786351623E-14, -1.252221755354202237E-15, 10.22516660498396668 ) ) ;
#103 = ADVANCED_BREP_SHAPE_REPRESENTATION ( '321552', ( #268, #262, #77 ), #201 ) ;
#104 = CARTESIAN_POINT ( 'NONE',  ( 2.444036937190193601E-13, -8.572527594031472993E-15, 70.00000000000000000 ) ) ;
#105 = FACE_BOUND ( 'NONE', #284, .T. ) ;
#106 = DIRECTION ( 'NONE',  ( -3.491481338843133355E-15, 1.224646799147353207E-16, -1.000000000000000000 ) ) ;
#107 = APPROVAL_ROLE ( '' ) ;
#108 = CARTESIAN_POINT ( 'NONE',  ( 8.728703347107827472E-16, -3.061616997868381169E-17, 0.2499999999999998335 ) ) ;
#109 = DIRECTION ( 'NONE',  ( -3.491481338843133355E-15, 1.224646799147353207E-16, -1.000000000000000000 ) ) ;
#110 = CONICAL_SURFACE ( 'NONE', #4, 1.629999999999999893, 0.5235987755982988157 ) ;
#111 = ADVANCED_FACE ( 'NONE', ( #295, #82 ), #86, .T. ) ;
#112 = APPROVAL_STATUS ( 'not_yet_approved' ) ;
#113 = DIRECTION ( 'NONE',  ( 0.0000000000000000000, 1.000000000000000000, 0.0000000000000000000 ) ) ;
#114 = DATE_TIME_ROLE ( 'creation_date' ) ;
#115 = ORGANIZATION ( 'UNSPECIFIED', 'UNSPECIFIED', '' ) ;
#116 = LOCAL_TIME ( 10, 35, 27.00000000000000000, #83 ) ;
#117 = DIRECTION ( 'NONE',  ( -3.491481338843133355E-15, 1.224646799147353207E-16, -1.000000000000000000 ) ) ;
#118 =( LENGTH_UNIT ( ) NAMED_UNIT ( * ) SI_UNIT ( .MILLI., .METRE. ) );
#119 = CARTESIAN_POINT ( 'NONE',  ( 2.444036937190193601E-13, 8.998558695971026591E-33, 70.00000000000000000 ) ) ;
#120 = CARTESIAN_POINT ( 'NONE',  ( 2.444036937190193601E-13, -8.572527594031472993E-15, 70.00000000000000000 ) ) ;
#121 = EDGE_LOOP ( 'NONE', ( #239 ) ) ;
#122 = EDGE_LOOP ( 'NONE', ( #60 ) ) ;
#123 = PRODUCT_DEFINITION ( 'UNKNOWN', '', #69, #148 ) ;
#124 = PERSON_AND_ORGANIZATION ( #269, #115 ) ;
#125 = PLANE ( 'NONE',  #208 ) ;
#126 = FACE_OUTER_BOUND ( 'NONE', #282, .T. ) ;
#127 = AXIS2_PLACEMENT_3D ( 'NONE', #55, #38, #15 ) ;
#128 = DIRECTION ( 'NONE',  ( 0.0000000000000000000, 1.000000000000000000, 0.0000000000000000000 ) ) ;
#129 = FACE_OUTER_BOUND ( 'NONE', #259, .T. ) ;
#130 = PRODUCT_RELATED_PRODUCT_CATEGORY ( 'detail', '', ( #244 ) ) ;
#131 = DIRECTION ( 'NONE',  ( -3.491481338843133355E-15, 1.224646799147353207E-16, -1.000000000000000000 ) ) ;
#132 = CIRCLE ( 'NONE', #144, 1.500000000000001110 ) ;
#133 = PERSON_AND_ORGANIZATION ( #269, #115 ) ;
#134 = DIRECTION ( 'NONE',  ( -3.491481338843133355E-15, 1.224646799147353207E-16, -1.000000000000000000 ) ) ;
#135 = EDGE_LOOP ( 'NONE', ( #9 ) ) ;
#136 = DIRECTION ( 'NONE',  ( 0.0000000000000000000, 1.000000000000000000, 0.0000000000000000000 ) ) ;
#137 = EDGE_LOOP ( 'NONE', ( #19 ) ) ;
#138 = APPROVAL_ROLE ( '' ) ;
#139 = ADVANCED_FACE ( 'NONE', ( #151 ), #80, .F. ) ;
#140 = APPLICATION_PROTOCOL_DEFINITION ( 'international standard', 'config_control_design', 1994, #241 ) ;
#141 = DIRECTION ( 'NONE',  ( 4.275831445896958607E-31, 1.000000000000000000, 1.224646799147353207E-16 ) ) ;
#142 = APPLICATION_PROTOCOL_DEFINITION ( 'international standard', 'config_control_design', 1994, #273 ) ;
#143 = EDGE_CURVE ( 'NONE', #179, #179, #258, .T. ) ;
#144 = AXIS2_PLACEMENT_3D ( 'NONE', #181, #227, #277 ) ;
#145 = LOCAL_TIME ( 10, 35, 27.00000000000000000, #56 ) ;
#146 = PERSON_AND_ORGANIZATION ( #269, #115 ) ;
#147 = CARTESIAN_POINT ( 'NONE',  ( -5.900647395337799514E-31, 2.069668500073362185E-32, -1.690012582823346395E-16 ) ) ;
#148 = DESIGN_CONTEXT ( 'detailed design', #241, 'design' ) ;
#149 = DIRECTION ( 'NONE',  ( -3.491481338843133355E-15, 1.224646799147353207E-16, -1.000000000000000000 ) ) ;
#150 = AXIS2_PLACEMENT_3D ( 'NONE', #147, #84, #52 ) ;
#151 = FACE_OUTER_BOUND ( 'NONE', #242, .T. ) ;
#152 = PERSON_AND_ORGANIZATION ( #269, #115 ) ;
#153 = CARTESIAN_POINT ( 'NONE',  ( 2.444036937190193601E-13, -8.572527594031472993E-15, 70.00000000000000000 ) ) ;
#154 = CARTESIAN_POINT ( 'NONE',  ( 3.570097838786351623E-14, 1.499999999999991562, 10.22516660498396668 ) ) ;
#155 = APPROVAL_PERSON_ORGANIZATION ( #41, #2, #138 ) ;
#156 = EDGE_LOOP ( 'NONE', ( #166 ) ) ;
#157 = DIRECTION ( 'NONE',  ( 0.0000000000000000000, 1.000000000000000000, 0.0000000000000000000 ) ) ;
#158 = AXIS2_PLACEMENT_3D ( 'NONE', #53, #302, #225 ) ;
#159 = EDGE_CURVE ( 'NONE', #209, #209, #196, .T. ) ;
#160 = SECURITY_CLASSIFICATION ( '', '', #240 ) ;
#161 = FACE_BOUND ( 'NONE', #192, .T. ) ;
#162 = CIRCLE ( 'NONE', #207, 1.200000000000001510 ) ;
#163 = CARTESIAN_POINT ( 'NONE',  ( 0.0000000000000000000, 0.0000000000000000000, 0.0000000000000000000 ) ) ;
#164 = CARTESIAN_POINT ( 'NONE',  ( 3.491481338843133355E-14, -1.224646799147353256E-15, 10.00000000000000000 ) ) ;
#165 = PERSON_AND_ORGANIZATION_ROLE ( 'design_supplier' ) ;
#166 = ORIENTED_EDGE ( 'NONE', *, *, #217, .T. ) ;
#167 = CALENDAR_DATE ( 2021, 2, 12 ) ;
#168 = VERTEX_POINT ( 'NONE', #187 ) ;
#169 = EDGE_LOOP ( 'NONE', ( #76 ) ) ;
#170 = AXIS2_PLACEMENT_3D ( 'NONE', #243, #197, #293 ) ;
#171 = EDGE_LOOP ( 'NONE', ( #3 ) ) ;
#172 = DIRECTION ( 'NONE',  ( 0.0000000000000000000, 1.000000000000000000, 0.0000000000000000000 ) ) ;
#173 = ADVANCED_FACE ( 'NONE', ( #216, #129 ), #219, .T. ) ;
#174 = DIRECTION ( 'NONE',  ( -3.491481338843133355E-15, 1.224646799147353207E-16, -1.000000000000000000 ) ) ;
#175 = ADVANCED_FACE ( 'NONE', ( #12, #271 ), #17, .T. ) ;
#176 = CC_DESIGN_PERSON_AND_ORGANIZATION_ASSIGNMENT ( #62, #252, ( #123 ) ) ;
#177 = VERTEX_POINT ( 'NONE', #154 ) ;
#178 = AXIS2_PLACEMENT_3D ( 'NONE', #120, #257, #289 ) ;
#179 = VERTEX_POINT ( 'NONE', #18 ) ;
#180 = ORIENTED_EDGE ( 'NONE', *, *, #228, .F. ) ;
#181 = CARTESIAN_POINT ( 'NONE',  ( 2.433562493173664138E-13, -8.535788190057053710E-15, 69.70000000000001705 ) ) ;
#182 = AXIS2_PLACEMENT_3D ( 'NONE', #102, #49, #128 ) ;
#183 = CC_DESIGN_SECURITY_CLASSIFICATION ( #160, ( #69 ) ) ;
#184 = DATE_AND_TIME ( #54, #145 ) ;
#185 = CALENDAR_DATE ( 2021, 2, 12 ) ;
#186 = EDGE_LOOP ( 'NONE', ( #74 ) ) ;
#187 = CARTESIAN_POINT ( 'NONE',  ( 2.433562493173664138E-13, 1.499999999999992673, 69.70000000000001705 ) ) ;
#188 = DIRECTION ( 'NONE',  ( -3.491481338843133355E-15, 1.224646799147353207E-16, -1.000000000000000000 ) ) ;
#189 = CC_DESIGN_DATE_AND_TIME_ASSIGNMENT ( #301, #114, ( #123 ) ) ;
#190 = PLANE ( 'NONE',  #101 ) ;
#191 = COORDINATED_UNIVERSAL_TIME_OFFSET ( 1, 0, .AHEAD. ) ;
#192 = EDGE_LOOP ( 'NONE', ( #68 ) ) ;
#193 = VERTEX_POINT ( 'NONE', #263 ) ;
#194 = DIRECTION ( 'NONE',  ( -3.491481338843133355E-15, 1.224646799147353207E-16, -1.000000000000000000 ) ) ;
#195 = EDGE_LOOP ( 'NONE', ( #45 ) ) ;
#196 = CIRCLE ( 'NONE', #265, 1.629999999999999893 ) ;
#197 = DIRECTION ( 'NONE',  ( -3.491481338843133355E-15, 1.224646799147353207E-16, -1.000000000000000000 ) ) ;
#198 = DIRECTION ( 'NONE',  ( 4.275831445896958607E-31, 1.000000000000000000, 1.224646799147353207E-16 ) ) ;
#199 = DIRECTION ( 'NONE',  ( -3.491481338843133355E-15, 1.224646799147353207E-16, -1.000000000000000000 ) ) ;
#200 = CALENDAR_DATE ( 2021, 2, 12 ) ;
#201 =( GEOMETRIC_REPRESENTATION_CONTEXT ( 3 ) GLOBAL_UNCERTAINTY_ASSIGNED_CONTEXT ( ( #294 ) ) GLOBAL_UNIT_ASSIGNED_CONTEXT ( ( #118, #214, #256 ) ) REPRESENTATION_CONTEXT ( 'NONE', 'WORKASPACE' ) );
#202 = ADVANCED_FACE ( 'NONE', ( #248, #16 ), #1, .T. ) ;
#203 = CARTESIAN_POINT ( 'NONE',  ( 2.444036937190193601E-13, -8.572527594031472993E-15, 70.00000000000000000 ) ) ;
#204 = CLOSED_SHELL ( 'NONE', ( #274, #22, #202, #290, #32 ) ) ;
#205 = DIRECTION ( 'NONE',  ( -3.491481338843133355E-15, 1.224646799147353207E-16, -1.000000000000000000 ) ) ;
#206 = EDGE_LOOP ( 'NONE', ( #180 ) ) ;
#207 = AXIS2_PLACEMENT_3D ( 'NONE', #203, #134, #136 ) ;
#208 = AXIS2_PLACEMENT_3D ( 'NONE', #50, #106, #198 ) ;
#209 = VERTEX_POINT ( 'NONE', #58 ) ;
#210 = CARTESIAN_POINT ( 'NONE',  ( 2.433562493173664138E-13, -8.535788190057053710E-15, 69.70000000000001705 ) ) ;
#211 = CARTESIAN_POINT ( 'NONE',  ( 3.491481338843133355E-14, 1.222304222869412062E-32, 10.00000000000000000 ) ) ;
#212 = DIRECTION ( 'NONE',  ( -4.275831445896959482E-31, -1.000000000000000000, -1.224646799147353454E-16 ) ) ;
#213 = ORIENTED_EDGE ( 'NONE', *, *, #90, .T. ) ;
#214 =( NAMED_UNIT ( * ) PLANE_ANGLE_UNIT ( ) SI_UNIT ( $, .RADIAN. ) );
#215 = APPROVAL_STATUS ( 'not_yet_approved' ) ;
#216 = FACE_OUTER_BOUND ( 'NONE', #226, .T. ) ;
#217 = EDGE_CURVE ( 'NONE', #8, #8, #223, .T. ) ;
#218 = DIRECTION ( 'NONE',  ( 4.275831445896958607E-31, 1.000000000000000000, 1.224646799147353454E-16 ) ) ;
#219 = CYLINDRICAL_SURFACE ( 'NONE', #170, 1.629999999999999893 ) ;
#220 = VERTEX_POINT ( 'NONE', #222 ) ;
#221 = EDGE_CURVE ( 'NONE', #73, #73, #162, .T. ) ;
#222 = CARTESIAN_POINT ( 'NONE',  ( 2.444036937190193601E-13, 1.199999999999992628, 70.00000000000000000 ) ) ;
#223 = CIRCLE ( 'NONE', #98, 1.629999999999999893 ) ;
#224 = CC_DESIGN_PERSON_AND_ORGANIZATION_ASSIGNMENT ( #152, #75, ( #160 ) ) ;
#225 = DIRECTION ( 'NONE',  ( 0.0000000000000000000, 1.000000000000000000, 0.0000000000000000000 ) ) ;
#226 = EDGE_LOOP ( 'NONE', ( #88 ) ) ;
#227 = DIRECTION ( 'NONE',  ( -3.491481338843133355E-15, 1.224646799147353207E-16, -1.000000000000000000 ) ) ;
#228 = EDGE_CURVE ( 'NONE', #168, #168, #132, .T. ) ;
#229 = EDGE_LOOP ( 'NONE', ( #63 ) ) ;
#230 = DIRECTION ( 'NONE',  ( 0.0000000000000000000, 0.0000000000000000000, 1.000000000000000000 ) ) ;
#231 = FACE_OUTER_BOUND ( 'NONE', #135, .T. ) ;
#232 = CONICAL_SURFACE ( 'NONE', #279, 1.629999999999999893, 0.5235987755982988157 ) ;
#233 = CC_DESIGN_APPROVAL ( #2, ( #123 ) ) ;
#234 = CARTESIAN_POINT ( 'NONE',  ( 3.491481338843133355E-14, 1.629999999999998561, 10.00000000000000000 ) ) ;
#235 = DIRECTION ( 'NONE',  ( 0.0000000000000000000, 1.000000000000000000, 0.0000000000000000000 ) ) ;
#236 = APPROVAL_STATUS ( 'not_yet_approved' ) ;
#237 = FACE_OUTER_BOUND ( 'NONE', #156, .T. ) ;
#238 = EDGE_CURVE ( 'NONE', #260, #260, #67, .T. ) ;
#239 = ORIENTED_EDGE ( 'NONE', *, *, #276, .T. ) ;
#240 = SECURITY_CLASSIFICATION_LEVEL ( 'unclassified' ) ;
#241 = APPLICATION_CONTEXT ( 'configuration controlled 3d designs of mechanical parts and assemblies' ) ;
#242 = EDGE_LOOP ( 'NONE', ( #72 ) ) ;
#243 = CARTESIAN_POINT ( 'NONE',  ( 0.0000000000000000000, 0.0000000000000000000, 0.0000000000000000000 ) ) ;
#244 = PRODUCT ( '321552', '321552', '', ( #40 ) ) ;
#245 = PERSON_AND_ORGANIZATION ( #269, #115 ) ;
#246 = CONICAL_SURFACE ( 'NONE', #292, 1.379999999999999005, 0.7853981633974500554 ) ;
#247 = DIRECTION ( 'NONE',  ( 4.275831445896958607E-31, 1.000000000000000000, 1.224646799147353207E-16 ) ) ;
#248 = FACE_OUTER_BOUND ( 'NONE', #195, .T. ) ;
#249 = LOCAL_TIME ( 10, 35, 27.00000000000000000, #266 ) ;
#250 = DIRECTION ( 'NONE',  ( -3.491481338843133355E-15, 1.224646799147353207E-16, -1.000000000000000000 ) ) ;
#251 = CC_DESIGN_PERSON_AND_ORGANIZATION_ASSIGNMENT ( #124, #165, ( #69 ) ) ;
#252 = PERSON_AND_ORGANIZATION_ROLE ( 'creator' ) ;
#253 = CARTESIAN_POINT ( 'NONE',  ( 3.491481338843133355E-14, -1.224646799147353256E-15, 10.00000000000000000 ) ) ;
#254 = APPROVAL_PERSON_ORGANIZATION ( #133, #298, #107 ) ;
#255 = CARTESIAN_POINT ( 'NONE',  ( 8.728703347107835360E-16, 1.629999999999999893, 0.2500000000000000555 ) ) ;
#256 =( NAMED_UNIT ( * ) SI_UNIT ( $, .STERADIAN. ) SOLID_ANGLE_UNIT ( ) );
#257 = DIRECTION ( 'NONE',  ( -3.491481338843133355E-15, 1.224646799147353207E-16, -1.000000000000000000 ) ) ;
#258 = CIRCLE ( 'NONE', #150, 1.379999999999999005 ) ;
#259 = EDGE_LOOP ( 'NONE', ( #39 ) ) ;
#260 = VERTEX_POINT ( 'NONE', #234 ) ;
#261 = APPROVAL ( #236, 'UNSPECIFIED' ) ;
#262 = MANIFOLD_SOLID_BREP ( 'Corps-Déplacer/Copier1[2]', #47 ) ;
#263 = CARTESIAN_POINT ( 'NONE',  ( 2.433562493173664138E-13, 1.499999999999992673, 69.70000000000001705 ) ) ;
#264 = DIRECTION ( 'NONE',  ( 0.0000000000000000000, 1.000000000000000000, 0.0000000000000000000 ) ) ;
#265 = AXIS2_PLACEMENT_3D ( 'NONE', #85, #131, #31 ) ;
#266 = COORDINATED_UNIVERSAL_TIME_OFFSET ( 1, 0, .AHEAD. ) ;
#267 = CARTESIAN_POINT ( 'NONE',  ( 3.570097838786351623E-14, -1.252221755354202237E-15, 10.22516660498396668 ) ) ;
#268 = MANIFOLD_SOLID_BREP ( 'Corps-Déplacer/Copier1[1]', #204 ) ;
#269 = PERSON ( 'UNSPECIFIED', 'UNSPECIFIED', 'UNSPECIFIED', ('UNSPECIFIED'), ('UNSPECIFIED'), ('UNSPECIFIED') ) ;
#270 = AXIS2_PLACEMENT_3D ( 'NONE', #253, #109, #113 ) ;
#271 = FACE_BOUND ( 'NONE', #171, .T. ) ;
#272 = FACE_OUTER_BOUND ( 'NONE', #206, .T. ) ;
#273 = APPLICATION_CONTEXT ( 'configuration controlled 3d designs of mechanical parts and assemblies' ) ;
#274 = ADVANCED_FACE ( 'NONE', ( #59 ), #36, .F. ) ;
#275 = DIRECTION ( 'NONE',  ( 3.491481338843133355E-15, -1.224646799147353207E-16, 1.000000000000000000 ) ) ;
#276 = EDGE_CURVE ( 'NONE', #193, #193, #25, .T. ) ;
#277 = DIRECTION ( 'NONE',  ( 0.0000000000000000000, 1.000000000000000000, 0.0000000000000000000 ) ) ;
#278 = ORIENTED_EDGE ( 'NONE', *, *, #159, .T. ) ;
#279 = AXIS2_PLACEMENT_3D ( 'NONE', #164, #188, #235 ) ;
#280 = CC_DESIGN_DATE_AND_TIME_ASSIGNMENT ( #11, #81, ( #160 ) ) ;
#281 = APPROVAL_DATE_TIME ( #71, #2 ) ;
#282 = EDGE_LOOP ( 'NONE', ( #100 ) ) ;
#283 = PERSON_AND_ORGANIZATION ( #269, #115 ) ;
#284 = EDGE_LOOP ( 'NONE', ( #213 ) ) ;
#285 = APPROVAL_DATE_TIME ( #184, #298 ) ;
#286 = APPROVAL_DATE_TIME ( #44, #261 ) ;
#287 = AXIS2_PLACEMENT_3D ( 'NONE', #267, #194, #264 ) ;
#288 = CC_DESIGN_APPROVAL ( #261, ( #69 ) ) ;
#289 = DIRECTION ( 'NONE',  ( 0.0000000000000000000, 1.000000000000000000, 0.0000000000000000000 ) ) ;
#290 = ADVANCED_FACE ( 'NONE', ( #272, #33 ), #296, .T. ) ;
#291 = EDGE_LOOP ( 'NONE', ( #43 ) ) ;
#292 = AXIS2_PLACEMENT_3D ( 'NONE', #97, #23, #212 ) ;
#293 = DIRECTION ( 'NONE',  ( 4.275831445896958607E-31, 1.000000000000000000, 1.224646799147353207E-16 ) ) ;
#294 = UNCERTAINTY_MEASURE_WITH_UNIT (LENGTH_MEASURE( 1.000000000000000082E-05 ), #118, 'distance_accuracy_value', 'NONE');
#295 = FACE_OUTER_BOUND ( 'NONE', #229, .T. ) ;
#296 = CONICAL_SURFACE ( 'NONE', #158, 1.200000000000001510, 0.7853981633974566057 ) ;
#297 = CARTESIAN_POINT ( 'NONE',  ( 3.491481338843133355E-14, -1.224646799147353256E-15, 10.00000000000000000 ) ) ;
#298 = APPROVAL ( #112, 'UNSPECIFIED' ) ;
#299 = PRODUCT_DEFINITION_SHAPE ( 'NONE', 'NONE',  #123 ) ;
#300 = DIRECTION ( 'NONE',  ( -4.275831445896958607E-31, -1.000000000000000000, -1.224646799147353207E-16 ) ) ;
#301 = DATE_AND_TIME ( #200, #116 ) ;
#302 = DIRECTION ( 'NONE',  ( -3.491481338843133355E-15, 1.224646799147353207E-16, -1.000000000000000000 ) ) ;
#303 = AXIS2_PLACEMENT_3D ( 'NONE', #153, #250, #157 ) ;
ENDSEC;
END-ISO-10303-21;
