ISO-10303-21;
HEADER;
FILE_DESCRIPTION (( 'STEP AP203' ),
    '1' );
FILE_NAME ('321551.step',
    '2021-12-02T09:35:26',
    ( '' ),
    ( '' ),
    'SwSTEP 2.0',
    'SolidWorks 2019',
    '' );
FILE_SCHEMA (( 'CONFIG_CONTROL_DESIGN' ));
ENDSEC;

DATA;
#1 = CIRCLE ( 'NONE', #139, 1.200000000000001510 ) ;
#2 =( NAMED_UNIT ( * ) SI_UNIT ( $, .STERADIAN. ) SOLID_ANGLE_UNIT ( ) );
#3 = FACE_BOUND ( 'NONE', #45, .T. ) ;
#4 = EDGE_LOOP ( 'NONE', ( #197 ) ) ;
#5 = CARTESIAN_POINT ( 'NONE',  ( 2.444036937190193601E-13, -8.572527594031472993E-15, 70.00000000000000000 ) ) ;
#6 = FACE_OUTER_BOUND ( 'NONE', #74, .T. ) ;
#7 = CARTESIAN_POINT ( 'NONE',  ( 2.433562493173664138E-13, 1.499999999999992673, 69.70000000000001705 ) ) ;
#8 = PERSON_AND_ORGANIZATION_ROLE ( 'design_supplier' ) ;
#9 = DIRECTION ( 'NONE',  ( 4.275831445896958607E-31, 1.000000000000000000, 1.224646799147353454E-16 ) ) ;
#10 = PERSON_AND_ORGANIZATION ( #85, #17 ) ;
#11 = DIRECTION ( 'NONE',  ( 0.0000000000000000000, 1.000000000000000000, 0.0000000000000000000 ) ) ;
#12 = APPROVAL_DATE_TIME ( #245, #103 ) ;
#13 = LOCAL_TIME ( 10, 35, 26.00000000000000000, #82 ) ;
#14 = FACE_OUTER_BOUND ( 'NONE', #54, .T. ) ;
#15 = EDGE_CURVE ( 'NONE', #203, #203, #198, .T. ) ;
#16 = CC_DESIGN_PERSON_AND_ORGANIZATION_ASSIGNMENT ( #10, #183, ( #260 ) ) ;
#17 = ORGANIZATION ( 'UNSPECIFIED', 'UNSPECIFIED', '' ) ;
#18 = DIRECTION ( 'NONE',  ( -3.491481338843133355E-15, 1.224646799147353207E-16, -1.000000000000000000 ) ) ;
#19 = ADVANCED_FACE ( 'NONE', ( #79 ), #83, .F. ) ;
#20 = CARTESIAN_POINT ( 'NONE',  ( 3.491481338843133355E-14, -1.224646799147353256E-15, 10.00000000000000000 ) ) ;
#21 = AXIS2_PLACEMENT_3D ( 'NONE', #220, #287, #194 ) ;
#22 = LOCAL_TIME ( 10, 35, 26.00000000000000000, #134 ) ;
#23 = EDGE_LOOP ( 'NONE', ( #127 ) ) ;
#24 = CONICAL_SURFACE ( 'NONE', #283, 1.625000000000000000, 0.5235987755983003700 ) ;
#25 = AXIS2_PLACEMENT_3D ( 'NONE', #212, #295, #185 ) ;
#26 = CARTESIAN_POINT ( 'NONE',  ( 3.491481338843133355E-14, 1.624999999999998668, 10.00000000000000000 ) ) ;
#27 = DATE_TIME_ROLE ( 'classification_date' ) ;
#28 = PRODUCT_DEFINITION_SHAPE ( 'NONE', 'NONE',  #260 ) ;
#29 = DIRECTION ( 'NONE',  ( -3.491481338843133355E-15, 1.224646799147353207E-16, -1.000000000000000000 ) ) ;
#30 = AXIS2_PLACEMENT_3D ( 'NONE', #233, #18, #44 ) ;
#31 = APPROVAL_ROLE ( '' ) ;
#32 = DIRECTION ( 'NONE',  ( 0.0000000000000000000, 1.000000000000000000, 0.0000000000000000000 ) ) ;
#33 = FACE_OUTER_BOUND ( 'NONE', #179, .T. ) ;
#34 = DIRECTION ( 'NONE',  ( -3.491481338843133355E-15, 1.224646799147353207E-16, -1.000000000000000000 ) ) ;
#35 = APPLICATION_PROTOCOL_DEFINITION ( 'international standard', 'config_control_design', 1994, #98 ) ;
#36 = CIRCLE ( 'NONE', #111, 1.625000000000000000 ) ;
#37 = EDGE_CURVE ( 'NONE', #262, #262, #226, .T. ) ;
#38 = CONICAL_SURFACE ( 'NONE', #170, 1.200000000000001510, 0.7853981633974566057 ) ;
#39 = CARTESIAN_POINT ( 'NONE',  ( 0.0000000000000000000, 1.374999999999999112, 0.0000000000000000000 ) ) ;
#40 = FACE_BOUND ( 'NONE', #121, .T. ) ;
#41 = CARTESIAN_POINT ( 'NONE',  ( 2.444036937190193601E-13, 1.199999999999992628, 70.00000000000000000 ) ) ;
#42 = ADVANCED_FACE ( 'NONE', ( #33, #135 ), #38, .T. ) ;
#43 = CLOSED_SHELL ( 'NONE', ( #19, #53, #117, #284, #93 ) ) ;
#44 = DIRECTION ( 'NONE',  ( 0.0000000000000000000, 1.000000000000000000, 0.0000000000000000000 ) ) ;
#45 = EDGE_LOOP ( 'NONE', ( #269 ) ) ;
#46 = CYLINDRICAL_SURFACE ( 'NONE', #231, 1.499999999999996891 ) ;
#47 = CARTESIAN_POINT ( 'NONE',  ( 3.491481338843133355E-14, 1.624999999999998668, 10.00000000000000000 ) ) ;
#48 = EDGE_LOOP ( 'NONE', ( #292 ) ) ;
#49 = AXIS2_PLACEMENT_3D ( 'NONE', #296, #155, #32 ) ;
#50 = CARTESIAN_POINT ( 'NONE',  ( 2.444036937190193601E-13, 8.998558695971026591E-33, 70.00000000000000000 ) ) ;
#51 = APPROVAL_DATE_TIME ( #276, #251 ) ;
#52 = CC_DESIGN_DATE_AND_TIME_ASSIGNMENT ( #107, #225, ( #260 ) ) ;
#53 = ADVANCED_FACE ( 'NONE', ( #114, #216 ), #92, .T. ) ;
#54 = EDGE_LOOP ( 'NONE', ( #299 ) ) ;
#55 = DATE_AND_TIME ( #247, #213 ) ;
#56 = ORIENTED_EDGE ( 'NONE', *, *, #69, .T. ) ;
#57 = AXIS2_PLACEMENT_3D ( 'NONE', #50, #246, #149 ) ;
#58 = SECURITY_CLASSIFICATION ( '', '', #205 ) ;
#59 = PERSON_AND_ORGANIZATION_ROLE ( 'creator' ) ;
#60 = DIRECTION ( 'NONE',  ( -4.275831445896958607E-31, -1.000000000000000000, -1.224646799147353207E-16 ) ) ;
#61 = CARTESIAN_POINT ( 'NONE',  ( 0.0000000000000000000, 0.0000000000000000000, 0.0000000000000000000 ) ) ;
#62 = APPLICATION_PROTOCOL_DEFINITION ( 'international standard', 'config_control_design', 1994, #190 ) ;
#63 = FACE_OUTER_BOUND ( 'NONE', #48, .T. ) ;
#64 = CC_DESIGN_PERSON_AND_ORGANIZATION_ASSIGNMENT ( #130, #153, ( #249 ) ) ;
#65 = DATE_AND_TIME ( #88, #148 ) ;
#66 = CARTESIAN_POINT ( 'NONE',  ( 8.728703347107827472E-16, -3.061616997868381169E-17, 0.2499999999999998335 ) ) ;
#67 = EDGE_CURVE ( 'NONE', #73, #73, #166, .T. ) ;
#68 = CIRCLE ( 'NONE', #178, 1.200000000000001510 ) ;
#69 = EDGE_CURVE ( 'NONE', #120, #120, #298, .T. ) ;
#70 = ORIENTED_EDGE ( 'NONE', *, *, #165, .T. ) ;
#71 = CARTESIAN_POINT ( 'NONE',  ( -2.939634119054156962E-31, 1.031084850580026421E-32, -8.419446744138047599E-17 ) ) ;
#72 = ADVANCED_FACE ( 'NONE', ( #221, #40 ), #255, .T. ) ;
#73 = VERTEX_POINT ( 'NONE', #200 ) ;
#74 = EDGE_LOOP ( 'NONE', ( #285 ) ) ;
#75 = EDGE_LOOP ( 'NONE', ( #70 ) ) ;
#76 = PERSON_AND_ORGANIZATION ( #85, #17 ) ;
#77 = FACE_OUTER_BOUND ( 'NONE', #131, .T. ) ;
#78 = APPROVAL_ROLE ( '' ) ;
#79 = FACE_OUTER_BOUND ( 'NONE', #244, .T. ) ;
#80 = DIRECTION ( 'NONE',  ( -3.491481338843133355E-15, 1.224646799147353207E-16, -1.000000000000000000 ) ) ;
#81 = DIRECTION ( 'NONE',  ( -3.491481338843133355E-15, 1.224646799147353207E-16, -1.000000000000000000 ) ) ;
#82 = COORDINATED_UNIVERSAL_TIME_OFFSET ( 1, 0, .AHEAD. ) ;
#83 = PLANE ( 'NONE',  #243 ) ;
#84 = AXIS2_PLACEMENT_3D ( 'NONE', #210, #80, #274 ) ;
#85 = PERSON ( 'UNSPECIFIED', 'UNSPECIFIED', 'UNSPECIFIED', ('UNSPECIFIED'), ('UNSPECIFIED'), ('UNSPECIFIED') ) ;
#86 = DIRECTION ( 'NONE',  ( 0.0000000000000000000, 1.000000000000000000, 0.0000000000000000000 ) ) ;
#87 = ADVANCED_FACE ( 'NONE', ( #202 ), #257, .F. ) ;
#88 = CALENDAR_DATE ( 2021, 2, 12 ) ;
#89 = ORIENTED_EDGE ( 'NONE', *, *, #230, .T. ) ;
#90 = CYLINDRICAL_SURFACE ( 'NONE', #275, 1.625000000000000000 ) ;
#91 = ADVANCED_BREP_SHAPE_REPRESENTATION ( '321551', ( #271, #164, #25 ), #236 ) ;
#92 = CONICAL_SURFACE ( 'NONE', #302, 1.625000000000000000, 0.5235987755983003700 ) ;
#93 = ADVANCED_FACE ( 'NONE', ( #118 ), #129, .F. ) ;
#94 = AXIS2_PLACEMENT_3D ( 'NONE', #71, #172, #242 ) ;
#95 = CC_DESIGN_SECURITY_CLASSIFICATION ( #58, ( #227 ) ) ;
#96 = CARTESIAN_POINT ( 'NONE',  ( 2.433562493173664138E-13, 1.499999999999992673, 69.70000000000001705 ) ) ;
#97 = PRODUCT_RELATED_PRODUCT_CATEGORY ( 'detail', '', ( #249 ) ) ;
#98 = APPLICATION_CONTEXT ( 'configuration controlled 3d designs of mechanical parts and assemblies' ) ;
#99 = DIRECTION ( 'NONE',  ( -3.491481338843133355E-15, 1.224646799147353207E-16, -1.000000000000000000 ) ) ;
#100 = VERTEX_POINT ( 'NONE', #26 ) ;
#101 = ORIENTED_EDGE ( 'NONE', *, *, #37, .T. ) ;
#102 = DESIGN_CONTEXT ( 'detailed design', #190, 'design' ) ;
#103 = APPROVAL ( #159, 'UNSPECIFIED' ) ;
#104 = AXIS2_PLACEMENT_3D ( 'NONE', #113, #133, #86 ) ;
#105 = DIRECTION ( 'NONE',  ( -3.491481338843133355E-15, 1.224646799147353207E-16, -1.000000000000000000 ) ) ;
#106 = ADVANCED_FACE ( 'NONE', ( #239 ), #288, .T. ) ;
#107 = DATE_AND_TIME ( #270, #22 ) ;
#108 = ORIENTED_EDGE ( 'NONE', *, *, #168, .F. ) ;
#109 = DIRECTION ( 'NONE',  ( 4.275831445896958607E-31, 1.000000000000000000, 1.224646799147353207E-16 ) ) ;
#110 = ADVANCED_FACE ( 'NONE', ( #6, #174 ), #46, .T. ) ;
#111 = AXIS2_PLACEMENT_3D ( 'NONE', #123, #240, #222 ) ;
#112 = CALENDAR_DATE ( 2021, 2, 12 ) ;
#113 = CARTESIAN_POINT ( 'NONE',  ( 3.491481338843133355E-14, -1.224646799147353256E-15, 10.00000000000000000 ) ) ;
#114 = FACE_BOUND ( 'NONE', #201, .T. ) ;
#115 = AXIS2_PLACEMENT_3D ( 'NONE', #301, #81, #211 ) ;
#116 = APPROVAL ( #132, 'UNSPECIFIED' ) ;
#117 = ADVANCED_FACE ( 'NONE', ( #14, #77 ), #278, .T. ) ;
#118 = FACE_OUTER_BOUND ( 'NONE', #160, .T. ) ;
#119 = CC_DESIGN_PERSON_AND_ORGANIZATION_ASSIGNMENT ( #293, #180, ( #58 ) ) ;
#120 = VERTEX_POINT ( 'NONE', #7 ) ;
#121 = EDGE_LOOP ( 'NONE', ( #145 ) ) ;
#122 = CARTESIAN_POINT ( 'NONE',  ( 2.433562493173664138E-13, -8.535788190057053710E-15, 69.70000000000001705 ) ) ;
#123 = CARTESIAN_POINT ( 'NONE',  ( 3.491481338843133355E-14, -1.224646799147353256E-15, 10.00000000000000000 ) ) ;
#124 = ORIENTED_EDGE ( 'NONE', *, *, #37, .F. ) ;
#125 = FACE_OUTER_BOUND ( 'NONE', #4, .T. ) ;
#126 = AXIS2_PLACEMENT_3D ( 'NONE', #122, #141, #193 ) ;
#127 = ORIENTED_EDGE ( 'NONE', *, *, #279, .F. ) ;
#128 = CARTESIAN_POINT ( 'NONE',  ( 3.567074127250074119E-14, 1.499999999999991562, 10.21650635094612092 ) ) ;
#129 = PLANE ( 'NONE',  #57 ) ;
#130 = PERSON_AND_ORGANIZATION ( #85, #17 ) ;
#131 = EDGE_LOOP ( 'NONE', ( #56 ) ) ;
#132 = APPROVAL_STATUS ( 'not_yet_approved' ) ;
#133 = DIRECTION ( 'NONE',  ( -3.491481338843133355E-15, 1.224646799147353207E-16, -1.000000000000000000 ) ) ;
#134 = COORDINATED_UNIVERSAL_TIME_OFFSET ( 1, 0, .AHEAD. ) ;
#135 = FACE_BOUND ( 'NONE', #291, .T. ) ;
#136 = DIRECTION ( 'NONE',  ( -3.491481338843133355E-15, 1.224646799147353207E-16, -1.000000000000000000 ) ) ;
#137 = DIRECTION ( 'NONE',  ( 0.0000000000000000000, 1.000000000000000000, 0.0000000000000000000 ) ) ;
#138 = CONICAL_SURFACE ( 'NONE', #21, 1.200000000000001510, 0.7853981633974566057 ) ;
#139 = AXIS2_PLACEMENT_3D ( 'NONE', #186, #281, #152 ) ;
#140 = ADVANCED_FACE ( 'NONE', ( #297, #63 ), #90, .T. ) ;
#141 = DIRECTION ( 'NONE',  ( -3.491481338843133355E-15, 1.224646799147353207E-16, -1.000000000000000000 ) ) ;
#142 = CARTESIAN_POINT ( 'NONE',  ( 8.728703347107835360E-16, 1.625000000000000000, 0.2500000000000000555 ) ) ;
#143 = CIRCLE ( 'NONE', #264, 1.625000000000000000 ) ;
#144 = VERTEX_POINT ( 'NONE', #41 ) ;
#145 = ORIENTED_EDGE ( 'NONE', *, *, #230, .F. ) ;
#146 = DIRECTION ( 'NONE',  ( -4.275831445896958607E-31, -1.000000000000000000, -1.224646799147353207E-16 ) ) ;
#147 = CLOSED_SHELL ( 'NONE', ( #176, #140, #72, #106, #87, #42, #110 ) ) ;
#148 = LOCAL_TIME ( 10, 35, 26.00000000000000000, #273 ) ;
#149 = DIRECTION ( 'NONE',  ( 4.275831445896958607E-31, 1.000000000000000000, 1.224646799147353207E-16 ) ) ;
#150 = PERSON_AND_ORGANIZATION ( #85, #17 ) ;
#151 = COORDINATED_UNIVERSAL_TIME_OFFSET ( 1, 0, .AHEAD. ) ;
#152 = DIRECTION ( 'NONE',  ( 0.0000000000000000000, 1.000000000000000000, 0.0000000000000000000 ) ) ;
#153 = PERSON_AND_ORGANIZATION_ROLE ( 'design_owner' ) ;
#154 = AXIS2_PLACEMENT_3D ( 'NONE', #250, #34, #137 ) ;
#155 = DIRECTION ( 'NONE',  ( -3.491481338843133355E-15, 1.224646799147353207E-16, -1.000000000000000000 ) ) ;
#156 = CC_DESIGN_APPROVAL ( #103, ( #260 ) ) ;
#157 = CARTESIAN_POINT ( 'NONE',  ( 0.0000000000000000000, 0.0000000000000000000, 0.0000000000000000000 ) ) ;
#158 = PERSON_AND_ORGANIZATION ( #85, #17 ) ;
#159 = APPROVAL_STATUS ( 'not_yet_approved' ) ;
#160 = EDGE_LOOP ( 'NONE', ( #108 ) ) ;
#161 = CARTESIAN_POINT ( 'NONE',  ( 3.491481338843133355E-14, -1.224646799147353256E-15, 10.00000000000000000 ) ) ;
#162 = DIRECTION ( 'NONE',  ( -3.491481338843133355E-15, 1.224646799147353207E-16, -1.000000000000000000 ) ) ;
#163 = AXIS2_PLACEMENT_3D ( 'NONE', #199, #265, #146 ) ;
#164 = MANIFOLD_SOLID_BREP ( 'Corps-Déplacer/Copier1[2]', #147 ) ;
#165 = EDGE_CURVE ( 'NONE', #261, #261, #191, .T. ) ;
#166 = CIRCLE ( 'NONE', #30, 1.499999999999992895 ) ;
#167 =( NAMED_UNIT ( * ) PLANE_ANGLE_UNIT ( ) SI_UNIT ( $, .RADIAN. ) );
#168 = EDGE_CURVE ( 'NONE', #144, #144, #1, .T. ) ;
#169 = DIRECTION ( 'NONE',  ( 0.0000000000000000000, 1.000000000000000000, 0.0000000000000000000 ) ) ;
#170 = AXIS2_PLACEMENT_3D ( 'NONE', #229, #136, #11 ) ;
#171 = APPROVAL_PERSON_ORGANIZATION ( #150, #251, #252 ) ;
#172 = DIRECTION ( 'NONE',  ( -3.491481338843133355E-15, 1.224646799147353207E-16, -1.000000000000000000 ) ) ;
#173 = EDGE_LOOP ( 'NONE', ( #195 ) ) ;
#174 = FACE_OUTER_BOUND ( 'NONE', #235, .T. ) ;
#175 = EDGE_LOOP ( 'NONE', ( #263 ) ) ;
#176 = ADVANCED_FACE ( 'NONE', ( #272, #248 ), #24, .T. ) ;
#177 = PERSON_AND_ORGANIZATION ( #85, #17 ) ;
#178 = AXIS2_PLACEMENT_3D ( 'NONE', #5, #99, #169 ) ;
#179 = EDGE_LOOP ( 'NONE', ( #124 ) ) ;
#180 = PERSON_AND_ORGANIZATION_ROLE ( 'classification_officer' ) ;
#181 = ORIENTED_EDGE ( 'NONE', *, *, #286, .T. ) ;
#182 = CC_DESIGN_PERSON_AND_ORGANIZATION_ASSIGNMENT ( #76, #8, ( #227 ) ) ;
#183 = PERSON_AND_ORGANIZATION_ROLE ( 'creator' ) ;
#184 = DIRECTION ( 'NONE',  ( -3.491481338843133355E-15, 1.224646799147353207E-16, -1.000000000000000000 ) ) ;
#185 = DIRECTION ( 'NONE',  ( 1.000000000000000000, 0.0000000000000000000, 0.0000000000000000000 ) ) ;
#186 = CARTESIAN_POINT ( 'NONE',  ( 2.444036937190193601E-13, -8.572527594031472993E-15, 70.00000000000000000 ) ) ;
#187 = APPROVAL_DATE_TIME ( #65, #116 ) ;
#188 = DIRECTION ( 'NONE',  ( 4.275831445896958607E-31, 1.000000000000000000, 1.224646799147353207E-16 ) ) ;
#189 = DIRECTION ( 'NONE',  ( -3.491481338843133355E-15, 1.224646799147353207E-16, -1.000000000000000000 ) ) ;
#190 = APPLICATION_CONTEXT ( 'configuration controlled 3d designs of mechanical parts and assemblies' ) ;
#191 = CIRCLE ( 'NONE', #154, 1.499999999999992895 ) ;
#192 = APPROVAL_PERSON_ORGANIZATION ( #177, #103, #31 ) ;
#193 = DIRECTION ( 'NONE',  ( 0.0000000000000000000, 1.000000000000000000, 0.0000000000000000000 ) ) ;
#194 = DIRECTION ( 'NONE',  ( 0.0000000000000000000, 1.000000000000000000, 0.0000000000000000000 ) ) ;
#195 = ORIENTED_EDGE ( 'NONE', *, *, #286, .F. ) ;
#196 = VERTEX_POINT ( 'NONE', #142 ) ;
#197 = ORIENTED_EDGE ( 'NONE', *, *, #69, .F. ) ;
#198 = CIRCLE ( 'NONE', #104, 1.625000000000000000 ) ;
#199 = CARTESIAN_POINT ( 'NONE',  ( -5.879268238108313924E-31, 2.062169701160052842E-32, -1.683889348827609520E-16 ) ) ;
#200 = CARTESIAN_POINT ( 'NONE',  ( 3.567074127250074119E-14, 1.499999999999991562, 10.21650635094612092 ) ) ;
#201 = EDGE_LOOP ( 'NONE', ( #219 ) ) ;
#202 = FACE_OUTER_BOUND ( 'NONE', #173, .T. ) ;
#203 = VERTEX_POINT ( 'NONE', #47 ) ;
#204 = ORIENTED_EDGE ( 'NONE', *, *, #279, .T. ) ;
#205 = SECURITY_CLASSIFICATION_LEVEL ( 'unclassified' ) ;
#206 = EDGE_LOOP ( 'NONE', ( #238 ) ) ;
#207 = COORDINATED_UNIVERSAL_TIME_OFFSET ( 1, 0, .AHEAD. ) ;
#208 = DIRECTION ( 'NONE',  ( 3.491481338843133355E-15, -1.224646799147353207E-16, 1.000000000000000000 ) ) ;
#209 = APPROVAL_STATUS ( 'not_yet_approved' ) ;
#210 = CARTESIAN_POINT ( 'NONE',  ( 0.0000000000000000000, 0.0000000000000000000, 0.0000000000000000000 ) ) ;
#211 = DIRECTION ( 'NONE',  ( 4.275831445896958607E-31, 1.000000000000000000, 1.224646799147353207E-16 ) ) ;
#212 = CARTESIAN_POINT ( 'NONE',  ( 0.0000000000000000000, 0.0000000000000000000, 0.0000000000000000000 ) ) ;
#213 = LOCAL_TIME ( 10, 35, 26.00000000000000000, #151 ) ;
#214 = SHAPE_DEFINITION_REPRESENTATION ( #28, #91 ) ;
#215 = DIRECTION ( 'NONE',  ( 0.0000000000000000000, 1.000000000000000000, 0.0000000000000000000 ) ) ;
#216 = FACE_OUTER_BOUND ( 'NONE', #23, .T. ) ;
#217 = CC_DESIGN_PERSON_AND_ORGANIZATION_ASSIGNMENT ( #224, #59, ( #227 ) ) ;
#218 =( LENGTH_UNIT ( ) NAMED_UNIT ( * ) SI_UNIT ( .MILLI., .METRE. ) );
#219 = ORIENTED_EDGE ( 'NONE', *, *, #67, .T. ) ;
#220 = CARTESIAN_POINT ( 'NONE',  ( 2.444036937190193601E-13, -8.572527594031472993E-15, 70.00000000000000000 ) ) ;
#221 = FACE_OUTER_BOUND ( 'NONE', #175, .T. ) ;
#222 = DIRECTION ( 'NONE',  ( 0.0000000000000000000, 1.000000000000000000, 0.0000000000000000000 ) ) ;
#223 = CARTESIAN_POINT ( 'NONE',  ( 2.444036937190193601E-13, 1.199999999999992628, 70.00000000000000000 ) ) ;
#224 = PERSON_AND_ORGANIZATION ( #85, #17 ) ;
#225 = DATE_TIME_ROLE ( 'creation_date' ) ;
#226 = CIRCLE ( 'NONE', #49, 1.500000000000001110 ) ;
#227 = PRODUCT_DEFINITION_FORMATION_WITH_SPECIFIED_SOURCE ( 'ANY', '', #249, .NOT_KNOWN. ) ;
#228 = CALENDAR_DATE ( 2021, 2, 12 ) ;
#229 = CARTESIAN_POINT ( 'NONE',  ( 2.444036937190193601E-13, -8.572527594031472993E-15, 70.00000000000000000 ) ) ;
#230 = EDGE_CURVE ( 'NONE', #289, #289, #267, .T. ) ;
#231 = AXIS2_PLACEMENT_3D ( 'NONE', #157, #184, #9 ) ;
#232 = EDGE_CURVE ( 'NONE', #196, #196, #143, .T. ) ;
#233 = CARTESIAN_POINT ( 'NONE',  ( 3.567074127250074119E-14, -1.251161180115477193E-15, 10.21650635094612092 ) ) ;
#234 = DIRECTION ( 'NONE',  ( 0.0000000000000000000, 1.000000000000000000, 0.0000000000000000000 ) ) ;
#235 = EDGE_LOOP ( 'NONE', ( #101 ) ) ;
#236 =( GEOMETRIC_REPRESENTATION_CONTEXT ( 3 ) GLOBAL_UNCERTAINTY_ASSIGNED_CONTEXT ( ( #259 ) ) GLOBAL_UNIT_ASSIGNED_CONTEXT ( ( #218, #167, #2 ) ) REPRESENTATION_CONTEXT ( 'NONE', 'WORKASPACE' ) );
#237 = CC_DESIGN_APPROVAL ( #251, ( #227 ) ) ;
#238 = ORIENTED_EDGE ( 'NONE', *, *, #15, .T. ) ;
#239 = FACE_OUTER_BOUND ( 'NONE', #294, .T. ) ;
#240 = DIRECTION ( 'NONE',  ( -3.491481338843133355E-15, 1.224646799147353207E-16, -1.000000000000000000 ) ) ;
#241 = ORIENTED_EDGE ( 'NONE', *, *, #15, .F. ) ;
#242 = DIRECTION ( 'NONE',  ( 4.275831445896958607E-31, 1.000000000000000000, 1.224646799147353207E-16 ) ) ;
#243 = AXIS2_PLACEMENT_3D ( 'NONE', #253, #208, #60 ) ;
#244 = EDGE_LOOP ( 'NONE', ( #204 ) ) ;
#245 = DATE_AND_TIME ( #228, #268 ) ;
#246 = DIRECTION ( 'NONE',  ( -3.491481338843133355E-15, 1.224646799147353207E-16, -1.000000000000000000 ) ) ;
#247 = CALENDAR_DATE ( 2021, 2, 12 ) ;
#248 = FACE_OUTER_BOUND ( 'NONE', #266, .T. ) ;
#249 = PRODUCT ( '321551', '321551', '', ( #280 ) ) ;
#250 = CARTESIAN_POINT ( 'NONE',  ( 3.567074127250074119E-14, -1.251161180115477193E-15, 10.21650635094612092 ) ) ;
#251 = APPROVAL ( #209, 'UNSPECIFIED' ) ;
#252 = APPROVAL_ROLE ( '' ) ;
#253 = CARTESIAN_POINT ( 'NONE',  ( 3.491481338843133355E-14, 1.218554823412757254E-32, 10.00000000000000000 ) ) ;
#254 = DIRECTION ( 'NONE',  ( -3.491481338843133355E-15, 1.224646799147353207E-16, -1.000000000000000000 ) ) ;
#255 = CONICAL_SURFACE ( 'NONE', #163, 1.374999999999999112, 0.7853981633974500554 ) ;
#256 = DIRECTION ( 'NONE',  ( 4.740750632337811128E-31, 1.000000000000000000, 1.334402673828313093E-16 ) ) ;
#257 = PLANE ( 'NONE',  #115 ) ;
#258 = AXIS2_PLACEMENT_3D ( 'NONE', #300, #105, #188 ) ;
#259 = UNCERTAINTY_MEASURE_WITH_UNIT (LENGTH_MEASURE( 1.000000000000000082E-05 ), #218, 'distance_accuracy_value', 'NONE');
#260 = PRODUCT_DEFINITION ( 'UNKNOWN', '', #227, #102 ) ;
#261 = VERTEX_POINT ( 'NONE', #128 ) ;
#262 = VERTEX_POINT ( 'NONE', #96 ) ;
#263 = ORIENTED_EDGE ( 'NONE', *, *, #232, .T. ) ;
#264 = AXIS2_PLACEMENT_3D ( 'NONE', #66, #162, #256 ) ;
#265 = DIRECTION ( 'NONE',  ( 3.491481338843133355E-15, -1.224646799147353207E-16, 1.000000000000000000 ) ) ;
#266 = EDGE_LOOP ( 'NONE', ( #241 ) ) ;
#267 = CIRCLE ( 'NONE', #258, 1.374999999999999112 ) ;
#268 = LOCAL_TIME ( 10, 35, 26.00000000000000000, #207 ) ;
#269 = ORIENTED_EDGE ( 'NONE', *, *, #168, .T. ) ;
#270 = CALENDAR_DATE ( 2021, 2, 12 ) ;
#271 = MANIFOLD_SOLID_BREP ( 'Corps-Déplacer/Copier1[1]', #43 ) ;
#272 = FACE_BOUND ( 'NONE', #75, .T. ) ;
#273 = COORDINATED_UNIVERSAL_TIME_OFFSET ( 1, 0, .AHEAD. ) ;
#274 = DIRECTION ( 'NONE',  ( 4.275831445896958607E-31, 1.000000000000000000, 1.224646799147353454E-16 ) ) ;
#275 = AXIS2_PLACEMENT_3D ( 'NONE', #61, #29, #109 ) ;
#276 = DATE_AND_TIME ( #112, #13 ) ;
#277 = CC_DESIGN_APPROVAL ( #116, ( #58 ) ) ;
#278 = CYLINDRICAL_SURFACE ( 'NONE', #84, 1.499999999999996891 ) ;
#279 = EDGE_CURVE ( 'NONE', #100, #100, #36, .T. ) ;
#280 = MECHANICAL_CONTEXT ( 'NONE', #98, 'mechanical' ) ;
#281 = DIRECTION ( 'NONE',  ( -3.491481338843133355E-15, 1.224646799147353207E-16, -1.000000000000000000 ) ) ;
#282 = CC_DESIGN_DATE_AND_TIME_ASSIGNMENT ( #55, #27, ( #58 ) ) ;
#283 = AXIS2_PLACEMENT_3D ( 'NONE', #161, #254, #215 ) ;
#284 = ADVANCED_FACE ( 'NONE', ( #125, #3 ), #138, .T. ) ;
#285 = ORIENTED_EDGE ( 'NONE', *, *, #165, .F. ) ;
#286 = EDGE_CURVE ( 'NONE', #290, #290, #68, .T. ) ;
#287 = DIRECTION ( 'NONE',  ( -3.491481338843133355E-15, 1.224646799147353207E-16, -1.000000000000000000 ) ) ;
#288 = PLANE ( 'NONE',  #94 ) ;
#289 = VERTEX_POINT ( 'NONE', #39 ) ;
#290 = VERTEX_POINT ( 'NONE', #223 ) ;
#291 = EDGE_LOOP ( 'NONE', ( #181 ) ) ;
#292 = ORIENTED_EDGE ( 'NONE', *, *, #232, .F. ) ;
#293 = PERSON_AND_ORGANIZATION ( #85, #17 ) ;
#294 = EDGE_LOOP ( 'NONE', ( #89 ) ) ;
#295 = DIRECTION ( 'NONE',  ( 0.0000000000000000000, 0.0000000000000000000, 1.000000000000000000 ) ) ;
#296 = CARTESIAN_POINT ( 'NONE',  ( 2.433562493173664138E-13, -8.535788190057053710E-15, 69.70000000000001705 ) ) ;
#297 = FACE_OUTER_BOUND ( 'NONE', #206, .T. ) ;
#298 = CIRCLE ( 'NONE', #126, 1.500000000000001110 ) ;
#299 = ORIENTED_EDGE ( 'NONE', *, *, #67, .F. ) ;
#300 = CARTESIAN_POINT ( 'NONE',  ( -5.879268238108313924E-31, 2.062169701160052842E-32, -1.683889348827609520E-16 ) ) ;
#301 = CARTESIAN_POINT ( 'NONE',  ( 2.444036937190193601E-13, -8.572527594031472993E-15, 70.00000000000000000 ) ) ;
#302 = AXIS2_PLACEMENT_3D ( 'NONE', #20, #189, #234 ) ;
#303 = APPROVAL_PERSON_ORGANIZATION ( #158, #116, #78 ) ;
ENDSEC;
END-ISO-10303-21;
