ISO-10303-21;
HEADER;
FILE_DESCRIPTION (( 'STEP AP203' ),
    '1' );
FILE_NAME ('321550.step',
    '2021-12-02T09:35:26',
    ( '' ),
    ( '' ),
    'SwSTEP 2.0',
    'SolidWorks 2019',
    '' );
FILE_SCHEMA (( 'CONFIG_CONTROL_DESIGN' ));
ENDSEC;

DATA;
#1 = EDGE_LOOP ( 'NONE', ( #269 ) ) ;
#2 = FACE_BOUND ( 'NONE', #144, .T. ) ;
#3 = CIRCLE ( 'NONE', #182, 1.500000000000001110 ) ;
#4 = VERTEX_POINT ( 'NONE', #288 ) ;
#5 = DIRECTION ( 'NONE',  ( -3.491481338843133355E-15, 1.224646799147353207E-16, -1.000000000000000000 ) ) ;
#6 = APPLICATION_CONTEXT ( 'configuration controlled 3d designs of mechanical parts and assemblies' ) ;
#7 = CARTESIAN_POINT ( 'NONE',  ( 0.0000000000000000000, 0.0000000000000000000, 0.0000000000000000000 ) ) ;
#8 = DATE_AND_TIME ( #238, #183 ) ;
#9 = EDGE_CURVE ( 'NONE', #260, #260, #74, .T. ) ;
#10 = EDGE_LOOP ( 'NONE', ( #115 ) ) ;
#11 = PERSON_AND_ORGANIZATION ( #143, #259 ) ;
#12 = FACE_OUTER_BOUND ( 'NONE', #25, .T. ) ;
#13 = ADVANCED_FACE ( 'NONE', ( #198, #45 ), #279, .T. ) ;
#14 = DESIGN_CONTEXT ( 'detailed design', #46, 'design' ) ;
#15 = AXIS2_PLACEMENT_3D ( 'NONE', #51, #83, #113 ) ;
#16 = DIRECTION ( 'NONE',  ( 0.0000000000000000000, 1.000000000000000000, 0.0000000000000000000 ) ) ;
#17 = CARTESIAN_POINT ( 'NONE',  ( 8.728703347107827472E-16, -3.061616997868381169E-17, 0.2499999999999998335 ) ) ;
#18 = CARTESIAN_POINT ( 'NONE',  ( 2.433562493173664138E-13, -8.535788190057053710E-15, 69.70000000000001705 ) ) ;
#19 = VERTEX_POINT ( 'NONE', #176 ) ;
#20 = DIRECTION ( 'NONE',  ( 4.275831445896958607E-31, 1.000000000000000000, 1.224646799147353454E-16 ) ) ;
#21 = AXIS2_PLACEMENT_3D ( 'NONE', #81, #56, #31 ) ;
#22 = CARTESIAN_POINT ( 'NONE',  ( 2.444036937190193601E-13, -8.572527594031472993E-15, 70.00000000000000000 ) ) ;
#23 = APPROVAL_DATE_TIME ( #208, #78 ) ;
#24 = CIRCLE ( 'NONE', #213, 1.620000000000000107 ) ;
#25 = EDGE_LOOP ( 'NONE', ( #214 ) ) ;
#26 = LOCAL_TIME ( 10, 35, 26.00000000000000000, #33 ) ;
#27 = APPROVAL_STATUS ( 'not_yet_approved' ) ;
#28 = DIRECTION ( 'NONE',  ( -3.491481338843133355E-15, 1.224646799147353207E-16, -1.000000000000000000 ) ) ;
#29 = FACE_OUTER_BOUND ( 'NONE', #59, .T. ) ;
#30 = DIRECTION ( 'NONE',  ( 1.000000000000000000, 0.0000000000000000000, 0.0000000000000000000 ) ) ;
#31 = DIRECTION ( 'NONE',  ( 0.0000000000000000000, 1.000000000000000000, 0.0000000000000000000 ) ) ;
#32 = ORIENTED_EDGE ( 'NONE', *, *, #145, .F. ) ;
#33 = COORDINATED_UNIVERSAL_TIME_OFFSET ( 1, 0, .AHEAD. ) ;
#34 = PERSON_AND_ORGANIZATION_ROLE ( 'creator' ) ;
#35 = EDGE_CURVE ( 'NONE', #67, #67, #199, .T. ) ;
#36 = CC_DESIGN_PERSON_AND_ORGANIZATION_ASSIGNMENT ( #205, #273, ( #148 ) ) ;
#37 = ORIENTED_EDGE ( 'NONE', *, *, #35, .F. ) ;
#38 = APPROVAL_ROLE ( '' ) ;
#39 = CARTESIAN_POINT ( 'NONE',  ( 0.0000000000000000000, 1.369999999999999218, 0.0000000000000000000 ) ) ;
#40 = CARTESIAN_POINT ( 'NONE',  ( 3.491481338843133355E-14, 1.619999999999998774, 10.00000000000000000 ) ) ;
#41 = CARTESIAN_POINT ( 'NONE',  ( -5.857889080878830086E-31, 2.054670902246744047E-32, -1.677766114831873137E-16 ) ) ;
#42 = ADVANCED_BREP_SHAPE_REPRESENTATION ( '321550', ( #247, #253, #157 ), #303 ) ;
#43 = DIRECTION ( 'NONE',  ( 4.275831445896958607E-31, 1.000000000000000000, 1.224646799147353207E-16 ) ) ;
#44 = CIRCLE ( 'NONE', #21, 1.200000000000001510 ) ;
#45 = FACE_BOUND ( 'NONE', #10, .T. ) ;
#46 = APPLICATION_CONTEXT ( 'configuration controlled 3d designs of mechanical parts and assemblies' ) ;
#47 = ADVANCED_FACE ( 'NONE', ( #289, #178 ), #215, .T. ) ;
#48 = APPLICATION_PROTOCOL_DEFINITION ( 'international standard', 'config_control_design', 1994, #6 ) ;
#49 = DIRECTION ( 'NONE',  ( -3.491481338843133355E-15, 1.224646799147353207E-16, -1.000000000000000000 ) ) ;
#50 = FACE_OUTER_BOUND ( 'NONE', #79, .T. ) ;
#51 = CARTESIAN_POINT ( 'NONE',  ( 2.444036937190193601E-13, -8.572527594031472993E-15, 70.00000000000000000 ) ) ;
#52 = CC_DESIGN_SECURITY_CLASSIFICATION ( #148, ( #177 ) ) ;
#53 = EDGE_CURVE ( 'NONE', #101, #101, #132, .T. ) ;
#54 = PERSON_AND_ORGANIZATION_ROLE ( 'design_owner' ) ;
#55 = DIRECTION ( 'NONE',  ( -3.491481338843133355E-15, 1.224646799147353207E-16, -1.000000000000000000 ) ) ;
#56 = DIRECTION ( 'NONE',  ( -3.491481338843133355E-15, 1.224646799147353207E-16, -1.000000000000000000 ) ) ;
#57 = EDGE_LOOP ( 'NONE', ( #281 ) ) ;
#58 = PERSON_AND_ORGANIZATION ( #143, #259 ) ;
#59 = EDGE_LOOP ( 'NONE', ( #140 ) ) ;
#60 = AXIS2_PLACEMENT_3D ( 'NONE', #234, #5, #20 ) ;
#61 = CALENDAR_DATE ( 2021, 2, 12 ) ;
#62 = CC_DESIGN_DATE_AND_TIME_ASSIGNMENT ( #298, #292, ( #222 ) ) ;
#63 = SHAPE_DEFINITION_REPRESENTATION ( #282, #42 ) ;
#64 = EDGE_LOOP ( 'NONE', ( #86 ) ) ;
#65 = DATE_TIME_ROLE ( 'classification_date' ) ;
#66 = EDGE_LOOP ( 'NONE', ( #37 ) ) ;
#67 = VERTEX_POINT ( 'NONE', #39 ) ;
#68 = PLANE ( 'NONE',  #146 ) ;
#69 = CIRCLE ( 'NONE', #186, 1.499999999999992895 ) ;
#70 = FACE_BOUND ( 'NONE', #66, .T. ) ;
#71 = FACE_OUTER_BOUND ( 'NONE', #250, .T. ) ;
#72 = DIRECTION ( 'NONE',  ( -3.491481338843133355E-15, 1.224646799147353207E-16, -1.000000000000000000 ) ) ;
#73 = VERTEX_POINT ( 'NONE', #147 ) ;
#74 = CIRCLE ( 'NONE', #82, 1.620000000000000107 ) ;
#75 = DIRECTION ( 'NONE',  ( 0.0000000000000000000, 1.000000000000000000, 0.0000000000000000000 ) ) ;
#76 = LOCAL_TIME ( 10, 35, 26.00000000000000000, #188 ) ;
#77 = APPROVAL_ROLE ( '' ) ;
#78 = APPROVAL ( #27, 'UNSPECIFIED' ) ;
#79 = EDGE_LOOP ( 'NONE', ( #211 ) ) ;
#80 = PLANE ( 'NONE',  #15 ) ;
#81 = CARTESIAN_POINT ( 'NONE',  ( 2.444036937190193601E-13, -8.572527594031472993E-15, 70.00000000000000000 ) ) ;
#82 = AXIS2_PLACEMENT_3D ( 'NONE', #17, #127, #193 ) ;
#83 = DIRECTION ( 'NONE',  ( -3.491481338843133355E-15, 1.224646799147353207E-16, -1.000000000000000000 ) ) ;
#84 = CARTESIAN_POINT ( 'NONE',  ( 3.491481338843133355E-14, -1.224646799147353256E-15, 10.00000000000000000 ) ) ;
#85 = ORIENTED_EDGE ( 'NONE', *, *, #251, .T. ) ;
#86 = ORIENTED_EDGE ( 'NONE', *, *, #134, .T. ) ;
#87 = APPROVAL_PERSON_ORGANIZATION ( #272, #181, #77 ) ;
#88 = CC_DESIGN_PERSON_AND_ORGANIZATION_ASSIGNMENT ( #58, #54, ( #261 ) ) ;
#89 = EDGE_LOOP ( 'NONE', ( #85 ) ) ;
#90 = CALENDAR_DATE ( 2021, 2, 12 ) ;
#91 = PERSON_AND_ORGANIZATION ( #143, #259 ) ;
#92 = PRODUCT_RELATED_PRODUCT_CATEGORY ( 'detail', '', ( #261 ) ) ;
#93 = CIRCLE ( 'NONE', #239, 1.500000000000001110 ) ;
#94 = CARTESIAN_POINT ( 'NONE',  ( 3.491481338843133355E-14, -1.224646799147353256E-15, 10.00000000000000000 ) ) ;
#95 = ADVANCED_FACE ( 'NONE', ( #71, #130 ), #173, .T. ) ;
#96 =( LENGTH_UNIT ( ) NAMED_UNIT ( * ) SI_UNIT ( .MILLI., .METRE. ) );
#97 = AXIS2_PLACEMENT_3D ( 'NONE', #226, #185, #210 ) ;
#98 = CARTESIAN_POINT ( 'NONE',  ( 2.433562493173664138E-13, 1.499999999999992673, 69.70000000000001705 ) ) ;
#99 = DIRECTION ( 'NONE',  ( 4.275831445896958607E-31, 1.000000000000000000, 1.224646799147353207E-16 ) ) ;
#100 = ADVANCED_FACE ( 'NONE', ( #2, #128 ), #224, .T. ) ;
#101 = VERTEX_POINT ( 'NONE', #129 ) ;
#102 = DIRECTION ( 'NONE',  ( 0.0000000000000000000, 1.000000000000000000, 0.0000000000000000000 ) ) ;
#103 = COORDINATED_UNIVERSAL_TIME_OFFSET ( 1, 0, .AHEAD. ) ;
#104 = APPROVAL_DATE_TIME ( #8, #181 ) ;
#105 = FACE_OUTER_BOUND ( 'NONE', #159, .T. ) ;
#106 = DIRECTION ( 'NONE',  ( 0.0000000000000000000, 1.000000000000000000, 0.0000000000000000000 ) ) ;
#107 =( NAMED_UNIT ( * ) SI_UNIT ( $, .STERADIAN. ) SOLID_ANGLE_UNIT ( ) );
#108 = DIRECTION ( 'NONE',  ( 0.0000000000000000000, 1.000000000000000000, 0.0000000000000000000 ) ) ;
#109 = SECURITY_CLASSIFICATION_LEVEL ( 'unclassified' ) ;
#110 = AXIS2_PLACEMENT_3D ( 'NONE', #264, #174, #102 ) ;
#111 = LOCAL_TIME ( 10, 35, 26.00000000000000000, #118 ) ;
#112 = DIRECTION ( 'NONE',  ( -4.275831445896958607E-31, -1.000000000000000000, -1.224646799147353454E-16 ) ) ;
#113 = DIRECTION ( 'NONE',  ( 4.275831445896958607E-31, 1.000000000000000000, 1.224646799147353207E-16 ) ) ;
#114 = EDGE_LOOP ( 'NONE', ( #252 ) ) ;
#115 = ORIENTED_EDGE ( 'NONE', *, *, #200, .T. ) ;
#116 = AXIS2_PLACEMENT_3D ( 'NONE', #201, #158, #218 ) ;
#117 = AXIS2_PLACEMENT_3D ( 'NONE', #240, #28, #108 ) ;
#118 = COORDINATED_UNIVERSAL_TIME_OFFSET ( 1, 0, .AHEAD. ) ;
#119 = ADVANCED_FACE ( 'NONE', ( #283 ), #68, .T. ) ;
#120 = CC_DESIGN_PERSON_AND_ORGANIZATION_ASSIGNMENT ( #300, #202, ( #177 ) ) ;
#121 = APPROVAL_DATE_TIME ( #277, #227 ) ;
#122 = FACE_OUTER_BOUND ( 'NONE', #191, .T. ) ;
#123 = AXIS2_PLACEMENT_3D ( 'NONE', #286, #195, #124 ) ;
#124 = DIRECTION ( 'NONE',  ( 0.0000000000000000000, 1.000000000000000000, 0.0000000000000000000 ) ) ;
#125 = DIRECTION ( 'NONE',  ( 0.0000000000000000000, 1.000000000000000000, 0.0000000000000000000 ) ) ;
#126 = VERTEX_POINT ( 'NONE', #98 ) ;
#127 = DIRECTION ( 'NONE',  ( -3.491481338843133355E-15, 1.224646799147353207E-16, -1.000000000000000000 ) ) ;
#128 = FACE_OUTER_BOUND ( 'NONE', #138, .T. ) ;
#129 = CARTESIAN_POINT ( 'NONE',  ( 3.491481338843133355E-14, 1.619999999999998774, 10.00000000000000000 ) ) ;
#130 = FACE_OUTER_BOUND ( 'NONE', #114, .T. ) ;
#131 = DIRECTION ( 'NONE',  ( 3.491481338843133355E-15, -1.224646799147353207E-16, 1.000000000000000000 ) ) ;
#132 = CIRCLE ( 'NONE', #165, 1.620000000000000107 ) ;
#133 = FACE_OUTER_BOUND ( 'NONE', #167, .T. ) ;
#134 = EDGE_CURVE ( 'NONE', #4, #4, #168, .T. ) ;
#135 = CYLINDRICAL_SURFACE ( 'NONE', #116, 1.499999999999996891 ) ;
#136 = CARTESIAN_POINT ( 'NONE',  ( 3.491481338843133355E-14, -1.224646799147353256E-15, 10.00000000000000000 ) ) ;
#137 = DIRECTION ( 'NONE',  ( -4.275831445896958607E-31, -1.000000000000000000, -1.224646799147353207E-16 ) ) ;
#138 = EDGE_LOOP ( 'NONE', ( #248 ) ) ;
#139 = APPROVAL_STATUS ( 'not_yet_approved' ) ;
#140 = ORIENTED_EDGE ( 'NONE', *, *, #278, .T. ) ;
#141 = AXIS2_PLACEMENT_3D ( 'NONE', #235, #150, #43 ) ;
#142 = EDGE_LOOP ( 'NONE', ( #225 ) ) ;
#143 = PERSON ( 'UNSPECIFIED', 'UNSPECIFIED', 'UNSPECIFIED', ('UNSPECIFIED'), ('UNSPECIFIED'), ('UNSPECIFIED') ) ;
#144 = EDGE_LOOP ( 'NONE', ( #241 ) ) ;
#145 = EDGE_CURVE ( 'NONE', #73, #73, #69, .T. ) ;
#146 = AXIS2_PLACEMENT_3D ( 'NONE', #170, #262, #99 ) ;
#147 = CARTESIAN_POINT ( 'NONE',  ( 3.564050415713796615E-14, 1.499999999999991562, 10.20784609690827871 ) ) ;
#148 = SECURITY_CLASSIFICATION ( '', '', #109 ) ;
#149 = ADVANCED_FACE ( 'NONE', ( #216, #70 ), #270, .T. ) ;
#150 = DIRECTION ( 'NONE',  ( -3.491481338843133355E-15, 1.224646799147353207E-16, -1.000000000000000000 ) ) ;
#151 = EDGE_CURVE ( 'NONE', #256, #256, #24, .T. ) ;
#152 = CC_DESIGN_DATE_AND_TIME_ASSIGNMENT ( #249, #65, ( #148 ) ) ;
#153 = CARTESIAN_POINT ( 'NONE',  ( 2.433562493173664138E-13, 1.499999999999992673, 69.70000000000001705 ) ) ;
#154 = DIRECTION ( 'NONE',  ( 0.0000000000000000000, 1.000000000000000000, 0.0000000000000000000 ) ) ;
#155 = FACE_BOUND ( 'NONE', #64, .T. ) ;
#156 = AXIS2_PLACEMENT_3D ( 'NONE', #295, #293, #179 ) ;
#157 = AXIS2_PLACEMENT_3D ( 'NONE', #7, #243, #30 ) ;
#158 = DIRECTION ( 'NONE',  ( -3.491481338843133355E-15, 1.224646799147353207E-16, -1.000000000000000000 ) ) ;
#159 = EDGE_LOOP ( 'NONE', ( #246 ) ) ;
#160 = COORDINATED_UNIVERSAL_TIME_OFFSET ( 1, 0, .AHEAD. ) ;
#161 = FACE_OUTER_BOUND ( 'NONE', #164, .T. ) ;
#162 = CALENDAR_DATE ( 2021, 2, 12 ) ;
#163 = DIRECTION ( 'NONE',  ( -3.491481338843133355E-15, 1.224646799147353207E-16, -1.000000000000000000 ) ) ;
#164 = EDGE_LOOP ( 'NONE', ( #237 ) ) ;
#165 = AXIS2_PLACEMENT_3D ( 'NONE', #94, #72, #175 ) ;
#166 = LOCAL_TIME ( 10, 35, 26.00000000000000000, #103 ) ;
#167 = EDGE_LOOP ( 'NONE', ( #32 ) ) ;
#168 = CIRCLE ( 'NONE', #275, 1.200000000000001510 ) ;
#169 = CC_DESIGN_PERSON_AND_ORGANIZATION_ASSIGNMENT ( #267, #34, ( #222 ) ) ;
#170 = CARTESIAN_POINT ( 'NONE',  ( -2.928944540439415043E-31, 1.027335451123372023E-32, -8.388830574159365685E-17 ) ) ;
#171 = CONICAL_SURFACE ( 'NONE', #117, 1.200000000000001510, 0.7853981633974566057 ) ;
#172 = CONICAL_SURFACE ( 'NONE', #285, 1.620000000000000107, 0.5235987755982992597 ) ;
#173 = CYLINDRICAL_SURFACE ( 'NONE', #60, 1.499999999999996891 ) ;
#174 = DIRECTION ( 'NONE',  ( -3.491481338843133355E-15, 1.224646799147353207E-16, -1.000000000000000000 ) ) ;
#175 = DIRECTION ( 'NONE',  ( 0.0000000000000000000, 1.000000000000000000, 0.0000000000000000000 ) ) ;
#176 = CARTESIAN_POINT ( 'NONE',  ( 3.564050415713796615E-14, 1.499999999999991562, 10.20784609690827871 ) ) ;
#177 = PRODUCT_DEFINITION_FORMATION_WITH_SPECIFIED_SOURCE ( 'ANY', '', #261, .NOT_KNOWN. ) ;
#178 = FACE_OUTER_BOUND ( 'NONE', #1, .T. ) ;
#179 = DIRECTION ( 'NONE',  ( 4.275831445896958607E-31, 1.000000000000000000, 1.224646799147353207E-16 ) ) ;
#180 = ADVANCED_FACE ( 'NONE', ( #133, #29 ), #135, .T. ) ;
#181 = APPROVAL ( #139, 'UNSPECIFIED' ) ;
#182 = AXIS2_PLACEMENT_3D ( 'NONE', #18, #223, #16 ) ;
#183 = LOCAL_TIME ( 10, 35, 26.00000000000000000, #160 ) ;
#184 = PERSON_AND_ORGANIZATION ( #143, #259 ) ;
#185 = DIRECTION ( 'NONE',  ( -3.491481338843133355E-15, 1.224646799147353207E-16, -1.000000000000000000 ) ) ;
#186 = AXIS2_PLACEMENT_3D ( 'NONE', #258, #230, #125 ) ;
#187 = EDGE_LOOP ( 'NONE', ( #280 ) ) ;
#188 = COORDINATED_UNIVERSAL_TIME_OFFSET ( 1, 0, .AHEAD. ) ;
#189 = AXIS2_PLACEMENT_3D ( 'NONE', #41, #232, #112 ) ;
#190 = CC_DESIGN_APPROVAL ( #227, ( #148 ) ) ;
#191 = EDGE_LOOP ( 'NONE', ( #228 ) ) ;
#192 = CARTESIAN_POINT ( 'NONE',  ( 8.728703347107835360E-16, 1.620000000000000107, 0.2500000000000000555 ) ) ;
#193 = DIRECTION ( 'NONE',  ( 4.755382578733915676E-31, 1.000000000000000000, 1.338521200599388187E-16 ) ) ;
#194 = DIRECTION ( 'NONE',  ( 4.275831445896958607E-31, 1.000000000000000000, 1.224646799147353454E-16 ) ) ;
#195 = DIRECTION ( 'NONE',  ( -3.491481338843133355E-15, 1.224646799147353207E-16, -1.000000000000000000 ) ) ;
#196 = VERTEX_POINT ( 'NONE', #153 ) ;
#197 = DIRECTION ( 'NONE',  ( -3.491481338843133355E-15, 1.224646799147353207E-16, -1.000000000000000000 ) ) ;
#198 = FACE_OUTER_BOUND ( 'NONE', #142, .T. ) ;
#199 = CIRCLE ( 'NONE', #290, 1.369999999999999218 ) ;
#200 = EDGE_CURVE ( 'NONE', #231, #231, #44, .T. ) ;
#201 = CARTESIAN_POINT ( 'NONE',  ( 0.0000000000000000000, 0.0000000000000000000, 0.0000000000000000000 ) ) ;
#202 = PERSON_AND_ORGANIZATION_ROLE ( 'creator' ) ;
#203 = PLANE ( 'NONE',  #284 ) ;
#204 = FACE_BOUND ( 'NONE', #89, .T. ) ;
#205 = PERSON_AND_ORGANIZATION ( #143, #259 ) ;
#206 = CC_DESIGN_APPROVAL ( #78, ( #177 ) ) ;
#207 = CC_DESIGN_PERSON_AND_ORGANIZATION_ASSIGNMENT ( #184, #294, ( #177 ) ) ;
#208 = DATE_AND_TIME ( #217, #26 ) ;
#209 = CARTESIAN_POINT ( 'NONE',  ( 2.433562493173664138E-13, -8.535788190057053710E-15, 69.70000000000001705 ) ) ;
#210 = DIRECTION ( 'NONE',  ( 0.0000000000000000000, 1.000000000000000000, 0.0000000000000000000 ) ) ;
#211 = ORIENTED_EDGE ( 'NONE', *, *, #134, .F. ) ;
#212 = ADVANCED_FACE ( 'NONE', ( #161 ), #203, .F. ) ;
#213 = AXIS2_PLACEMENT_3D ( 'NONE', #84, #163, #106 ) ;
#214 = ORIENTED_EDGE ( 'NONE', *, *, #200, .F. ) ;
#215 = CYLINDRICAL_SURFACE ( 'NONE', #141, 1.620000000000000107 ) ;
#216 = FACE_OUTER_BOUND ( 'NONE', #301, .T. ) ;
#217 = CALENDAR_DATE ( 2021, 2, 12 ) ;
#218 = DIRECTION ( 'NONE',  ( 4.275831445896958607E-31, 1.000000000000000000, 1.224646799147353454E-16 ) ) ;
#219 = APPLICATION_PROTOCOL_DEFINITION ( 'international standard', 'config_control_design', 1994, #46 ) ;
#220 = CIRCLE ( 'NONE', #97, 1.499999999999992895 ) ;
#221 = APPROVAL_PERSON_ORGANIZATION ( #11, #78, #236 ) ;
#222 = PRODUCT_DEFINITION ( 'UNKNOWN', '', #177, #14 ) ;
#223 = DIRECTION ( 'NONE',  ( -3.491481338843133355E-15, 1.224646799147353207E-16, -1.000000000000000000 ) ) ;
#224 = CONICAL_SURFACE ( 'NONE', #110, 1.620000000000000107, 0.5235987755982992597 ) ;
#225 = ORIENTED_EDGE ( 'NONE', *, *, #278, .F. ) ;
#226 = CARTESIAN_POINT ( 'NONE',  ( 3.564050415713796615E-14, -1.250100604876752543E-15, 10.20784609690827871 ) ) ;
#227 = APPROVAL ( #254, 'UNSPECIFIED' ) ;
#228 = ORIENTED_EDGE ( 'NONE', *, *, #151, .F. ) ;
#229 = CARTESIAN_POINT ( 'NONE',  ( -5.857889080878830086E-31, 2.054670902246744047E-32, -1.677766114831873137E-16 ) ) ;
#230 = DIRECTION ( 'NONE',  ( -3.491481338843133355E-15, 1.224646799147353207E-16, -1.000000000000000000 ) ) ;
#231 = VERTEX_POINT ( 'NONE', #263 ) ;
#232 = DIRECTION ( 'NONE',  ( 3.491481338843133355E-15, -1.224646799147353207E-16, 1.000000000000000000 ) ) ;
#233 = ADVANCED_FACE ( 'NONE', ( #12 ), #299, .F. ) ;
#234 = CARTESIAN_POINT ( 'NONE',  ( 0.0000000000000000000, 0.0000000000000000000, 0.0000000000000000000 ) ) ;
#235 = CARTESIAN_POINT ( 'NONE',  ( 0.0000000000000000000, 0.0000000000000000000, 0.0000000000000000000 ) ) ;
#236 = APPROVAL_ROLE ( '' ) ;
#237 = ORIENTED_EDGE ( 'NONE', *, *, #53, .T. ) ;
#238 = CALENDAR_DATE ( 2021, 2, 12 ) ;
#239 = AXIS2_PLACEMENT_3D ( 'NONE', #209, #49, #154 ) ;
#240 = CARTESIAN_POINT ( 'NONE',  ( 2.444036937190193601E-13, -8.572527594031472993E-15, 70.00000000000000000 ) ) ;
#241 = ORIENTED_EDGE ( 'NONE', *, *, #145, .T. ) ;
#242 = ADVANCED_FACE ( 'NONE', ( #50 ), #80, .F. ) ;
#243 = DIRECTION ( 'NONE',  ( 0.0000000000000000000, 0.0000000000000000000, 1.000000000000000000 ) ) ;
#244 = DIRECTION ( 'NONE',  ( 0.0000000000000000000, 1.000000000000000000, 0.0000000000000000000 ) ) ;
#245 = CARTESIAN_POINT ( 'NONE',  ( 3.491481338843133355E-14, 1.214805423956102993E-32, 10.00000000000000000 ) ) ;
#246 = ORIENTED_EDGE ( 'NONE', *, *, #274, .F. ) ;
#247 = MANIFOLD_SOLID_BREP ( 'Corps-Déplacer/Copier1[1]', #257 ) ;
#248 = ORIENTED_EDGE ( 'NONE', *, *, #53, .F. ) ;
#249 = DATE_AND_TIME ( #61, #76 ) ;
#250 = EDGE_LOOP ( 'NONE', ( #268 ) ) ;
#251 = EDGE_CURVE ( 'NONE', #19, #19, #220, .T. ) ;
#252 = ORIENTED_EDGE ( 'NONE', *, *, #274, .T. ) ;
#253 = MANIFOLD_SOLID_BREP ( 'Corps-Déplacer/Copier1[2]', #302 ) ;
#254 = APPROVAL_STATUS ( 'not_yet_approved' ) ;
#255 = UNCERTAINTY_MEASURE_WITH_UNIT (LENGTH_MEASURE( 1.000000000000000082E-05 ), #96, 'distance_accuracy_value', 'NONE');
#256 = VERTEX_POINT ( 'NONE', #40 ) ;
#257 = CLOSED_SHELL ( 'NONE', ( #212, #100, #180, #13, #233 ) ) ;
#258 = CARTESIAN_POINT ( 'NONE',  ( 3.564050415713796615E-14, -1.250100604876752543E-15, 10.20784609690827871 ) ) ;
#259 = ORGANIZATION ( 'UNSPECIFIED', 'UNSPECIFIED', '' ) ;
#260 = VERTEX_POINT ( 'NONE', #192 ) ;
#261 = PRODUCT ( '321550', '321550', '', ( #296 ) ) ;
#262 = DIRECTION ( 'NONE',  ( -3.491481338843133355E-15, 1.224646799147353207E-16, -1.000000000000000000 ) ) ;
#263 = CARTESIAN_POINT ( 'NONE',  ( 2.444036937190193601E-13, 1.199999999999992628, 70.00000000000000000 ) ) ;
#264 = CARTESIAN_POINT ( 'NONE',  ( 3.491481338843133355E-14, -1.224646799147353256E-15, 10.00000000000000000 ) ) ;
#265 =( NAMED_UNIT ( * ) PLANE_ANGLE_UNIT ( ) SI_UNIT ( $, .RADIAN. ) );
#266 = DIRECTION ( 'NONE',  ( -3.491481338843133355E-15, 1.224646799147353207E-16, -1.000000000000000000 ) ) ;
#267 = PERSON_AND_ORGANIZATION ( #143, #259 ) ;
#268 = ORIENTED_EDGE ( 'NONE', *, *, #251, .F. ) ;
#269 = ORIENTED_EDGE ( 'NONE', *, *, #9, .F. ) ;
#270 = CONICAL_SURFACE ( 'NONE', #189, 1.369999999999999218, 0.7853981633974500554 ) ;
#271 = APPROVAL_PERSON_ORGANIZATION ( #91, #227, #38 ) ;
#272 = PERSON_AND_ORGANIZATION ( #143, #259 ) ;
#273 = PERSON_AND_ORGANIZATION_ROLE ( 'classification_officer' ) ;
#274 = EDGE_CURVE ( 'NONE', #126, #126, #3, .T. ) ;
#275 = AXIS2_PLACEMENT_3D ( 'NONE', #22, #197, #75 ) ;
#276 = ADVANCED_FACE ( 'NONE', ( #204, #122 ), #172, .T. ) ;
#277 = DATE_AND_TIME ( #90, #111 ) ;
#278 = EDGE_CURVE ( 'NONE', #196, #196, #93, .T. ) ;
#279 = CONICAL_SURFACE ( 'NONE', #123, 1.200000000000001510, 0.7853981633974566057 ) ;
#280 = ORIENTED_EDGE ( 'NONE', *, *, #151, .T. ) ;
#281 = ORIENTED_EDGE ( 'NONE', *, *, #35, .T. ) ;
#282 = PRODUCT_DEFINITION_SHAPE ( 'NONE', 'NONE',  #222 ) ;
#283 = FACE_OUTER_BOUND ( 'NONE', #57, .T. ) ;
#284 = AXIS2_PLACEMENT_3D ( 'NONE', #245, #131, #137 ) ;
#285 = AXIS2_PLACEMENT_3D ( 'NONE', #136, #55, #244 ) ;
#286 = CARTESIAN_POINT ( 'NONE',  ( 2.444036937190193601E-13, -8.572527594031472993E-15, 70.00000000000000000 ) ) ;
#287 = ADVANCED_FACE ( 'NONE', ( #105, #155 ), #171, .T. ) ;
#288 = CARTESIAN_POINT ( 'NONE',  ( 2.444036937190193601E-13, 1.199999999999992628, 70.00000000000000000 ) ) ;
#289 = FACE_OUTER_BOUND ( 'NONE', #187, .T. ) ;
#290 = AXIS2_PLACEMENT_3D ( 'NONE', #229, #266, #194 ) ;
#291 = CC_DESIGN_APPROVAL ( #181, ( #222 ) ) ;
#292 = DATE_TIME_ROLE ( 'creation_date' ) ;
#293 = DIRECTION ( 'NONE',  ( -3.491481338843133355E-15, 1.224646799147353207E-16, -1.000000000000000000 ) ) ;
#294 = PERSON_AND_ORGANIZATION_ROLE ( 'design_supplier' ) ;
#295 = CARTESIAN_POINT ( 'NONE',  ( 2.444036937190193601E-13, 8.998558695971026591E-33, 70.00000000000000000 ) ) ;
#296 = MECHANICAL_CONTEXT ( 'NONE', #6, 'mechanical' ) ;
#297 = ORIENTED_EDGE ( 'NONE', *, *, #9, .T. ) ;
#298 = DATE_AND_TIME ( #162, #166 ) ;
#299 = PLANE ( 'NONE',  #156 ) ;
#300 = PERSON_AND_ORGANIZATION ( #143, #259 ) ;
#301 = EDGE_LOOP ( 'NONE', ( #297 ) ) ;
#302 = CLOSED_SHELL ( 'NONE', ( #276, #47, #149, #119, #242, #287, #95 ) ) ;
#303 =( GEOMETRIC_REPRESENTATION_CONTEXT ( 3 ) GLOBAL_UNCERTAINTY_ASSIGNED_CONTEXT ( ( #255 ) ) GLOBAL_UNIT_ASSIGNED_CONTEXT ( ( #96, #265, #107 ) ) REPRESENTATION_CONTEXT ( 'NONE', 'WORKASPACE' ) );
ENDSEC;
END-ISO-10303-21;
