ISO-10303-21;
HEADER;
FILE_DESCRIPTION (( 'STEP AP203' ),
    '1' );
FILE_NAME ('321549.step',
    '2021-12-02T09:35:25',
    ( '' ),
    ( '' ),
    'SwSTEP 2.0',
    'SolidWorks 2019',
    '' );
FILE_SCHEMA (( 'CONFIG_CONTROL_DESIGN' ));
ENDSEC;

DATA;
#1 = PRODUCT_RELATED_PRODUCT_CATEGORY ( 'detail', '', ( #189 ) ) ;
#2 = CONICAL_SURFACE ( 'NONE', #155, 1.200000000000001510, 0.7853981633974566057 ) ;
#3 = CC_DESIGN_APPROVAL ( #114, ( #239 ) ) ;
#4 = FACE_BOUND ( 'NONE', #188, .T. ) ;
#5 = EDGE_CURVE ( 'NONE', #36, #36, #104, .T. ) ;
#6 = DIRECTION ( 'NONE',  ( -3.491481338843133355E-15, 1.224646799147353207E-16, -1.000000000000000000 ) ) ;
#7 = AXIS2_PLACEMENT_3D ( 'NONE', #290, #286, #126 ) ;
#8 = EDGE_LOOP ( 'NONE', ( #152 ) ) ;
#9 = ADVANCED_FACE ( 'NONE', ( #41, #4 ), #303, .T. ) ;
#10 = CARTESIAN_POINT ( 'NONE',  ( 2.433562493173664138E-13, 1.499999999999992673, 69.70000000000001705 ) ) ;
#11 = FACE_OUTER_BOUND ( 'NONE', #8, .T. ) ;
#12 = VERTEX_POINT ( 'NONE', #291 ) ;
#13 = ADVANCED_FACE ( 'NONE', ( #145, #285 ), #98, .T. ) ;
#14 = EDGE_LOOP ( 'NONE', ( #205 ) ) ;
#15 = APPROVAL_DATE_TIME ( #181, #204 ) ;
#16 = CALENDAR_DATE ( 2021, 2, 12 ) ;
#17 = PERSON_AND_ORGANIZATION ( #62, #183 ) ;
#18 = FACE_OUTER_BOUND ( 'NONE', #132, .T. ) ;
#19 = AXIS2_PLACEMENT_3D ( 'NONE', #229, #214, #231 ) ;
#20 = AXIS2_PLACEMENT_3D ( 'NONE', #217, #81, #31 ) ;
#21 = EDGE_CURVE ( 'NONE', #195, #195, #58, .T. ) ;
#22 = ORIENTED_EDGE ( 'NONE', *, *, #161, .T. ) ;
#23 = PERSON_AND_ORGANIZATION ( #62, #183 ) ;
#24 = CARTESIAN_POINT ( 'NONE',  ( 0.0000000000000000000, 0.0000000000000000000, 0.0000000000000000000 ) ) ;
#25 = EDGE_CURVE ( 'NONE', #105, #105, #141, .T. ) ;
#26 =( NAMED_UNIT ( * ) PLANE_ANGLE_UNIT ( ) SI_UNIT ( $, .RADIAN. ) );
#27 = CIRCLE ( 'NONE', #209, 1.500000000000001110 ) ;
#28 = FACE_OUTER_BOUND ( 'NONE', #89, .T. ) ;
#29 = CARTESIAN_POINT ( 'NONE',  ( 2.444036937190193601E-13, 1.199999999999992628, 70.00000000000000000 ) ) ;
#30 = DIRECTION ( 'NONE',  ( 0.0000000000000000000, 0.0000000000000000000, 1.000000000000000000 ) ) ;
#31 = DIRECTION ( 'NONE',  ( 4.275831445896958607E-31, 1.000000000000000000, 1.224646799147353207E-16 ) ) ;
#32 = VERTEX_POINT ( 'NONE', #38 ) ;
#33 = CLOSED_SHELL ( 'NONE', ( #300, #13, #166, #9, #47 ) ) ;
#34 = LOCAL_TIME ( 10, 35, 25.00000000000000000, #246 ) ;
#35 = CARTESIAN_POINT ( 'NONE',  ( 3.561026704177518479E-14, -1.249040029638027499E-15, 10.19918584287043295 ) ) ;
#36 = VERTEX_POINT ( 'NONE', #29 ) ;
#37 = SHAPE_DEFINITION_REPRESENTATION ( #71, #277 ) ;
#38 = CARTESIAN_POINT ( 'NONE',  ( 3.491481338843133355E-14, 1.614999999999998659, 10.00000000000000000 ) ) ;
#39 = AXIS2_PLACEMENT_3D ( 'NONE', #238, #6, #83 ) ;
#40 = AXIS2_PLACEMENT_3D ( 'NONE', #35, #129, #169 ) ;
#41 = FACE_OUTER_BOUND ( 'NONE', #57, .T. ) ;
#42 = CALENDAR_DATE ( 2021, 2, 12 ) ;
#43 = PERSON_AND_ORGANIZATION ( #62, #183 ) ;
#44 = ORIENTED_EDGE ( 'NONE', *, *, #179, .F. ) ;
#45 = COORDINATED_UNIVERSAL_TIME_OFFSET ( 1, 0, .AHEAD. ) ;
#46 = AXIS2_PLACEMENT_3D ( 'NONE', #99, #190, #197 ) ;
#47 = ADVANCED_FACE ( 'NONE', ( #206 ), #75, .F. ) ;
#48 = AXIS2_PLACEMENT_3D ( 'NONE', #289, #30, #124 ) ;
#49 = DIRECTION ( 'NONE',  ( 0.0000000000000000000, 1.000000000000000000, 0.0000000000000000000 ) ) ;
#50 = APPROVAL ( #273, 'UNSPECIFIED' ) ;
#51 = AXIS2_PLACEMENT_3D ( 'NONE', #156, #163, #153 ) ;
#52 = FACE_OUTER_BOUND ( 'NONE', #301, .T. ) ;
#53 = DIRECTION ( 'NONE',  ( 0.0000000000000000000, 1.000000000000000000, 0.0000000000000000000 ) ) ;
#54 = DIRECTION ( 'NONE',  ( 3.491481338843133355E-15, -1.224646799147353207E-16, 1.000000000000000000 ) ) ;
#55 = CARTESIAN_POINT ( 'NONE',  ( 0.0000000000000000000, 0.0000000000000000000, 0.0000000000000000000 ) ) ;
#56 = CARTESIAN_POINT ( 'NONE',  ( 8.728703347107835360E-16, 1.614999999999999991, 0.2500000000000000555 ) ) ;
#57 = EDGE_LOOP ( 'NONE', ( #250 ) ) ;
#58 = CIRCLE ( 'NONE', #293, 1.500000000000001110 ) ;
#59 = APPROVAL_PERSON_ORGANIZATION ( #297, #114, #243 ) ;
#60 = DIRECTION ( 'NONE',  ( -3.491481338843133355E-15, 1.224646799147353207E-16, -1.000000000000000000 ) ) ;
#61 = ORIENTED_EDGE ( 'NONE', *, *, #200, .T. ) ;
#62 = PERSON ( 'UNSPECIFIED', 'UNSPECIFIED', 'UNSPECIFIED', ('UNSPECIFIED'), ('UNSPECIFIED'), ('UNSPECIFIED') ) ;
#63 = CC_DESIGN_PERSON_AND_ORGANIZATION_ASSIGNMENT ( #295, #222, ( #237 ) ) ;
#64 = COORDINATED_UNIVERSAL_TIME_OFFSET ( 1, 0, .AHEAD. ) ;
#65 = APPROVAL_DATE_TIME ( #160, #114 ) ;
#66 = CARTESIAN_POINT ( 'NONE',  ( 3.491481338843133355E-14, -1.224646799147353256E-15, 10.00000000000000000 ) ) ;
#67 = ORIENTED_EDGE ( 'NONE', *, *, #281, .F. ) ;
#68 = FACE_OUTER_BOUND ( 'NONE', #90, .T. ) ;
#69 = EDGE_LOOP ( 'NONE', ( #82 ) ) ;
#70 = PERSON_AND_ORGANIZATION ( #62, #183 ) ;
#71 = PRODUCT_DEFINITION_SHAPE ( 'NONE', 'NONE',  #239 ) ;
#72 = ORIENTED_EDGE ( 'NONE', *, *, #185, .F. ) ;
#73 = AXIS2_PLACEMENT_3D ( 'NONE', #97, #142, #165 ) ;
#74 = LOCAL_TIME ( 10, 35, 25.00000000000000000, #280 ) ;
#75 = PLANE ( 'NONE',  #73 ) ;
#76 = CARTESIAN_POINT ( 'NONE',  ( -5.836509923649344495E-31, 2.047172103333434157E-32, -1.671642880836135768E-16 ) ) ;
#77 = FACE_OUTER_BOUND ( 'NONE', #111, .T. ) ;
#78 = CARTESIAN_POINT ( 'NONE',  ( 0.0000000000000000000, 1.364999999999999103, 0.0000000000000000000 ) ) ;
#79 = APPROVAL_PERSON_ORGANIZATION ( #17, #50, #135 ) ;
#80 = ADVANCED_FACE ( 'NONE', ( #28 ), #210, .F. ) ;
#81 = DIRECTION ( 'NONE',  ( -3.491481338843133355E-15, 1.224646799147353207E-16, -1.000000000000000000 ) ) ;
#82 = ORIENTED_EDGE ( 'NONE', *, *, #21, .T. ) ;
#83 = DIRECTION ( 'NONE',  ( 4.275831445896958607E-31, 1.000000000000000000, 1.224646799147353454E-16 ) ) ;
#84 = DIRECTION ( 'NONE',  ( -3.491481338843133355E-15, 1.224646799147353207E-16, -1.000000000000000000 ) ) ;
#85 = CARTESIAN_POINT ( 'NONE',  ( 3.491481338843133355E-14, 1.614999999999998659, 10.00000000000000000 ) ) ;
#86 = DIRECTION ( 'NONE',  ( 3.491481338843133355E-15, -1.224646799147353207E-16, 1.000000000000000000 ) ) ;
#87 = AXIS2_PLACEMENT_3D ( 'NONE', #170, #86, #234 ) ;
#88 = DIRECTION ( 'NONE',  ( -3.491481338843133355E-15, 1.224646799147353207E-16, -1.000000000000000000 ) ) ;
#89 = EDGE_LOOP ( 'NONE', ( #67 ) ) ;
#90 = EDGE_LOOP ( 'NONE', ( #276 ) ) ;
#91 = APPROVAL_ROLE ( '' ) ;
#92 = PERSON_AND_ORGANIZATION_ROLE ( 'creator' ) ;
#93 = DIRECTION ( 'NONE',  ( 0.0000000000000000000, 1.000000000000000000, 0.0000000000000000000 ) ) ;
#94 =( LENGTH_UNIT ( ) NAMED_UNIT ( * ) SI_UNIT ( .MILLI., .METRE. ) );
#95 = PERSON_AND_ORGANIZATION ( #62, #183 ) ;
#96 = EDGE_LOOP ( 'NONE', ( #44 ) ) ;
#97 = CARTESIAN_POINT ( 'NONE',  ( 2.444036937190193601E-13, 8.998558695971026591E-33, 70.00000000000000000 ) ) ;
#98 = CONICAL_SURFACE ( 'NONE', #274, 1.614999999999999991, 0.5235987755983001479 ) ;
#99 = CARTESIAN_POINT ( 'NONE',  ( 2.444036937190193601E-13, -8.572527594031472993E-15, 70.00000000000000000 ) ) ;
#100 = CC_DESIGN_SECURITY_CLASSIFICATION ( #162, ( #237 ) ) ;
#101 = FACE_OUTER_BOUND ( 'NONE', #159, .T. ) ;
#102 = CARTESIAN_POINT ( 'NONE',  ( 3.491481338843133355E-14, 1.211056024499447911E-32, 10.00000000000000000 ) ) ;
#103 = CC_DESIGN_PERSON_AND_ORGANIZATION_ASSIGNMENT ( #70, #133, ( #189 ) ) ;
#104 = CIRCLE ( 'NONE', #51, 1.200000000000001510 ) ;
#105 = VERTEX_POINT ( 'NONE', #78 ) ;
#106 = DIRECTION ( 'NONE',  ( 4.275831445896958607E-31, 1.000000000000000000, 1.224646799147353454E-16 ) ) ;
#107 = DIRECTION ( 'NONE',  ( -4.275831445896958607E-31, -1.000000000000000000, -1.224646799147353207E-16 ) ) ;
#108 = CARTESIAN_POINT ( 'NONE',  ( 3.491481338843133355E-14, -1.224646799147353256E-15, 10.00000000000000000 ) ) ;
#109 = ADVANCED_FACE ( 'NONE', ( #268, #122 ), #235, .T. ) ;
#110 = LOCAL_TIME ( 10, 35, 25.00000000000000000, #45 ) ;
#111 = EDGE_LOOP ( 'NONE', ( #296 ) ) ;
#112 = EDGE_LOOP ( 'NONE', ( #186 ) ) ;
#113 = PERSON_AND_ORGANIZATION_ROLE ( 'classification_officer' ) ;
#114 = APPROVAL ( #270, 'UNSPECIFIED' ) ;
#115 = CALENDAR_DATE ( 2021, 2, 12 ) ;
#116 = AXIS2_PLACEMENT_3D ( 'NONE', #257, #193, #284 ) ;
#117 = PERSON_AND_ORGANIZATION_ROLE ( 'creator' ) ;
#118 = DIRECTION ( 'NONE',  ( -3.491481338843133355E-15, 1.224646799147353207E-16, -1.000000000000000000 ) ) ;
#119 = APPLICATION_CONTEXT ( 'configuration controlled 3d designs of mechanical parts and assemblies' ) ;
#120 = DIRECTION ( 'NONE',  ( 4.275831445896958607E-31, 1.000000000000000000, 1.224646799147352961E-16 ) ) ;
#121 = EDGE_LOOP ( 'NONE', ( #230 ) ) ;
#122 = FACE_BOUND ( 'NONE', #14, .T. ) ;
#123 = CC_DESIGN_DATE_AND_TIME_ASSIGNMENT ( #220, #302, ( #162 ) ) ;
#124 = DIRECTION ( 'NONE',  ( 1.000000000000000000, 0.0000000000000000000, 0.0000000000000000000 ) ) ;
#125 = PLANE ( 'NONE',  #20 ) ;
#126 = DIRECTION ( 'NONE',  ( 0.0000000000000000000, 1.000000000000000000, 0.0000000000000000000 ) ) ;
#127 = DIRECTION ( 'NONE',  ( 0.0000000000000000000, 1.000000000000000000, 0.0000000000000000000 ) ) ;
#128 = AXIS2_PLACEMENT_3D ( 'NONE', #24, #223, #271 ) ;
#129 = DIRECTION ( 'NONE',  ( -3.491481338843133355E-15, 1.224646799147353207E-16, -1.000000000000000000 ) ) ;
#130 = ADVANCED_FACE ( 'NONE', ( #101, #267 ), #228, .T. ) ;
#131 = FACE_BOUND ( 'NONE', #240, .T. ) ;
#132 = EDGE_LOOP ( 'NONE', ( #61 ) ) ;
#133 = PERSON_AND_ORGANIZATION_ROLE ( 'design_owner' ) ;
#134 = COORDINATED_UNIVERSAL_TIME_OFFSET ( 1, 0, .AHEAD. ) ;
#135 = APPROVAL_ROLE ( '' ) ;
#136 = DIRECTION ( 'NONE',  ( -3.491481338843133355E-15, 1.224646799147353207E-16, -1.000000000000000000 ) ) ;
#137 = EDGE_LOOP ( 'NONE', ( #22 ) ) ;
#138 = DIRECTION ( 'NONE',  ( 0.0000000000000000000, 1.000000000000000000, 0.0000000000000000000 ) ) ;
#139 = CIRCLE ( 'NONE', #7, 1.614999999999999991 ) ;
#140 = ADVANCED_FACE ( 'NONE', ( #176, #196 ), #2, .T. ) ;
#141 = CIRCLE ( 'NONE', #203, 1.364999999999999103 ) ;
#142 = DIRECTION ( 'NONE',  ( -3.491481338843133355E-15, 1.224646799147353207E-16, -1.000000000000000000 ) ) ;
#143 = AXIS2_PLACEMENT_3D ( 'NONE', #174, #84, #127 ) ;
#144 = CARTESIAN_POINT ( 'NONE',  ( 3.491481338843133355E-14, -1.224646799147353256E-15, 10.00000000000000000 ) ) ;
#145 = FACE_BOUND ( 'NONE', #172, .T. ) ;
#146 = DIRECTION ( 'NONE',  ( -3.491481338843133355E-15, 1.224646799147353207E-16, -1.000000000000000000 ) ) ;
#147 = VERTEX_POINT ( 'NONE', #233 ) ;
#148 = ADVANCED_FACE ( 'NONE', ( #131, #11 ), #282, .T. ) ;
#149 = AXIS2_PLACEMENT_3D ( 'NONE', #108, #146, #263 ) ;
#150 = AXIS2_PLACEMENT_3D ( 'NONE', #55, #88, #106 ) ;
#151 = VERTEX_POINT ( 'NONE', #10 ) ;
#152 = ORIENTED_EDGE ( 'NONE', *, *, #200, .F. ) ;
#153 = DIRECTION ( 'NONE',  ( 0.0000000000000000000, 1.000000000000000000, 0.0000000000000000000 ) ) ;
#154 = CALENDAR_DATE ( 2021, 2, 12 ) ;
#155 = AXIS2_PLACEMENT_3D ( 'NONE', #261, #60, #173 ) ;
#156 = CARTESIAN_POINT ( 'NONE',  ( 2.444036937190193601E-13, -8.572527594031472993E-15, 70.00000000000000000 ) ) ;
#157 = DATE_AND_TIME ( #42, #287 ) ;
#158 = DIRECTION ( 'NONE',  ( -3.491481338843133355E-15, 1.224646799147353207E-16, -1.000000000000000000 ) ) ;
#159 = EDGE_LOOP ( 'NONE', ( #72 ) ) ;
#160 = DATE_AND_TIME ( #180, #298 ) ;
#161 = EDGE_CURVE ( 'NONE', #265, #265, #182, .T. ) ;
#162 = SECURITY_CLASSIFICATION ( '', '', #221 ) ;
#163 = DIRECTION ( 'NONE',  ( -3.491481338843133355E-15, 1.224646799147353207E-16, -1.000000000000000000 ) ) ;
#164 = CYLINDRICAL_SURFACE ( 'NONE', #128, 1.614999999999999991 ) ;
#165 = DIRECTION ( 'NONE',  ( 4.275831445896958607E-31, 1.000000000000000000, 1.224646799147353207E-16 ) ) ;
#166 = ADVANCED_FACE ( 'NONE', ( #199, #292 ), #194, .T. ) ;
#167 = DIRECTION ( 'NONE',  ( 0.0000000000000000000, 1.000000000000000000, 0.0000000000000000000 ) ) ;
#168 = APPROVAL_PERSON_ORGANIZATION ( #43, #204, #91 ) ;
#169 = DIRECTION ( 'NONE',  ( 0.0000000000000000000, 1.000000000000000000, 0.0000000000000000000 ) ) ;
#170 = CARTESIAN_POINT ( 'NONE',  ( -5.836509923649344495E-31, 2.047172103333434157E-32, -1.671642880836135768E-16 ) ) ;
#171 = PLANE ( 'NONE',  #253 ) ;
#172 = EDGE_LOOP ( 'NONE', ( #242 ) ) ;
#173 = DIRECTION ( 'NONE',  ( 0.0000000000000000000, 1.000000000000000000, 0.0000000000000000000 ) ) ;
#174 = CARTESIAN_POINT ( 'NONE',  ( 2.444036937190193601E-13, -8.572527594031472993E-15, 70.00000000000000000 ) ) ;
#175 = ORIENTED_EDGE ( 'NONE', *, *, #211, .T. ) ;
#176 = FACE_OUTER_BOUND ( 'NONE', #254, .T. ) ;
#177 = CC_DESIGN_APPROVAL ( #204, ( #237 ) ) ;
#178 = DIRECTION ( 'NONE',  ( -3.491481338843133355E-15, 1.224646799147353207E-16, -1.000000000000000000 ) ) ;
#179 = EDGE_CURVE ( 'NONE', #241, #241, #212, .T. ) ;
#180 = CALENDAR_DATE ( 2021, 2, 12 ) ;
#181 = DATE_AND_TIME ( #154, #34 ) ;
#182 = CIRCLE ( 'NONE', #19, 1.614999999999999991 ) ;
#183 = ORGANIZATION ( 'UNSPECIFIED', 'UNSPECIFIED', '' ) ;
#184 = DATE_AND_TIME ( #115, #110 ) ;
#185 = EDGE_CURVE ( 'NONE', #147, #147, #275, .T. ) ;
#186 = ORIENTED_EDGE ( 'NONE', *, *, #219, .T. ) ;
#187 = APPROVAL_STATUS ( 'not_yet_approved' ) ;
#188 = EDGE_LOOP ( 'NONE', ( #269 ) ) ;
#189 = PRODUCT ( '321549', '321549', '', ( #266 ) ) ;
#190 = DIRECTION ( 'NONE',  ( -3.491481338843133355E-15, 1.224646799147353207E-16, -1.000000000000000000 ) ) ;
#191 = CIRCLE ( 'NONE', #256, 1.614999999999999991 ) ;
#192 = UNCERTAINTY_MEASURE_WITH_UNIT (LENGTH_MEASURE( 1.000000000000000082E-05 ), #94, 'distance_accuracy_value', 'NONE');
#193 = DIRECTION ( 'NONE',  ( -3.491481338843133355E-15, 1.224646799147353207E-16, -1.000000000000000000 ) ) ;
#194 = CYLINDRICAL_SURFACE ( 'NONE', #150, 1.499999999999996891 ) ;
#195 = VERTEX_POINT ( 'NONE', #232 ) ;
#196 = FACE_BOUND ( 'NONE', #236, .T. ) ;
#197 = DIRECTION ( 'NONE',  ( 4.275831445896958607E-31, 1.000000000000000000, 1.224646799147353207E-16 ) ) ;
#198 = CARTESIAN_POINT ( 'NONE',  ( 3.561026704177518479E-14, -1.249040029638027499E-15, 10.19918584287043295 ) ) ;
#199 = FACE_OUTER_BOUND ( 'NONE', #96, .T. ) ;
#200 = EDGE_CURVE ( 'NONE', #32, #32, #139, .T. ) ;
#201 = ORIENTED_EDGE ( 'NONE', *, *, #219, .F. ) ;
#202 = PERSON_AND_ORGANIZATION ( #62, #183 ) ;
#203 = AXIS2_PLACEMENT_3D ( 'NONE', #76, #118, #120 ) ;
#204 = APPROVAL ( #187, 'UNSPECIFIED' ) ;
#205 = ORIENTED_EDGE ( 'NONE', *, *, #25, .F. ) ;
#206 = FACE_OUTER_BOUND ( 'NONE', #272, .T. ) ;
#207 = ADVANCED_FACE ( 'NONE', ( #77 ), #125, .T. ) ;
#208 = CLOSED_SHELL ( 'NONE', ( #148, #218, #109, #207, #80, #140, #130 ) ) ;
#209 = AXIS2_PLACEMENT_3D ( 'NONE', #278, #158, #138 ) ;
#210 = PLANE ( 'NONE',  #46 ) ;
#211 = EDGE_CURVE ( 'NONE', #216, #216, #191, .T. ) ;
#212 = CIRCLE ( 'NONE', #40, 1.499999999999992895 ) ;
#213 =( GEOMETRIC_REPRESENTATION_CONTEXT ( 3 ) GLOBAL_UNCERTAINTY_ASSIGNED_CONTEXT ( ( #192 ) ) GLOBAL_UNIT_ASSIGNED_CONTEXT ( ( #94, #26, #294 ) ) REPRESENTATION_CONTEXT ( 'NONE', 'WORKASPACE' ) );
#214 = DIRECTION ( 'NONE',  ( -3.491481338843133355E-15, 1.224646799147353207E-16, -1.000000000000000000 ) ) ;
#215 = APPLICATION_PROTOCOL_DEFINITION ( 'international standard', 'config_control_design', 1994, #119 ) ;
#216 = VERTEX_POINT ( 'NONE', #85 ) ;
#217 = CARTESIAN_POINT ( 'NONE',  ( -2.918254961824672248E-31, 1.023586051666717078E-32, -8.358214404180678841E-17 ) ) ;
#218 = ADVANCED_FACE ( 'NONE', ( #18, #68 ), #164, .T. ) ;
#219 = EDGE_CURVE ( 'NONE', #151, #151, #27, .T. ) ;
#220 = DATE_AND_TIME ( #16, #74 ) ;
#221 = SECURITY_CLASSIFICATION_LEVEL ( 'unclassified' ) ;
#222 = PERSON_AND_ORGANIZATION_ROLE ( 'design_supplier' ) ;
#223 = DIRECTION ( 'NONE',  ( -3.491481338843133355E-15, 1.224646799147353207E-16, -1.000000000000000000 ) ) ;
#224 = CC_DESIGN_APPROVAL ( #50, ( #162 ) ) ;
#225 = DIRECTION ( 'NONE',  ( -3.491481338843133355E-15, 1.224646799147353207E-16, -1.000000000000000000 ) ) ;
#226 = CC_DESIGN_PERSON_AND_ORGANIZATION_ASSIGNMENT ( #95, #117, ( #237 ) ) ;
#227 = CARTESIAN_POINT ( 'NONE',  ( 2.433562493173664138E-13, -8.535788190057053710E-15, 69.70000000000001705 ) ) ;
#228 = CYLINDRICAL_SURFACE ( 'NONE', #39, 1.499999999999996891 ) ;
#229 = CARTESIAN_POINT ( 'NONE',  ( 8.728703347107827472E-16, -3.061616997868381169E-17, 0.2499999999999998335 ) ) ;
#230 = ORIENTED_EDGE ( 'NONE', *, *, #211, .F. ) ;
#231 = DIRECTION ( 'NONE',  ( 4.770105125417302761E-31, 1.000000000000000000, 1.342665229084216113E-16 ) ) ;
#232 = CARTESIAN_POINT ( 'NONE',  ( 2.433562493173664138E-13, 1.499999999999992673, 69.70000000000001705 ) ) ;
#233 = CARTESIAN_POINT ( 'NONE',  ( 3.561026704177518479E-14, 1.499999999999991562, 10.19918584287043295 ) ) ;
#234 = DIRECTION ( 'NONE',  ( -4.275831445896958607E-31, -1.000000000000000000, -1.224646799147352961E-16 ) ) ;
#235 = CONICAL_SURFACE ( 'NONE', #87, 1.364999999999999103, 0.7853981633974500554 ) ;
#236 = EDGE_LOOP ( 'NONE', ( #245 ) ) ;
#237 = PRODUCT_DEFINITION_FORMATION_WITH_SPECIFIED_SOURCE ( 'ANY', '', #189, .NOT_KNOWN. ) ;
#238 = CARTESIAN_POINT ( 'NONE',  ( 0.0000000000000000000, 0.0000000000000000000, 0.0000000000000000000 ) ) ;
#239 = PRODUCT_DEFINITION ( 'UNKNOWN', '', #237, #259 ) ;
#240 = EDGE_LOOP ( 'NONE', ( #279 ) ) ;
#241 = VERTEX_POINT ( 'NONE', #264 ) ;
#242 = ORIENTED_EDGE ( 'NONE', *, *, #179, .T. ) ;
#243 = APPROVAL_ROLE ( '' ) ;
#244 = CC_DESIGN_PERSON_AND_ORGANIZATION_ASSIGNMENT ( #202, #92, ( #239 ) ) ;
#245 = ORIENTED_EDGE ( 'NONE', *, *, #281, .T. ) ;
#246 = COORDINATED_UNIVERSAL_TIME_OFFSET ( 1, 0, .AHEAD. ) ;
#247 = APPLICATION_CONTEXT ( 'configuration controlled 3d designs of mechanical parts and assemblies' ) ;
#248 = APPROVAL_DATE_TIME ( #184, #50 ) ;
#249 = MANIFOLD_SOLID_BREP ( 'Corps-Déplacer/Copier1[1]', #33 ) ;
#250 = ORIENTED_EDGE ( 'NONE', *, *, #21, .F. ) ;
#251 = DATE_TIME_ROLE ( 'creation_date' ) ;
#252 = MANIFOLD_SOLID_BREP ( 'Corps-Déplacer/Copier1[2]', #208 ) ;
#253 = AXIS2_PLACEMENT_3D ( 'NONE', #102, #54, #107 ) ;
#254 = EDGE_LOOP ( 'NONE', ( #201 ) ) ;
#255 = DIRECTION ( 'NONE',  ( -3.491481338843133355E-15, 1.224646799147353207E-16, -1.000000000000000000 ) ) ;
#256 = AXIS2_PLACEMENT_3D ( 'NONE', #66, #136, #93 ) ;
#257 = CARTESIAN_POINT ( 'NONE',  ( 2.444036937190193601E-13, -8.572527594031472993E-15, 70.00000000000000000 ) ) ;
#258 = CC_DESIGN_DATE_AND_TIME_ASSIGNMENT ( #157, #251, ( #239 ) ) ;
#259 = DESIGN_CONTEXT ( 'detailed design', #247, 'design' ) ;
#260 = CC_DESIGN_PERSON_AND_ORGANIZATION_ASSIGNMENT ( #23, #113, ( #162 ) ) ;
#261 = CARTESIAN_POINT ( 'NONE',  ( 2.444036937190193601E-13, -8.572527594031472993E-15, 70.00000000000000000 ) ) ;
#262 = CIRCLE ( 'NONE', #143, 1.200000000000001510 ) ;
#263 = DIRECTION ( 'NONE',  ( 0.0000000000000000000, 1.000000000000000000, 0.0000000000000000000 ) ) ;
#264 = CARTESIAN_POINT ( 'NONE',  ( 3.561026704177518479E-14, 1.499999999999991562, 10.19918584287043295 ) ) ;
#265 = VERTEX_POINT ( 'NONE', #56 ) ;
#266 = MECHANICAL_CONTEXT ( 'NONE', #119, 'mechanical' ) ;
#267 = FACE_OUTER_BOUND ( 'NONE', #112, .T. ) ;
#268 = FACE_OUTER_BOUND ( 'NONE', #137, .T. ) ;
#269 = ORIENTED_EDGE ( 'NONE', *, *, #5, .T. ) ;
#270 = APPROVAL_STATUS ( 'not_yet_approved' ) ;
#271 = DIRECTION ( 'NONE',  ( 4.275831445896958607E-31, 1.000000000000000000, 1.224646799147353207E-16 ) ) ;
#272 = EDGE_LOOP ( 'NONE', ( #288 ) ) ;
#273 = APPROVAL_STATUS ( 'not_yet_approved' ) ;
#274 = AXIS2_PLACEMENT_3D ( 'NONE', #144, #255, #49 ) ;
#275 = CIRCLE ( 'NONE', #283, 1.499999999999992895 ) ;
#276 = ORIENTED_EDGE ( 'NONE', *, *, #161, .F. ) ;
#277 = ADVANCED_BREP_SHAPE_REPRESENTATION ( '321549', ( #249, #252, #48 ), #213 ) ;
#278 = CARTESIAN_POINT ( 'NONE',  ( 2.433562493173664138E-13, -8.535788190057053710E-15, 69.70000000000001705 ) ) ;
#279 = ORIENTED_EDGE ( 'NONE', *, *, #185, .T. ) ;
#280 = COORDINATED_UNIVERSAL_TIME_OFFSET ( 1, 0, .AHEAD. ) ;
#281 = EDGE_CURVE ( 'NONE', #12, #12, #262, .T. ) ;
#282 = CONICAL_SURFACE ( 'NONE', #149, 1.614999999999999991, 0.5235987755983001479 ) ;
#283 = AXIS2_PLACEMENT_3D ( 'NONE', #198, #178, #53 ) ;
#284 = DIRECTION ( 'NONE',  ( 0.0000000000000000000, 1.000000000000000000, 0.0000000000000000000 ) ) ;
#285 = FACE_OUTER_BOUND ( 'NONE', #121, .T. ) ;
#286 = DIRECTION ( 'NONE',  ( -3.491481338843133355E-15, 1.224646799147353207E-16, -1.000000000000000000 ) ) ;
#287 = LOCAL_TIME ( 10, 35, 25.00000000000000000, #64 ) ;
#288 = ORIENTED_EDGE ( 'NONE', *, *, #5, .F. ) ;
#289 = CARTESIAN_POINT ( 'NONE',  ( 0.0000000000000000000, 0.0000000000000000000, 0.0000000000000000000 ) ) ;
#290 = CARTESIAN_POINT ( 'NONE',  ( 3.491481338843133355E-14, -1.224646799147353256E-15, 10.00000000000000000 ) ) ;
#291 = CARTESIAN_POINT ( 'NONE',  ( 2.444036937190193601E-13, 1.199999999999992628, 70.00000000000000000 ) ) ;
#292 = FACE_OUTER_BOUND ( 'NONE', #69, .T. ) ;
#293 = AXIS2_PLACEMENT_3D ( 'NONE', #227, #225, #167 ) ;
#294 =( NAMED_UNIT ( * ) SI_UNIT ( $, .STERADIAN. ) SOLID_ANGLE_UNIT ( ) );
#295 = PERSON_AND_ORGANIZATION ( #62, #183 ) ;
#296 = ORIENTED_EDGE ( 'NONE', *, *, #25, .T. ) ;
#297 = PERSON_AND_ORGANIZATION ( #62, #183 ) ;
#298 = LOCAL_TIME ( 10, 35, 25.00000000000000000, #134 ) ;
#299 = APPLICATION_PROTOCOL_DEFINITION ( 'international standard', 'config_control_design', 1994, #247 ) ;
#300 = ADVANCED_FACE ( 'NONE', ( #52 ), #171, .F. ) ;
#301 = EDGE_LOOP ( 'NONE', ( #175 ) ) ;
#302 = DATE_TIME_ROLE ( 'classification_date' ) ;
#303 = CONICAL_SURFACE ( 'NONE', #116, 1.200000000000001510, 0.7853981633974566057 ) ;
ENDSEC;
END-ISO-10303-21;
