ISO-10303-21;
HEADER;
FILE_DESCRIPTION (( 'STEP AP203' ),
    '1' );
FILE_NAME ('321548.step',
    '2021-12-02T09:35:24',
    ( '' ),
    ( '' ),
    'SwSTEP 2.0',
    'SolidWorks 2019',
    '' );
FILE_SCHEMA (( 'CONFIG_CONTROL_DESIGN' ));
ENDSEC;

DATA;
#1 = DIRECTION ( 'NONE',  ( 0.0000000000000000000, 1.000000000000000000, 0.0000000000000000000 ) ) ;
#2 = VERTEX_POINT ( 'NONE', #54 ) ;
#3 = CIRCLE ( 'NONE', #36, 1.610000000000000098 ) ;
#4 = DIRECTION ( 'NONE',  ( -3.491481338843133355E-15, 1.224646799147353207E-16, -1.000000000000000000 ) ) ;
#5 = AXIS2_PLACEMENT_3D ( 'NONE', #151, #257, #139 ) ;
#6 = DATE_TIME_ROLE ( 'classification_date' ) ;
#7 = EDGE_LOOP ( 'NONE', ( #33 ) ) ;
#8 = ORIENTED_EDGE ( 'NONE', *, *, #35, .T. ) ;
#9 = PRODUCT_DEFINITION ( 'UNKNOWN', '', #48, #265 ) ;
#10 = CONICAL_SURFACE ( 'NONE', #249, 1.610000000000000098, 0.5235987755982989267 ) ;
#11 = ORIENTED_EDGE ( 'NONE', *, *, #100, .T. ) ;
#12 = LOCAL_TIME ( 10, 35, 24.00000000000000000, #57 ) ;
#13 = PLANE ( 'NONE',  #104 ) ;
#14 = CARTESIAN_POINT ( 'NONE',  ( 3.558002992641242237E-14, -1.247979454399302849E-15, 10.19052558883258897 ) ) ;
#15 = PERSON_AND_ORGANIZATION ( #196, #132 ) ;
#16 = DIRECTION ( 'NONE',  ( 4.275831445896958607E-31, 1.000000000000000000, 1.224646799147353207E-16 ) ) ;
#17 = AXIS2_PLACEMENT_3D ( 'NONE', #252, #38, #231 ) ;
#18 = APPROVAL_DATE_TIME ( #156, #22 ) ;
#19 = DIRECTION ( 'NONE',  ( -3.491481338843133355E-15, 1.224646799147353207E-16, -1.000000000000000000 ) ) ;
#20 = PRODUCT ( '321548', '321548', '', ( #155 ) ) ;
#21 = DIRECTION ( 'NONE',  ( 0.0000000000000000000, 1.000000000000000000, 0.0000000000000000000 ) ) ;
#22 = APPROVAL ( #171, 'UNSPECIFIED' ) ;
#23 = ADVANCED_FACE ( 'NONE', ( #176, #65 ), #137, .T. ) ;
#24 = CARTESIAN_POINT ( 'NONE',  ( -5.815130766419859781E-31, 2.039673304420125088E-32, -1.665519646840399386E-16 ) ) ;
#25 = ORIENTED_EDGE ( 'NONE', *, *, #80, .T. ) ;
#26 = AXIS2_PLACEMENT_3D ( 'NONE', #73, #118, #141 ) ;
#27 = APPROVAL_DATE_TIME ( #238, #266 ) ;
#28 = FACE_BOUND ( 'NONE', #93, .T. ) ;
#29 = APPROVAL_STATUS ( 'not_yet_approved' ) ;
#30 = CARTESIAN_POINT ( 'NONE',  ( 2.433562493173664138E-13, -8.535788190057053710E-15, 69.70000000000001705 ) ) ;
#31 = DIRECTION ( 'NONE',  ( -3.491481338843133355E-15, 1.224646799147353207E-16, -1.000000000000000000 ) ) ;
#32 = LOCAL_TIME ( 10, 35, 24.00000000000000000, #116 ) ;
#33 = ORIENTED_EDGE ( 'NONE', *, *, #208, .F. ) ;
#34 = CARTESIAN_POINT ( 'NONE',  ( 2.444036937190193601E-13, 1.199999999999992628, 70.00000000000000000 ) ) ;
#35 = EDGE_CURVE ( 'NONE', #121, #121, #3, .T. ) ;
#36 = AXIS2_PLACEMENT_3D ( 'NONE', #45, #68, #233 ) ;
#37 = ADVANCED_FACE ( 'NONE', ( #41 ), #13, .T. ) ;
#38 = DIRECTION ( 'NONE',  ( -3.491481338843133355E-15, 1.224646799147353207E-16, -1.000000000000000000 ) ) ;
#39 = CIRCLE ( 'NONE', #301, 1.499999999999992895 ) ;
#40 = AXIS2_PLACEMENT_3D ( 'NONE', #77, #303, #215 ) ;
#41 = FACE_OUTER_BOUND ( 'NONE', #296, .T. ) ;
#42 = PERSON_AND_ORGANIZATION ( #196, #132 ) ;
#43 = FACE_BOUND ( 'NONE', #253, .T. ) ;
#44 = APPLICATION_PROTOCOL_DEFINITION ( 'international standard', 'config_control_design', 1994, #241 ) ;
#45 = CARTESIAN_POINT ( 'NONE',  ( 3.491481338843133355E-14, -1.224646799147353256E-15, 10.00000000000000000 ) ) ;
#46 = CARTESIAN_POINT ( 'NONE',  ( 0.0000000000000000000, 0.0000000000000000000, 0.0000000000000000000 ) ) ;
#47 = CONICAL_SURFACE ( 'NONE', #288, 1.610000000000000098, 0.5235987755982989267 ) ;
#48 = PRODUCT_DEFINITION_FORMATION_WITH_SPECIFIED_SOURCE ( 'ANY', '', #20, .NOT_KNOWN. ) ;
#49 = VERTEX_POINT ( 'NONE', #140 ) ;
#50 = ADVANCED_FACE ( 'NONE', ( #134, #107 ), #47, .T. ) ;
#51 = DIRECTION ( 'NONE',  ( 4.275831445896958607E-31, 1.000000000000000000, 1.224646799147353207E-16 ) ) ;
#52 = CARTESIAN_POINT ( 'NONE',  ( 2.444036937190193601E-13, 1.199999999999992628, 70.00000000000000000 ) ) ;
#53 = DIRECTION ( 'NONE',  ( -3.491481338843133355E-15, 1.224646799147353207E-16, -1.000000000000000000 ) ) ;
#54 = CARTESIAN_POINT ( 'NONE',  ( 0.0000000000000000000, 1.359999999999999210, 0.0000000000000000000 ) ) ;
#55 = MANIFOLD_SOLID_BREP ( 'Corps-Déplacer/Copier1[1]', #103 ) ;
#56 = CIRCLE ( 'NONE', #110, 1.500000000000001110 ) ;
#57 = COORDINATED_UNIVERSAL_TIME_OFFSET ( 1, 0, .AHEAD. ) ;
#58 = CC_DESIGN_APPROVAL ( #22, ( #189 ) ) ;
#59 = CALENDAR_DATE ( 2021, 2, 12 ) ;
#60 = COORDINATED_UNIVERSAL_TIME_OFFSET ( 1, 0, .AHEAD. ) ;
#61 = CARTESIAN_POINT ( 'NONE',  ( 8.728703347107835360E-16, 1.610000000000000098, 0.2500000000000000555 ) ) ;
#62 = CIRCLE ( 'NONE', #83, 1.500000000000001110 ) ;
#63 = PERSON_AND_ORGANIZATION ( #196, #132 ) ;
#64 = DIRECTION ( 'NONE',  ( 0.0000000000000000000, 1.000000000000000000, 0.0000000000000000000 ) ) ;
#65 = FACE_OUTER_BOUND ( 'NONE', #293, .T. ) ;
#66 = DIRECTION ( 'NONE',  ( 0.0000000000000000000, 1.000000000000000000, 0.0000000000000000000 ) ) ;
#67 = EDGE_CURVE ( 'NONE', #260, #260, #279, .T. ) ;
#68 = DIRECTION ( 'NONE',  ( -3.491481338843133355E-15, 1.224646799147353207E-16, -1.000000000000000000 ) ) ;
#69 = DIRECTION ( 'NONE',  ( -3.491481338843133355E-15, 1.224646799147353207E-16, -1.000000000000000000 ) ) ;
#70 = CARTESIAN_POINT ( 'NONE',  ( 2.433562493173664138E-13, 1.499999999999992673, 69.70000000000001705 ) ) ;
#71 = CC_DESIGN_PERSON_AND_ORGANIZATION_ASSIGNMENT ( #42, #135, ( #20 ) ) ;
#72 = AXIS2_PLACEMENT_3D ( 'NONE', #24, #75, #263 ) ;
#73 = CARTESIAN_POINT ( 'NONE',  ( 0.0000000000000000000, 0.0000000000000000000, 0.0000000000000000000 ) ) ;
#74 = CYLINDRICAL_SURFACE ( 'NONE', #245, 1.499999999999996891 ) ;
#75 = DIRECTION ( 'NONE',  ( 3.491481338843133355E-15, -1.224646799147353207E-16, 1.000000000000000000 ) ) ;
#76 = CC_DESIGN_SECURITY_CLASSIFICATION ( #189, ( #48 ) ) ;
#77 = CARTESIAN_POINT ( 'NONE',  ( 3.491481338843133355E-14, 1.207306625042793376E-32, 10.00000000000000000 ) ) ;
#78 = CC_DESIGN_PERSON_AND_ORGANIZATION_ASSIGNMENT ( #87, #203, ( #48 ) ) ;
#79 = ORIENTED_EDGE ( 'NONE', *, *, #108, .T. ) ;
#80 = EDGE_CURVE ( 'NONE', #2, #2, #204, .T. ) ;
#81 = CALENDAR_DATE ( 2021, 2, 12 ) ;
#82 = EDGE_LOOP ( 'NONE', ( #111 ) ) ;
#83 = AXIS2_PLACEMENT_3D ( 'NONE', #30, #186, #188 ) ;
#84 = EDGE_LOOP ( 'NONE', ( #220 ) ) ;
#85 = DIRECTION ( 'NONE',  ( 1.000000000000000000, 0.0000000000000000000, 0.0000000000000000000 ) ) ;
#86 = DIRECTION ( 'NONE',  ( 0.0000000000000000000, 1.000000000000000000, 0.0000000000000000000 ) ) ;
#87 = PERSON_AND_ORGANIZATION ( #196, #132 ) ;
#88 = AXIS2_PLACEMENT_3D ( 'NONE', #96, #214, #185 ) ;
#89 = EDGE_LOOP ( 'NONE', ( #125 ) ) ;
#90 = ORIENTED_EDGE ( 'NONE', *, *, #67, .T. ) ;
#91 = DIRECTION ( 'NONE',  ( -3.491481338843133355E-15, 1.224646799147353207E-16, -1.000000000000000000 ) ) ;
#92 = CARTESIAN_POINT ( 'NONE',  ( 3.491481338843133355E-14, -1.224646799147353256E-15, 10.00000000000000000 ) ) ;
#93 = EDGE_LOOP ( 'NONE', ( #224 ) ) ;
#94 = FACE_OUTER_BOUND ( 'NONE', #136, .T. ) ;
#95 = AXIS2_PLACEMENT_3D ( 'NONE', #14, #109, #202 ) ;
#96 = CARTESIAN_POINT ( 'NONE',  ( 8.728703347107827472E-16, -3.061616997868381169E-17, 0.2499999999999998335 ) ) ;
#97 = CARTESIAN_POINT ( 'NONE',  ( 2.444036937190193601E-13, -8.572527594031472993E-15, 70.00000000000000000 ) ) ;
#98 = DIRECTION ( 'NONE',  ( -3.491481338843133355E-15, 1.224646799147353207E-16, -1.000000000000000000 ) ) ;
#99 = CARTESIAN_POINT ( 'NONE',  ( 2.444036937190193601E-13, -8.572527594031472993E-15, 70.00000000000000000 ) ) ;
#100 = EDGE_CURVE ( 'NONE', #143, #143, #39, .T. ) ;
#101 = ADVANCED_FACE ( 'NONE', ( #295, #225 ), #10, .T. ) ;
#102 = EDGE_LOOP ( 'NONE', ( #286 ) ) ;
#103 = CLOSED_SHELL ( 'NONE', ( #221, #50, #23, #152, #172 ) ) ;
#104 = AXIS2_PLACEMENT_3D ( 'NONE', #157, #206, #16 ) ;
#105 = ORIENTED_EDGE ( 'NONE', *, *, #100, .F. ) ;
#106 = DIRECTION ( 'NONE',  ( -3.491481338843133355E-15, 1.224646799147353207E-16, -1.000000000000000000 ) ) ;
#107 = FACE_OUTER_BOUND ( 'NONE', #289, .T. ) ;
#108 = EDGE_CURVE ( 'NONE', #218, #218, #56, .T. ) ;
#109 = DIRECTION ( 'NONE',  ( -3.491481338843133355E-15, 1.224646799147353207E-16, -1.000000000000000000 ) ) ;
#110 = AXIS2_PLACEMENT_3D ( 'NONE', #114, #255, #178 ) ;
#111 = ORIENTED_EDGE ( 'NONE', *, *, #67, .F. ) ;
#112 = ADVANCED_FACE ( 'NONE', ( #180, #43 ), #177, .T. ) ;
#113 =( LENGTH_UNIT ( ) NAMED_UNIT ( * ) SI_UNIT ( .MILLI., .METRE. ) );
#114 = CARTESIAN_POINT ( 'NONE',  ( 2.433562493173664138E-13, -8.535788190057053710E-15, 69.70000000000001705 ) ) ;
#115 = EDGE_LOOP ( 'NONE', ( #105 ) ) ;
#116 = COORDINATED_UNIVERSAL_TIME_OFFSET ( 1, 0, .AHEAD. ) ;
#117 = FACE_BOUND ( 'NONE', #102, .T. ) ;
#118 = DIRECTION ( 'NONE',  ( -3.491481338843133355E-15, 1.224646799147353207E-16, -1.000000000000000000 ) ) ;
#119 = FACE_OUTER_BOUND ( 'NONE', #82, .T. ) ;
#120 = CARTESIAN_POINT ( 'NONE',  ( 3.491481338843133355E-14, 1.609999999999998765, 10.00000000000000000 ) ) ;
#121 = VERTEX_POINT ( 'NONE', #120 ) ;
#122 = PERSON_AND_ORGANIZATION ( #196, #132 ) ;
#123 = AXIS2_PLACEMENT_3D ( 'NONE', #278, #31, #51 ) ;
#124 = EDGE_CURVE ( 'NONE', #162, #162, #227, .T. ) ;
#125 = ORIENTED_EDGE ( 'NONE', *, *, #170, .T. ) ;
#126 = EDGE_LOOP ( 'NONE', ( #147 ) ) ;
#127 = DATE_TIME_ROLE ( 'creation_date' ) ;
#128 = VERTEX_POINT ( 'NONE', #247 ) ;
#129 = COORDINATED_UNIVERSAL_TIME_OFFSET ( 1, 0, .AHEAD. ) ;
#130 = EDGE_LOOP ( 'NONE', ( #277 ) ) ;
#131 = CC_DESIGN_DATE_AND_TIME_ASSIGNMENT ( #169, #6, ( #189 ) ) ;
#132 = ORGANIZATION ( 'UNSPECIFIED', 'UNSPECIFIED', '' ) ;
#133 = APPLICATION_CONTEXT ( 'configuration controlled 3d designs of mechanical parts and assemblies' ) ;
#134 = FACE_BOUND ( 'NONE', #126, .T. ) ;
#135 = PERSON_AND_ORGANIZATION_ROLE ( 'design_owner' ) ;
#136 = EDGE_LOOP ( 'NONE', ( #8 ) ) ;
#137 = CYLINDRICAL_SURFACE ( 'NONE', #166, 1.499999999999996891 ) ;
#138 = LOCAL_TIME ( 10, 35, 24.00000000000000000, #60 ) ;
#139 = DIRECTION ( 'NONE',  ( 4.275831445896958607E-31, 1.000000000000000000, 1.224646799147353207E-16 ) ) ;
#140 = CARTESIAN_POINT ( 'NONE',  ( 2.433562493173664138E-13, 1.499999999999992673, 69.70000000000001705 ) ) ;
#141 = DIRECTION ( 'NONE',  ( 4.275831445896958607E-31, 1.000000000000000000, 1.224646799147353207E-16 ) ) ;
#142 = AXIS2_PLACEMENT_3D ( 'NONE', #298, #69, #86 ) ;
#143 = VERTEX_POINT ( 'NONE', #240 ) ;
#144 = DIRECTION ( 'NONE',  ( 4.275831445896958607E-31, 1.000000000000000000, 1.224646799147353454E-16 ) ) ;
#145 = DIRECTION ( 'NONE',  ( -3.491481338843133355E-15, 1.224646799147353207E-16, -1.000000000000000000 ) ) ;
#146 = DATE_AND_TIME ( #59, #12 ) ;
#147 = ORIENTED_EDGE ( 'NONE', *, *, #124, .T. ) ;
#148 = CALENDAR_DATE ( 2021, 2, 12 ) ;
#149 = CONICAL_SURFACE ( 'NONE', #187, 1.200000000000001510, 0.7853981633974566057 ) ;
#150 = PERSON_AND_ORGANIZATION ( #196, #132 ) ;
#151 = CARTESIAN_POINT ( 'NONE',  ( -5.815130766419859781E-31, 2.039673304420125088E-32, -1.665519646840399386E-16 ) ) ;
#152 = ADVANCED_FACE ( 'NONE', ( #183, #28 ), #149, .T. ) ;
#153 = CALENDAR_DATE ( 2021, 2, 12 ) ;
#154 = DIRECTION ( 'NONE',  ( 4.275831445896958607E-31, 1.000000000000000000, 1.224646799147353454E-16 ) ) ;
#155 = MECHANICAL_CONTEXT ( 'NONE', #241, 'mechanical' ) ;
#156 = DATE_AND_TIME ( #153, #205 ) ;
#157 = CARTESIAN_POINT ( 'NONE',  ( -2.907565383209929891E-31, 1.019836652210062544E-32, -8.327598234201996928E-17 ) ) ;
#158 =( NAMED_UNIT ( * ) PLANE_ANGLE_UNIT ( ) SI_UNIT ( $, .RADIAN. ) );
#159 = MANIFOLD_SOLID_BREP ( 'Corps-Déplacer/Copier1[2]', #211 ) ;
#160 = DIRECTION ( 'NONE',  ( -3.491481338843133355E-15, 1.224646799147353207E-16, -1.000000000000000000 ) ) ;
#161 = AXIS2_PLACEMENT_3D ( 'NONE', #236, #299, #21 ) ;
#162 = VERTEX_POINT ( 'NONE', #258 ) ;
#163 = FACE_OUTER_BOUND ( 'NONE', #7, .T. ) ;
#164 = ADVANCED_FACE ( 'NONE', ( #119 ), #283, .F. ) ;
#165 = CARTESIAN_POINT ( 'NONE',  ( 0.0000000000000000000, 0.0000000000000000000, 0.0000000000000000000 ) ) ;
#166 = AXIS2_PLACEMENT_3D ( 'NONE', #46, #160, #154 ) ;
#167 = FACE_OUTER_BOUND ( 'NONE', #89, .T. ) ;
#168 = EDGE_CURVE ( 'NONE', #49, #49, #62, .T. ) ;
#169 = DATE_AND_TIME ( #81, #138 ) ;
#170 = EDGE_CURVE ( 'NONE', #128, #128, #212, .T. ) ;
#171 = APPROVAL_STATUS ( 'not_yet_approved' ) ;
#172 = ADVANCED_FACE ( 'NONE', ( #163 ), #242, .F. ) ;
#173 = CC_DESIGN_PERSON_AND_ORGANIZATION_ASSIGNMENT ( #122, #251, ( #48 ) ) ;
#174 =( NAMED_UNIT ( * ) SI_UNIT ( $, .STERADIAN. ) SOLID_ANGLE_UNIT ( ) );
#175 = EDGE_LOOP ( 'NONE', ( #11 ) ) ;
#176 = FACE_OUTER_BOUND ( 'NONE', #274, .T. ) ;
#177 = CONICAL_SURFACE ( 'NONE', #17, 1.200000000000001510, 0.7853981633974566057 ) ;
#178 = DIRECTION ( 'NONE',  ( 0.0000000000000000000, 1.000000000000000000, 0.0000000000000000000 ) ) ;
#179 = CARTESIAN_POINT ( 'NONE',  ( 3.491481338843133355E-14, -1.224646799147353256E-15, 10.00000000000000000 ) ) ;
#180 = FACE_OUTER_BOUND ( 'NONE', #200, .T. ) ;
#181 = PERSON_AND_ORGANIZATION ( #196, #132 ) ;
#182 = CIRCLE ( 'NONE', #88, 1.610000000000000098 ) ;
#183 = FACE_OUTER_BOUND ( 'NONE', #130, .T. ) ;
#184 = CC_DESIGN_PERSON_AND_ORGANIZATION_ASSIGNMENT ( #63, #285, ( #189 ) ) ;
#185 = DIRECTION ( 'NONE',  ( 4.784919116490027100E-31, 1.000000000000000000, 1.346834996876403062E-16 ) ) ;
#186 = DIRECTION ( 'NONE',  ( -3.491481338843133355E-15, 1.224646799147353207E-16, -1.000000000000000000 ) ) ;
#187 = AXIS2_PLACEMENT_3D ( 'NONE', #97, #98, #1 ) ;
#188 = DIRECTION ( 'NONE',  ( 0.0000000000000000000, 1.000000000000000000, 0.0000000000000000000 ) ) ;
#189 = SECURITY_CLASSIFICATION ( '', '', #248 ) ;
#190 = UNCERTAINTY_MEASURE_WITH_UNIT (LENGTH_MEASURE( 1.000000000000000082E-05 ), #113, 'distance_accuracy_value', 'NONE');
#191 = PERSON_AND_ORGANIZATION ( #196, #132 ) ;
#192 = CONICAL_SURFACE ( 'NONE', #72, 1.359999999999999210, 0.7853981633974500554 ) ;
#193 = PERSON_AND_ORGANIZATION_ROLE ( 'creator' ) ;
#194 = EDGE_LOOP ( 'NONE', ( #256 ) ) ;
#195 = APPROVAL_STATUS ( 'not_yet_approved' ) ;
#196 = PERSON ( 'UNSPECIFIED', 'UNSPECIFIED', 'UNSPECIFIED', ('UNSPECIFIED'), ('UNSPECIFIED'), ('UNSPECIFIED') ) ;
#197 = ORIENTED_EDGE ( 'NONE', *, *, #124, .F. ) ;
#198 = CC_DESIGN_APPROVAL ( #246, ( #48 ) ) ;
#199 = CARTESIAN_POINT ( 'NONE',  ( 0.0000000000000000000, 0.0000000000000000000, 0.0000000000000000000 ) ) ;
#200 = EDGE_LOOP ( 'NONE', ( #271 ) ) ;
#201 = CARTESIAN_POINT ( 'NONE',  ( 3.558002992641242237E-14, -1.247979454399302849E-15, 10.19052558883258897 ) ) ;
#202 = DIRECTION ( 'NONE',  ( 0.0000000000000000000, 1.000000000000000000, 0.0000000000000000000 ) ) ;
#203 = PERSON_AND_ORGANIZATION_ROLE ( 'creator' ) ;
#204 = CIRCLE ( 'NONE', #5, 1.359999999999999210 ) ;
#205 = LOCAL_TIME ( 10, 35, 24.00000000000000000, #129 ) ;
#206 = DIRECTION ( 'NONE',  ( -3.491481338843133355E-15, 1.224646799147353207E-16, -1.000000000000000000 ) ) ;
#207 = CALENDAR_DATE ( 2021, 2, 12 ) ;
#208 = EDGE_CURVE ( 'NONE', #223, #223, #267, .T. ) ;
#209 = FACE_OUTER_BOUND ( 'NONE', #219, .T. ) ;
#210 = PRODUCT_DEFINITION_SHAPE ( 'NONE', 'NONE',  #9 ) ;
#211 = CLOSED_SHELL ( 'NONE', ( #101, #232, #235, #37, #164, #112, #294 ) ) ;
#212 = CIRCLE ( 'NONE', #262, 1.610000000000000098 ) ;
#213 = APPROVAL_PERSON_ORGANIZATION ( #150, #22, #250 ) ;
#214 = DIRECTION ( 'NONE',  ( -3.491481338843133355E-15, 1.224646799147353207E-16, -1.000000000000000000 ) ) ;
#215 = DIRECTION ( 'NONE',  ( -4.275831445896958607E-31, -1.000000000000000000, -1.224646799147353207E-16 ) ) ;
#216 = CARTESIAN_POINT ( 'NONE',  ( 3.491481338843133355E-14, -1.224646799147353256E-15, 10.00000000000000000 ) ) ;
#217 = AXIS2_PLACEMENT_3D ( 'NONE', #99, #145, #259 ) ;
#218 = VERTEX_POINT ( 'NONE', #70 ) ;
#219 = EDGE_LOOP ( 'NONE', ( #79 ) ) ;
#220 = ORIENTED_EDGE ( 'NONE', *, *, #273, .T. ) ;
#221 = ADVANCED_FACE ( 'NONE', ( #94 ), #280, .F. ) ;
#222 = APPROVAL_ROLE ( '' ) ;
#223 = VERTEX_POINT ( 'NONE', #34 ) ;
#224 = ORIENTED_EDGE ( 'NONE', *, *, #208, .T. ) ;
#225 = FACE_OUTER_BOUND ( 'NONE', #269, .T. ) ;
#226 = VERTEX_POINT ( 'NONE', #61 ) ;
#227 = CIRCLE ( 'NONE', #95, 1.499999999999992895 ) ;
#228 = APPROVAL_PERSON_ORGANIZATION ( #191, #246, #222 ) ;
#229 = ORIENTED_EDGE ( 'NONE', *, *, #170, .F. ) ;
#230 = APPLICATION_PROTOCOL_DEFINITION ( 'international standard', 'config_control_design', 1994, #133 ) ;
#231 = DIRECTION ( 'NONE',  ( 0.0000000000000000000, 1.000000000000000000, 0.0000000000000000000 ) ) ;
#232 = ADVANCED_FACE ( 'NONE', ( #167, #282 ), #264, .T. ) ;
#233 = DIRECTION ( 'NONE',  ( 0.0000000000000000000, 1.000000000000000000, 0.0000000000000000000 ) ) ;
#234 = DIRECTION ( 'NONE',  ( 0.0000000000000000000, 1.000000000000000000, 0.0000000000000000000 ) ) ;
#235 = ADVANCED_FACE ( 'NONE', ( #237, #117 ), #192, .T. ) ;
#236 = CARTESIAN_POINT ( 'NONE',  ( 2.444036937190193601E-13, -8.572527594031472993E-15, 70.00000000000000000 ) ) ;
#237 = FACE_OUTER_BOUND ( 'NONE', #84, .T. ) ;
#238 = DATE_AND_TIME ( #207, #32 ) ;
#239 = AXIS2_PLACEMENT_3D ( 'NONE', #199, #291, #85 ) ;
#240 = CARTESIAN_POINT ( 'NONE',  ( 3.558002992641242237E-14, 1.499999999999991562, 10.19052558883258897 ) ) ;
#241 = APPLICATION_CONTEXT ( 'configuration controlled 3d designs of mechanical parts and assemblies' ) ;
#242 = PLANE ( 'NONE',  #123 ) ;
#243 = APPROVAL_ROLE ( '' ) ;
#244 = DIRECTION ( 'NONE',  ( 0.0000000000000000000, 1.000000000000000000, 0.0000000000000000000 ) ) ;
#245 = AXIS2_PLACEMENT_3D ( 'NONE', #165, #53, #144 ) ;
#246 = APPROVAL ( #195, 'UNSPECIFIED' ) ;
#247 = CARTESIAN_POINT ( 'NONE',  ( 3.491481338843133355E-14, 1.609999999999998765, 10.00000000000000000 ) ) ;
#248 = SECURITY_CLASSIFICATION_LEVEL ( 'unclassified' ) ;
#249 = AXIS2_PLACEMENT_3D ( 'NONE', #92, #19, #66 ) ;
#250 = APPROVAL_ROLE ( '' ) ;
#251 = PERSON_AND_ORGANIZATION_ROLE ( 'design_supplier' ) ;
#252 = CARTESIAN_POINT ( 'NONE',  ( 2.444036937190193601E-13, -8.572527594031472993E-15, 70.00000000000000000 ) ) ;
#253 = EDGE_LOOP ( 'NONE', ( #90 ) ) ;
#254 = SHAPE_DEFINITION_REPRESENTATION ( #210, #276 ) ;
#255 = DIRECTION ( 'NONE',  ( -3.491481338843133355E-15, 1.224646799147353207E-16, -1.000000000000000000 ) ) ;
#256 = ORIENTED_EDGE ( 'NONE', *, *, #273, .F. ) ;
#257 = DIRECTION ( 'NONE',  ( -3.491481338843133355E-15, 1.224646799147353207E-16, -1.000000000000000000 ) ) ;
#258 = CARTESIAN_POINT ( 'NONE',  ( 3.558002992641242237E-14, 1.499999999999991562, 10.19052558883258897 ) ) ;
#259 = DIRECTION ( 'NONE',  ( 4.275831445896958607E-31, 1.000000000000000000, 1.224646799147353207E-16 ) ) ;
#260 = VERTEX_POINT ( 'NONE', #52 ) ;
#261 = DATE_AND_TIME ( #148, #302 ) ;
#262 = AXIS2_PLACEMENT_3D ( 'NONE', #216, #4, #244 ) ;
#263 = DIRECTION ( 'NONE',  ( -4.275831445896958607E-31, -1.000000000000000000, -1.224646799147353207E-16 ) ) ;
#264 = CYLINDRICAL_SURFACE ( 'NONE', #26, 1.610000000000000098 ) ;
#265 = DESIGN_CONTEXT ( 'detailed design', #133, 'design' ) ;
#266 = APPROVAL ( #29, 'UNSPECIFIED' ) ;
#267 = CIRCLE ( 'NONE', #161, 1.200000000000001510 ) ;
#268 = COORDINATED_UNIVERSAL_TIME_OFFSET ( 1, 0, .AHEAD. ) ;
#269 = EDGE_LOOP ( 'NONE', ( #229 ) ) ;
#270 = APPROVAL_PERSON_ORGANIZATION ( #15, #266, #243 ) ;
#271 = ORIENTED_EDGE ( 'NONE', *, *, #108, .F. ) ;
#272 = PRODUCT_RELATED_PRODUCT_CATEGORY ( 'detail', '', ( #20 ) ) ;
#273 = EDGE_CURVE ( 'NONE', #226, #226, #182, .T. ) ;
#274 = EDGE_LOOP ( 'NONE', ( #197 ) ) ;
#275 =( GEOMETRIC_REPRESENTATION_CONTEXT ( 3 ) GLOBAL_UNCERTAINTY_ASSIGNED_CONTEXT ( ( #190 ) ) GLOBAL_UNIT_ASSIGNED_CONTEXT ( ( #113, #158, #174 ) ) REPRESENTATION_CONTEXT ( 'NONE', 'WORKASPACE' ) );
#276 = ADVANCED_BREP_SHAPE_REPRESENTATION ( '321548', ( #55, #159, #239 ), #275 ) ;
#277 = ORIENTED_EDGE ( 'NONE', *, *, #168, .F. ) ;
#278 = CARTESIAN_POINT ( 'NONE',  ( 2.444036937190193601E-13, 8.998558695971026591E-33, 70.00000000000000000 ) ) ;
#279 = CIRCLE ( 'NONE', #142, 1.200000000000001510 ) ;
#280 = PLANE ( 'NONE',  #40 ) ;
#281 = FACE_OUTER_BOUND ( 'NONE', #115, .T. ) ;
#282 = FACE_OUTER_BOUND ( 'NONE', #194, .T. ) ;
#283 = PLANE ( 'NONE',  #217 ) ;
#284 = CC_DESIGN_PERSON_AND_ORGANIZATION_ASSIGNMENT ( #181, #193, ( #9 ) ) ;
#285 = PERSON_AND_ORGANIZATION_ROLE ( 'classification_officer' ) ;
#286 = ORIENTED_EDGE ( 'NONE', *, *, #80, .F. ) ;
#287 = ORIENTED_EDGE ( 'NONE', *, *, #168, .T. ) ;
#288 = AXIS2_PLACEMENT_3D ( 'NONE', #179, #91, #64 ) ;
#289 = EDGE_LOOP ( 'NONE', ( #297 ) ) ;
#290 = CC_DESIGN_APPROVAL ( #266, ( #9 ) ) ;
#291 = DIRECTION ( 'NONE',  ( 0.0000000000000000000, 0.0000000000000000000, 1.000000000000000000 ) ) ;
#292 = CC_DESIGN_DATE_AND_TIME_ASSIGNMENT ( #146, #127, ( #9 ) ) ;
#293 = EDGE_LOOP ( 'NONE', ( #287 ) ) ;
#294 = ADVANCED_FACE ( 'NONE', ( #281, #209 ), #74, .T. ) ;
#295 = FACE_BOUND ( 'NONE', #175, .T. ) ;
#296 = EDGE_LOOP ( 'NONE', ( #25 ) ) ;
#297 = ORIENTED_EDGE ( 'NONE', *, *, #35, .F. ) ;
#298 = CARTESIAN_POINT ( 'NONE',  ( 2.444036937190193601E-13, -8.572527594031472993E-15, 70.00000000000000000 ) ) ;
#299 = DIRECTION ( 'NONE',  ( -3.491481338843133355E-15, 1.224646799147353207E-16, -1.000000000000000000 ) ) ;
#300 = APPROVAL_DATE_TIME ( #261, #246 ) ;
#301 = AXIS2_PLACEMENT_3D ( 'NONE', #201, #106, #234 ) ;
#302 = LOCAL_TIME ( 10, 35, 24.00000000000000000, #268 ) ;
#303 = DIRECTION ( 'NONE',  ( 3.491481338843133355E-15, -1.224646799147353207E-16, 1.000000000000000000 ) ) ;
ENDSEC;
END-ISO-10303-21;
