ISO-10303-21;
HEADER;
FILE_DESCRIPTION (( 'STEP AP203' ),
    '1' );
FILE_NAME ('321547.step',
    '2021-12-02T09:35:24',
    ( '' ),
    ( '' ),
    'SwSTEP 2.0',
    'SolidWorks 2019',
    '' );
FILE_SCHEMA (( 'CONFIG_CONTROL_DESIGN' ));
ENDSEC;

DATA;
#1 = EDGE_LOOP ( 'NONE', ( #214 ) ) ;
#2 = EDGE_LOOP ( 'NONE', ( #165 ) ) ;
#3 = CARTESIAN_POINT ( 'NONE',  ( 0.0000000000000000000, 0.0000000000000000000, 0.0000000000000000000 ) ) ;
#4 = APPLICATION_CONTEXT ( 'configuration controlled 3d designs of mechanical parts and assemblies' ) ;
#5 = AXIS2_PLACEMENT_3D ( 'NONE', #122, #36, #226 ) ;
#6 = CC_DESIGN_APPROVAL ( #176, ( #173 ) ) ;
#7 = APPROVAL ( #39, 'UNSPECIFIED' ) ;
#8 = VERTEX_POINT ( 'NONE', #150 ) ;
#9 = PRODUCT_DEFINITION_FORMATION_WITH_SPECIFIED_SOURCE ( 'ANY', '', #199, .NOT_KNOWN. ) ;
#10 = DIRECTION ( 'NONE',  ( 4.275831445896958607E-31, 1.000000000000000000, 1.224646799147353207E-16 ) ) ;
#11 = DIRECTION ( 'NONE',  ( -3.491481338843133355E-15, 1.224646799147353207E-16, -1.000000000000000000 ) ) ;
#12 = AXIS2_PLACEMENT_3D ( 'NONE', #269, #35, #145 ) ;
#13 = CC_DESIGN_APPROVAL ( #7, ( #9 ) ) ;
#14 = DIRECTION ( 'NONE',  ( 0.0000000000000000000, 0.0000000000000000000, 1.000000000000000000 ) ) ;
#15 = PERSON_AND_ORGANIZATION ( #222, #34 ) ;
#16 = DIRECTION ( 'NONE',  ( -3.491481338843133355E-15, 1.224646799147353207E-16, -1.000000000000000000 ) ) ;
#17 = APPLICATION_CONTEXT ( 'configuration controlled 3d designs of mechanical parts and assemblies' ) ;
#18 = APPROVAL_ROLE ( '' ) ;
#19 = PRODUCT_RELATED_PRODUCT_CATEGORY ( 'detail', '', ( #199 ) ) ;
#20 = ADVANCED_FACE ( 'NONE', ( #149, #209 ), #157, .T. ) ;
#21 = DIRECTION ( 'NONE',  ( 0.0000000000000000000, 1.000000000000000000, 0.0000000000000000000 ) ) ;
#22 = ORIENTED_EDGE ( 'NONE', *, *, #166, .T. ) ;
#23 = APPROVAL_ROLE ( '' ) ;
#24 = AXIS2_PLACEMENT_3D ( 'NONE', #118, #123, #10 ) ;
#25 = SECURITY_CLASSIFICATION ( '', '', #232 ) ;
#26 = FACE_OUTER_BOUND ( 'NONE', #90, .T. ) ;
#27 = ADVANCED_FACE ( 'NONE', ( #228 ), #251, .T. ) ;
#28 = AXIS2_PLACEMENT_3D ( 'NONE', #213, #191, #30 ) ;
#29 = LOCAL_TIME ( 10, 35, 24.00000000000000000, #234 ) ;
#30 = DIRECTION ( 'NONE',  ( 0.0000000000000000000, 1.000000000000000000, 0.0000000000000000000 ) ) ;
#31 = EDGE_CURVE ( 'NONE', #202, #202, #127, .T. ) ;
#32 = FACE_BOUND ( 'NONE', #111, .T. ) ;
#33 = DIRECTION ( 'NONE',  ( -3.491481338843133355E-15, 1.224646799147353207E-16, -1.000000000000000000 ) ) ;
#34 = ORGANIZATION ( 'UNSPECIFIED', 'UNSPECIFIED', '' ) ;
#35 = DIRECTION ( 'NONE',  ( -3.491481338843133355E-15, 1.224646799147353207E-16, -1.000000000000000000 ) ) ;
#36 = DIRECTION ( 'NONE',  ( -3.491481338843133355E-15, 1.224646799147353207E-16, -1.000000000000000000 ) ) ;
#37 = PLANE ( 'NONE',  #174 ) ;
#38 = COORDINATED_UNIVERSAL_TIME_OFFSET ( 1, 0, .AHEAD. ) ;
#39 = APPROVAL_STATUS ( 'not_yet_approved' ) ;
#40 = EDGE_CURVE ( 'NONE', #250, #250, #44, .T. ) ;
#41 = ADVANCED_FACE ( 'NONE', ( #106 ), #37, .F. ) ;
#42 = DIRECTION ( 'NONE',  ( 1.000000000000000000, 0.0000000000000000000, 0.0000000000000000000 ) ) ;
#43 = DIRECTION ( 'NONE',  ( -3.491481338843133355E-15, 1.224646799147353207E-16, -1.000000000000000000 ) ) ;
#44 = CIRCLE ( 'NONE', #5, 1.604999999999999982 ) ;
#45 = ORIENTED_EDGE ( 'NONE', *, *, #294, .F. ) ;
#46 = DIRECTION ( 'NONE',  ( 0.0000000000000000000, 1.000000000000000000, 0.0000000000000000000 ) ) ;
#47 = CALENDAR_DATE ( 2021, 2, 12 ) ;
#48 = CIRCLE ( 'NONE', #221, 1.200000000000001510 ) ;
#49 = APPROVAL_PERSON_ORGANIZATION ( #272, #7, #18 ) ;
#50 = EDGE_LOOP ( 'NONE', ( #171 ) ) ;
#51 = CIRCLE ( 'NONE', #130, 1.200000000000001510 ) ;
#52 = DIRECTION ( 'NONE',  ( -3.491481338843133355E-15, 1.224646799147353207E-16, -1.000000000000000000 ) ) ;
#53 = CARTESIAN_POINT ( 'NONE',  ( 3.491481338843133355E-14, -1.224646799147353256E-15, 10.00000000000000000 ) ) ;
#54 = ORIENTED_EDGE ( 'NONE', *, *, #102, .F. ) ;
#55 = CLOSED_SHELL ( 'NONE', ( #58, #20, #62, #27, #283, #177, #210 ) ) ;
#56 = CARTESIAN_POINT ( 'NONE',  ( 2.444036937190193601E-13, 1.199999999999992628, 70.00000000000000000 ) ) ;
#57 = CARTESIAN_POINT ( 'NONE',  ( 0.0000000000000000000, 1.354999999999999316, 0.0000000000000000000 ) ) ;
#58 = ADVANCED_FACE ( 'NONE', ( #32, #60 ), #297, .T. ) ;
#59 = VERTEX_POINT ( 'NONE', #153 ) ;
#60 = FACE_OUTER_BOUND ( 'NONE', #107, .T. ) ;
#61 = CC_DESIGN_DATE_AND_TIME_ASSIGNMENT ( #140, #158, ( #173 ) ) ;
#62 = ADVANCED_FACE ( 'NONE', ( #26, #285 ), #240, .T. ) ;
#63 = CALENDAR_DATE ( 2021, 2, 12 ) ;
#64 = COORDINATED_UNIVERSAL_TIME_OFFSET ( 1, 0, .AHEAD. ) ;
#65 = DIRECTION ( 'NONE',  ( 3.491481338843133355E-15, -1.224646799147353207E-16, 1.000000000000000000 ) ) ;
#66 = CYLINDRICAL_SURFACE ( 'NONE', #190, 1.499999999999996891 ) ;
#67 = DIRECTION ( 'NONE',  ( 0.0000000000000000000, 1.000000000000000000, 0.0000000000000000000 ) ) ;
#68 = CIRCLE ( 'NONE', #245, 1.354999999999999316 ) ;
#69 = ORIENTED_EDGE ( 'NONE', *, *, #229, .T. ) ;
#70 = DIRECTION ( 'NONE',  ( -3.491481338843133355E-15, 1.224646799147353207E-16, -1.000000000000000000 ) ) ;
#71 = EDGE_LOOP ( 'NONE', ( #259 ) ) ;
#72 = FACE_BOUND ( 'NONE', #242, .T. ) ;
#73 = CALENDAR_DATE ( 2021, 2, 12 ) ;
#74 = SHAPE_DEFINITION_REPRESENTATION ( #92, #300 ) ;
#75 = CC_DESIGN_PERSON_AND_ORGANIZATION_ASSIGNMENT ( #252, #208, ( #199 ) ) ;
#76 = EDGE_CURVE ( 'NONE', #83, #83, #254, .T. ) ;
#77 = EDGE_LOOP ( 'NONE', ( #281 ) ) ;
#78 = EDGE_LOOP ( 'NONE', ( #116 ) ) ;
#79 = FACE_OUTER_BOUND ( 'NONE', #192, .T. ) ;
#80 = AXIS2_PLACEMENT_3D ( 'NONE', #299, #14, #42 ) ;
#81 = CARTESIAN_POINT ( 'NONE',  ( -5.793751609190375943E-31, 2.032174505506816019E-32, -1.659396412844662756E-16 ) ) ;
#82 = DIRECTION ( 'NONE',  ( 4.275831445896959482E-31, 1.000000000000000000, 1.224646799147353207E-16 ) ) ;
#83 = VERTEX_POINT ( 'NONE', #179 ) ;
#84 = CARTESIAN_POINT ( 'NONE',  ( 3.491481338843133355E-14, 1.203557225586138842E-32, 10.00000000000000000 ) ) ;
#85 = DIRECTION ( 'NONE',  ( 0.0000000000000000000, 1.000000000000000000, 0.0000000000000000000 ) ) ;
#86 = PERSON_AND_ORGANIZATION ( #222, #34 ) ;
#87 = APPROVAL_DATE_TIME ( #211, #176 ) ;
#88 = MECHANICAL_CONTEXT ( 'NONE', #4, 'mechanical' ) ;
#89 = CONICAL_SURFACE ( 'NONE', #215, 1.604999999999999982, 0.5235987755983008141 ) ;
#90 = EDGE_LOOP ( 'NONE', ( #288 ) ) ;
#91 = CARTESIAN_POINT ( 'NONE',  ( 2.444036937190193601E-13, -8.572527594031472993E-15, 70.00000000000000000 ) ) ;
#92 = PRODUCT_DEFINITION_SHAPE ( 'NONE', 'NONE',  #173 ) ;
#93 = EDGE_LOOP ( 'NONE', ( #137 ) ) ;
#94 = DATE_AND_TIME ( #47, #206 ) ;
#95 = ADVANCED_FACE ( 'NONE', ( #277, #279 ), #66, .T. ) ;
#96 = ADVANCED_FACE ( 'NONE', ( #163, #161 ), #235, .T. ) ;
#97 = EDGE_LOOP ( 'NONE', ( #280 ) ) ;
#98 = CLOSED_SHELL ( 'NONE', ( #268, #219, #95, #96, #41 ) ) ;
#99 = LOCAL_TIME ( 10, 35, 24.00000000000000000, #64 ) ;
#100 = CARTESIAN_POINT ( 'NONE',  ( 2.433562493173664138E-13, -8.535788190057053710E-15, 69.70000000000001705 ) ) ;
#101 = CARTESIAN_POINT ( 'NONE',  ( 2.433562493173664138E-13, -8.535788190057053710E-15, 69.70000000000001705 ) ) ;
#102 = EDGE_CURVE ( 'NONE', #223, #223, #270, .T. ) ;
#103 = DIRECTION ( 'NONE',  ( 4.275831445896958607E-31, 1.000000000000000000, 1.224646799147353207E-16 ) ) ;
#104 = APPLICATION_PROTOCOL_DEFINITION ( 'international standard', 'config_control_design', 1994, #17 ) ;
#105 = CARTESIAN_POINT ( 'NONE',  ( 3.554979281104964102E-14, 1.499999999999991562, 10.18186533479474321 ) ) ;
#106 = FACE_OUTER_BOUND ( 'NONE', #2, .T. ) ;
#107 = EDGE_LOOP ( 'NONE', ( #194 ) ) ;
#108 = APPROVAL_DATE_TIME ( #94, #7 ) ;
#109 = AXIS2_PLACEMENT_3D ( 'NONE', #168, #261, #46 ) ;
#110 = CARTESIAN_POINT ( 'NONE',  ( 3.554979281104964102E-14, -1.246918879160577805E-15, 10.18186533479474321 ) ) ;
#111 = EDGE_LOOP ( 'NONE', ( #265 ) ) ;
#112 = CARTESIAN_POINT ( 'NONE',  ( 3.491481338843133355E-14, -1.224646799147353256E-15, 10.00000000000000000 ) ) ;
#113 = COORDINATED_UNIVERSAL_TIME_OFFSET ( 1, 0, .AHEAD. ) ;
#114 = CC_DESIGN_PERSON_AND_ORGANIZATION_ASSIGNMENT ( #169, #255, ( #173 ) ) ;
#115 = DESIGN_CONTEXT ( 'detailed design', #17, 'design' ) ;
#116 = ORIENTED_EDGE ( 'NONE', *, *, #144, .T. ) ;
#117 = ORIENTED_EDGE ( 'NONE', *, *, #160, .F. ) ;
#118 = CARTESIAN_POINT ( 'NONE',  ( 2.444036937190193601E-13, -8.572527594031472993E-15, 70.00000000000000000 ) ) ;
#119 = CARTESIAN_POINT ( 'NONE',  ( 3.491481338843133355E-14, -1.224646799147353256E-15, 10.00000000000000000 ) ) ;
#120 = APPROVAL ( #237, 'UNSPECIFIED' ) ;
#121 = DIRECTION ( 'NONE',  ( 3.491481338843133355E-15, -1.224646799147353207E-16, 1.000000000000000000 ) ) ;
#122 = CARTESIAN_POINT ( 'NONE',  ( 8.728703347107827472E-16, -3.061616997868381169E-17, 0.2499999999999998335 ) ) ;
#123 = DIRECTION ( 'NONE',  ( -3.491481338843133355E-15, 1.224646799147353207E-16, -1.000000000000000000 ) ) ;
#124 = DIRECTION ( 'NONE',  ( -3.491481338843133355E-15, 1.224646799147353207E-16, -1.000000000000000000 ) ) ;
#125 = CARTESIAN_POINT ( 'NONE',  ( -2.896875804595187971E-31, 1.016087252753408009E-32, -8.296982064223313782E-17 ) ) ;
#126 = PERSON_AND_ORGANIZATION_ROLE ( 'design_supplier' ) ;
#127 = CIRCLE ( 'NONE', #198, 1.500000000000001110 ) ;
#128 = VERTEX_POINT ( 'NONE', #57 ) ;
#129 = APPROVAL_ROLE ( '' ) ;
#130 = AXIS2_PLACEMENT_3D ( 'NONE', #91, #70, #21 ) ;
#131 = LOCAL_TIME ( 10, 35, 24.00000000000000000, #113 ) ;
#132 = MANIFOLD_SOLID_BREP ( 'Corps-Déplacer/Copier1[2]', #55 ) ;
#133 = DIRECTION ( 'NONE',  ( -3.491481338843133355E-15, 1.224646799147353207E-16, -1.000000000000000000 ) ) ;
#134 = MANIFOLD_SOLID_BREP ( 'Corps-Déplacer/Copier1[1]', #98 ) ;
#135 = DIRECTION ( 'NONE',  ( -4.275831445896958607E-31, -1.000000000000000000, -1.224646799147353207E-16 ) ) ;
#136 = DATE_AND_TIME ( #159, #99 ) ;
#137 = ORIENTED_EDGE ( 'NONE', *, *, #40, .F. ) ;
#138 = FACE_OUTER_BOUND ( 'NONE', #71, .T. ) ;
#139 = AXIS2_PLACEMENT_3D ( 'NONE', #257, #43, #258 ) ;
#140 = DATE_AND_TIME ( #63, #29 ) ;
#141 = AXIS2_PLACEMENT_3D ( 'NONE', #112, #16, #67 ) ;
#142 = LOCAL_TIME ( 10, 35, 24.00000000000000000, #186 ) ;
#143 = DIRECTION ( 'NONE',  ( 0.0000000000000000000, 1.000000000000000000, 0.0000000000000000000 ) ) ;
#144 = EDGE_CURVE ( 'NONE', #178, #178, #51, .T. ) ;
#145 = DIRECTION ( 'NONE',  ( 0.0000000000000000000, 1.000000000000000000, 0.0000000000000000000 ) ) ;
#146 = AXIS2_PLACEMENT_3D ( 'NONE', #119, #154, #224 ) ;
#147 = APPROVAL_PERSON_ORGANIZATION ( #86, #120, #23 ) ;
#148 = DIRECTION ( 'NONE',  ( -3.491481338843133355E-15, 1.224646799147353207E-16, -1.000000000000000000 ) ) ;
#149 = FACE_OUTER_BOUND ( 'NONE', #151, .T. ) ;
#150 = CARTESIAN_POINT ( 'NONE',  ( 3.491481338843133355E-14, 1.604999999999998872, 10.00000000000000000 ) ) ;
#151 = EDGE_LOOP ( 'NONE', ( #196 ) ) ;
#152 = PERSON_AND_ORGANIZATION_ROLE ( 'creator' ) ;
#153 = CARTESIAN_POINT ( 'NONE',  ( 2.433562493173664138E-13, 1.499999999999992673, 69.70000000000001705 ) ) ;
#154 = DIRECTION ( 'NONE',  ( -3.491481338843133355E-15, 1.224646799147353207E-16, -1.000000000000000000 ) ) ;
#155 = PERSON_AND_ORGANIZATION ( #222, #34 ) ;
#156 = AXIS2_PLACEMENT_3D ( 'NONE', #84, #121, #201 ) ;
#157 = CYLINDRICAL_SURFACE ( 'NONE', #266, 1.604999999999999982 ) ;
#158 = DATE_TIME_ROLE ( 'creation_date' ) ;
#159 = CALENDAR_DATE ( 2021, 2, 12 ) ;
#160 = EDGE_CURVE ( 'NONE', #207, #207, #162, .T. ) ;
#161 = FACE_BOUND ( 'NONE', #78, .T. ) ;
#162 = CIRCLE ( 'NONE', #28, 1.499999999999992895 ) ;
#163 = FACE_OUTER_BOUND ( 'NONE', #244, .T. ) ;
#164 = APPROVAL_PERSON_ORGANIZATION ( #155, #176, #129 ) ;
#165 = ORIENTED_EDGE ( 'NONE', *, *, #144, .F. ) ;
#166 = EDGE_CURVE ( 'NONE', #267, #267, #48, .T. ) ;
#167 = EDGE_LOOP ( 'NONE', ( #260 ) ) ;
#168 = CARTESIAN_POINT ( 'NONE',  ( 2.444036937190193601E-13, -8.572527594031472993E-15, 70.00000000000000000 ) ) ;
#169 = PERSON_AND_ORGANIZATION ( #222, #34 ) ;
#170 =( GEOMETRIC_REPRESENTATION_CONTEXT ( 3 ) GLOBAL_UNCERTAINTY_ASSIGNED_CONTEXT ( ( #239 ) ) GLOBAL_UNIT_ASSIGNED_CONTEXT ( ( #231, #290, #184 ) ) REPRESENTATION_CONTEXT ( 'NONE', 'WORKASPACE' ) );
#171 = ORIENTED_EDGE ( 'NONE', *, *, #233, .F. ) ;
#172 = EDGE_LOOP ( 'NONE', ( #69 ) ) ;
#173 = PRODUCT_DEFINITION ( 'UNKNOWN', '', #9, #115 ) ;
#174 = AXIS2_PLACEMENT_3D ( 'NONE', #253, #298, #274 ) ;
#175 = PLANE ( 'NONE',  #24 ) ;
#176 = APPROVAL ( #301, 'UNSPECIFIED' ) ;
#177 = ADVANCED_FACE ( 'NONE', ( #79, #72 ), #248, .T. ) ;
#178 = VERTEX_POINT ( 'NONE', #56 ) ;
#179 = CARTESIAN_POINT ( 'NONE',  ( 3.491481338843133355E-14, 1.604999999999998872, 10.00000000000000000 ) ) ;
#180 = CC_DESIGN_APPROVAL ( #120, ( #25 ) ) ;
#181 = CARTESIAN_POINT ( 'NONE',  ( 2.444036937190193601E-13, 1.199999999999992628, 70.00000000000000000 ) ) ;
#182 = APPLICATION_PROTOCOL_DEFINITION ( 'international standard', 'config_control_design', 1994, #4 ) ;
#183 = DIRECTION ( 'NONE',  ( 4.275831445896958607E-31, 1.000000000000000000, 1.224646799147353207E-16 ) ) ;
#184 =( NAMED_UNIT ( * ) SI_UNIT ( $, .STERADIAN. ) SOLID_ANGLE_UNIT ( ) );
#185 = DIRECTION ( 'NONE',  ( -3.491481338843133355E-15, 1.224646799147353207E-16, -1.000000000000000000 ) ) ;
#186 = COORDINATED_UNIVERSAL_TIME_OFFSET ( 1, 0, .AHEAD. ) ;
#187 = AXIS2_PLACEMENT_3D ( 'NONE', #125, #11, #103 ) ;
#188 = CC_DESIGN_DATE_AND_TIME_ASSIGNMENT ( #136, #205, ( #25 ) ) ;
#189 = PERSON_AND_ORGANIZATION ( #222, #34 ) ;
#190 = AXIS2_PLACEMENT_3D ( 'NONE', #256, #212, #303 ) ;
#191 = DIRECTION ( 'NONE',  ( -3.491481338843133355E-15, 1.224646799147353207E-16, -1.000000000000000000 ) ) ;
#192 = EDGE_LOOP ( 'NONE', ( #45 ) ) ;
#193 = DATE_AND_TIME ( #216, #131 ) ;
#194 = ORIENTED_EDGE ( 'NONE', *, *, #76, .F. ) ;
#195 = DIRECTION ( 'NONE',  ( -3.491481338843133355E-15, 1.224646799147353207E-16, -1.000000000000000000 ) ) ;
#196 = ORIENTED_EDGE ( 'NONE', *, *, #76, .T. ) ;
#197 = CARTESIAN_POINT ( 'NONE',  ( 2.444036937190193601E-13, -8.572527594031472993E-15, 70.00000000000000000 ) ) ;
#198 = AXIS2_PLACEMENT_3D ( 'NONE', #101, #185, #85 ) ;
#199 = PRODUCT ( '321547', '321547', '', ( #88 ) ) ;
#200 = CIRCLE ( 'NONE', #230, 1.500000000000001110 ) ;
#201 = DIRECTION ( 'NONE',  ( -4.275831445896958607E-31, -1.000000000000000000, -1.224646799147353207E-16 ) ) ;
#202 = VERTEX_POINT ( 'NONE', #271 ) ;
#203 = CARTESIAN_POINT ( 'NONE',  ( 3.554979281104964102E-14, 1.499999999999991562, 10.18186533479474321 ) ) ;
#204 = AXIS2_PLACEMENT_3D ( 'NONE', #3, #195, #284 ) ;
#205 = DATE_TIME_ROLE ( 'classification_date' ) ;
#206 = LOCAL_TIME ( 10, 35, 24.00000000000000000, #38 ) ;
#207 = VERTEX_POINT ( 'NONE', #203 ) ;
#208 = PERSON_AND_ORGANIZATION_ROLE ( 'design_owner' ) ;
#209 = FACE_OUTER_BOUND ( 'NONE', #93, .T. ) ;
#210 = ADVANCED_FACE ( 'NONE', ( #264, #138 ), #241, .T. ) ;
#211 = DATE_AND_TIME ( #73, #142 ) ;
#212 = DIRECTION ( 'NONE',  ( -3.491481338843133355E-15, 1.224646799147353207E-16, -1.000000000000000000 ) ) ;
#213 = CARTESIAN_POINT ( 'NONE',  ( 3.554979281104964102E-14, -1.246918879160577805E-15, 10.18186533479474321 ) ) ;
#214 = ORIENTED_EDGE ( 'NONE', *, *, #102, .T. ) ;
#215 = AXIS2_PLACEMENT_3D ( 'NONE', #53, #33, #143 ) ;
#216 = CALENDAR_DATE ( 2021, 2, 12 ) ;
#217 = EDGE_LOOP ( 'NONE', ( #54 ) ) ;
#218 = ORIENTED_EDGE ( 'NONE', *, *, #229, .F. ) ;
#219 = ADVANCED_FACE ( 'NONE', ( #273, #247 ), #89, .T. ) ;
#220 = EDGE_LOOP ( 'NONE', ( #117 ) ) ;
#221 = AXIS2_PLACEMENT_3D ( 'NONE', #197, #52, #289 ) ;
#222 = PERSON ( 'UNSPECIFIED', 'UNSPECIFIED', 'UNSPECIFIED', ('UNSPECIFIED'), ('UNSPECIFIED'), ('UNSPECIFIED') ) ;
#223 = VERTEX_POINT ( 'NONE', #105 ) ;
#224 = DIRECTION ( 'NONE',  ( 0.0000000000000000000, 1.000000000000000000, 0.0000000000000000000 ) ) ;
#225 = FACE_OUTER_BOUND ( 'NONE', #77, .T. ) ;
#226 = DIRECTION ( 'NONE',  ( 4.799825406572550672E-31, 1.000000000000000000, 1.351030744530223667E-16 ) ) ;
#227 = PLANE ( 'NONE',  #156 ) ;
#228 = FACE_OUTER_BOUND ( 'NONE', #172, .T. ) ;
#229 = EDGE_CURVE ( 'NONE', #128, #128, #68, .T. ) ;
#230 = AXIS2_PLACEMENT_3D ( 'NONE', #100, #124, #292 ) ;
#231 =( LENGTH_UNIT ( ) NAMED_UNIT ( * ) SI_UNIT ( .MILLI., .METRE. ) );
#232 = SECURITY_CLASSIFICATION_LEVEL ( 'unclassified' ) ;
#233 = EDGE_CURVE ( 'NONE', #8, #8, #263, .T. ) ;
#234 = COORDINATED_UNIVERSAL_TIME_OFFSET ( 1, 0, .AHEAD. ) ;
#235 = CONICAL_SURFACE ( 'NONE', #139, 1.200000000000001510, 0.7853981633974566057 ) ;
#236 = DIRECTION ( 'NONE',  ( 0.0000000000000000000, 1.000000000000000000, 0.0000000000000000000 ) ) ;
#237 = APPROVAL_STATUS ( 'not_yet_approved' ) ;
#238 = ORIENTED_EDGE ( 'NONE', *, *, #31, .F. ) ;
#239 = UNCERTAINTY_MEASURE_WITH_UNIT (LENGTH_MEASURE( 1.000000000000000082E-05 ), #231, 'distance_accuracy_value', 'NONE');
#240 = CONICAL_SURFACE ( 'NONE', #275, 1.354999999999999316, 0.7853981633974500554 ) ;
#241 = CYLINDRICAL_SURFACE ( 'NONE', #204, 1.499999999999996891 ) ;
#242 = EDGE_LOOP ( 'NONE', ( #22 ) ) ;
#243 = CC_DESIGN_PERSON_AND_ORGANIZATION_ASSIGNMENT ( #189, #278, ( #25 ) ) ;
#244 = EDGE_LOOP ( 'NONE', ( #238 ) ) ;
#245 = AXIS2_PLACEMENT_3D ( 'NONE', #81, #148, #183 ) ;
#246 = FACE_OUTER_BOUND ( 'NONE', #97, .T. ) ;
#247 = FACE_OUTER_BOUND ( 'NONE', #50, .T. ) ;
#248 = CONICAL_SURFACE ( 'NONE', #109, 1.200000000000001510, 0.7853981633974566057 ) ;
#249 = DIRECTION ( 'NONE',  ( -3.491481338843133355E-15, 1.224646799147353207E-16, -1.000000000000000000 ) ) ;
#250 = VERTEX_POINT ( 'NONE', #295 ) ;
#251 = PLANE ( 'NONE',  #187 ) ;
#252 = PERSON_AND_ORGANIZATION ( #222, #34 ) ;
#253 = CARTESIAN_POINT ( 'NONE',  ( 2.444036937190193601E-13, 8.998558695971026591E-33, 70.00000000000000000 ) ) ;
#254 = CIRCLE ( 'NONE', #141, 1.604999999999999982 ) ;
#255 = PERSON_AND_ORGANIZATION_ROLE ( 'creator' ) ;
#256 = CARTESIAN_POINT ( 'NONE',  ( 0.0000000000000000000, 0.0000000000000000000, 0.0000000000000000000 ) ) ;
#257 = CARTESIAN_POINT ( 'NONE',  ( 2.444036937190193601E-13, -8.572527594031472993E-15, 70.00000000000000000 ) ) ;
#258 = DIRECTION ( 'NONE',  ( 0.0000000000000000000, 1.000000000000000000, 0.0000000000000000000 ) ) ;
#259 = ORIENTED_EDGE ( 'NONE', *, *, #294, .T. ) ;
#260 = ORIENTED_EDGE ( 'NONE', *, *, #31, .T. ) ;
#261 = DIRECTION ( 'NONE',  ( -3.491481338843133355E-15, 1.224646799147353207E-16, -1.000000000000000000 ) ) ;
#262 = CC_DESIGN_PERSON_AND_ORGANIZATION_ASSIGNMENT ( #15, #152, ( #9 ) ) ;
#263 = CIRCLE ( 'NONE', #12, 1.604999999999999982 ) ;
#264 = FACE_OUTER_BOUND ( 'NONE', #220, .T. ) ;
#265 = ORIENTED_EDGE ( 'NONE', *, *, #160, .T. ) ;
#266 = AXIS2_PLACEMENT_3D ( 'NONE', #296, #249, #82 ) ;
#267 = VERTEX_POINT ( 'NONE', #181 ) ;
#268 = ADVANCED_FACE ( 'NONE', ( #246 ), #227, .F. ) ;
#269 = CARTESIAN_POINT ( 'NONE',  ( 3.491481338843133355E-14, -1.224646799147353256E-15, 10.00000000000000000 ) ) ;
#270 = CIRCLE ( 'NONE', #291, 1.499999999999992895 ) ;
#271 = CARTESIAN_POINT ( 'NONE',  ( 2.433562493173664138E-13, 1.499999999999992673, 69.70000000000001705 ) ) ;
#272 = PERSON_AND_ORGANIZATION ( #222, #34 ) ;
#273 = FACE_BOUND ( 'NONE', #1, .T. ) ;
#274 = DIRECTION ( 'NONE',  ( 4.275831445896958607E-31, 1.000000000000000000, 1.224646799147353207E-16 ) ) ;
#275 = AXIS2_PLACEMENT_3D ( 'NONE', #287, #65, #135 ) ;
#276 = CC_DESIGN_SECURITY_CLASSIFICATION ( #25, ( #9 ) ) ;
#277 = FACE_OUTER_BOUND ( 'NONE', #217, .T. ) ;
#278 = PERSON_AND_ORGANIZATION_ROLE ( 'classification_officer' ) ;
#279 = FACE_OUTER_BOUND ( 'NONE', #167, .T. ) ;
#280 = ORIENTED_EDGE ( 'NONE', *, *, #233, .T. ) ;
#281 = ORIENTED_EDGE ( 'NONE', *, *, #166, .F. ) ;
#282 = APPROVAL_DATE_TIME ( #193, #120 ) ;
#283 = ADVANCED_FACE ( 'NONE', ( #225 ), #175, .F. ) ;
#284 = DIRECTION ( 'NONE',  ( 4.275831445896958607E-31, 1.000000000000000000, 1.224646799147353454E-16 ) ) ;
#285 = FACE_BOUND ( 'NONE', #286, .T. ) ;
#286 = EDGE_LOOP ( 'NONE', ( #218 ) ) ;
#287 = CARTESIAN_POINT ( 'NONE',  ( -5.793751609190375943E-31, 2.032174505506816019E-32, -1.659396412844662756E-16 ) ) ;
#288 = ORIENTED_EDGE ( 'NONE', *, *, #40, .T. ) ;
#289 = DIRECTION ( 'NONE',  ( 0.0000000000000000000, 1.000000000000000000, 0.0000000000000000000 ) ) ;
#290 =( NAMED_UNIT ( * ) PLANE_ANGLE_UNIT ( ) SI_UNIT ( $, .RADIAN. ) );
#291 = AXIS2_PLACEMENT_3D ( 'NONE', #110, #133, #236 ) ;
#292 = DIRECTION ( 'NONE',  ( 0.0000000000000000000, 1.000000000000000000, 0.0000000000000000000 ) ) ;
#293 = CC_DESIGN_PERSON_AND_ORGANIZATION_ASSIGNMENT ( #302, #126, ( #9 ) ) ;
#294 = EDGE_CURVE ( 'NONE', #59, #59, #200, .T. ) ;
#295 = CARTESIAN_POINT ( 'NONE',  ( 8.728703347107835360E-16, 1.604999999999999982, 0.2500000000000000555 ) ) ;
#296 = CARTESIAN_POINT ( 'NONE',  ( 0.0000000000000000000, 0.0000000000000000000, 0.0000000000000000000 ) ) ;
#297 = CONICAL_SURFACE ( 'NONE', #146, 1.604999999999999982, 0.5235987755983008141 ) ;
#298 = DIRECTION ( 'NONE',  ( -3.491481338843133355E-15, 1.224646799147353207E-16, -1.000000000000000000 ) ) ;
#299 = CARTESIAN_POINT ( 'NONE',  ( 0.0000000000000000000, 0.0000000000000000000, 0.0000000000000000000 ) ) ;
#300 = ADVANCED_BREP_SHAPE_REPRESENTATION ( '321547', ( #134, #132, #80 ), #170 ) ;
#301 = APPROVAL_STATUS ( 'not_yet_approved' ) ;
#302 = PERSON_AND_ORGANIZATION ( #222, #34 ) ;
#303 = DIRECTION ( 'NONE',  ( 4.275831445896958607E-31, 1.000000000000000000, 1.224646799147353454E-16 ) ) ;
ENDSEC;
END-ISO-10303-21;
