ISO-10303-21;
HEADER;
FILE_DESCRIPTION (( 'STEP AP203' ),
    '1' );
FILE_NAME ('321546.step',
    '2021-12-02T09:35:23',
    ( '' ),
    ( '' ),
    'SwSTEP 2.0',
    'SolidWorks 2019',
    '' );
FILE_SCHEMA (( 'CONFIG_CONTROL_DESIGN' ));
ENDSEC;

DATA;
#1 = CARTESIAN_POINT ( 'NONE',  ( 2.433562493173664138E-13, 1.499999999999992673, 69.70000000000001705 ) ) ;
#2 = DIRECTION ( 'NONE',  ( -3.491481338843133355E-15, 1.224646799147353207E-16, -1.000000000000000000 ) ) ;
#3 = AXIS2_PLACEMENT_3D ( 'NONE', #128, #240, #285 ) ;
#4 = VERTEX_POINT ( 'NONE', #170 ) ;
#5 = FACE_OUTER_BOUND ( 'NONE', #107, .T. ) ;
#6 = COORDINATED_UNIVERSAL_TIME_OFFSET ( 1, 0, .AHEAD. ) ;
#7 = DIRECTION ( 'NONE',  ( 0.0000000000000000000, 1.000000000000000000, 0.0000000000000000000 ) ) ;
#8 = CARTESIAN_POINT ( 'NONE',  ( 2.444036937190193601E-13, -8.572527594031472993E-15, 70.00000000000000000 ) ) ;
#9 = LOCAL_TIME ( 10, 35, 23.00000000000000000, #261 ) ;
#10 = CARTESIAN_POINT ( 'NONE',  ( 2.444036937190193601E-13, -8.572527594031472993E-15, 70.00000000000000000 ) ) ;
#11 = ORIENTED_EDGE ( 'NONE', *, *, #290, .T. ) ;
#12 = APPROVAL ( #124, 'UNSPECIFIED' ) ;
#13 = LOCAL_TIME ( 10, 35, 23.00000000000000000, #76 ) ;
#14 = ORIENTED_EDGE ( 'NONE', *, *, #66, .T. ) ;
#15 = CARTESIAN_POINT ( 'NONE',  ( 8.728703347107827472E-16, -3.061616997868381169E-17, 0.2499999999999998335 ) ) ;
#16 = EDGE_LOOP ( 'NONE', ( #226 ) ) ;
#17 = ORIENTED_EDGE ( 'NONE', *, *, #80, .F. ) ;
#18 = FACE_OUTER_BOUND ( 'NONE', #227, .T. ) ;
#19 = CARTESIAN_POINT ( 'NONE',  ( 3.491481338843133355E-14, 1.199807826129484170E-32, 10.00000000000000000 ) ) ;
#20 = CONICAL_SURFACE ( 'NONE', #219, 1.600000000000000089, 0.5235987755982984826 ) ;
#21 = APPROVAL ( #276, 'UNSPECIFIED' ) ;
#22 = ADVANCED_FACE ( 'NONE', ( #138 ), #223, .F. ) ;
#23 = CARTESIAN_POINT ( 'NONE',  ( 3.491481338843133355E-14, 1.599999999999998757, 10.00000000000000000 ) ) ;
#24 =( LENGTH_UNIT ( ) NAMED_UNIT ( * ) SI_UNIT ( .MILLI., .METRE. ) );
#25 = COORDINATED_UNIVERSAL_TIME_OFFSET ( 1, 0, .AHEAD. ) ;
#26 = AXIS2_PLACEMENT_3D ( 'NONE', #15, #161, #159 ) ;
#27 = DATE_AND_TIME ( #168, #83 ) ;
#28 = DIRECTION ( 'NONE',  ( 0.0000000000000000000, 1.000000000000000000, 0.0000000000000000000 ) ) ;
#29 = CONICAL_SURFACE ( 'NONE', #105, 1.600000000000000089, 0.5235987755982984826 ) ;
#30 = ADVANCED_FACE ( 'NONE', ( #75, #46 ), #118, .T. ) ;
#31 = FACE_OUTER_BOUND ( 'NONE', #16, .T. ) ;
#32 = CC_DESIGN_APPROVAL ( #12, ( #266 ) ) ;
#33 = ADVANCED_FACE ( 'NONE', ( #18 ), #119, .F. ) ;
#34 = FACE_OUTER_BOUND ( 'NONE', #249, .T. ) ;
#35 = CLOSED_SHELL ( 'NONE', ( #67, #114, #30, #229, #22, #100, #181 ) ) ;
#36 = ORIENTED_EDGE ( 'NONE', *, *, #48, .T. ) ;
#37 = CC_DESIGN_APPROVAL ( #21, ( #157 ) ) ;
#38 = EDGE_LOOP ( 'NONE', ( #44 ) ) ;
#39 = EDGE_LOOP ( 'NONE', ( #14 ) ) ;
#40 = VERTEX_POINT ( 'NONE', #87 ) ;
#41 = CIRCLE ( 'NONE', #185, 1.200000000000001510 ) ;
#42 = ORIENTED_EDGE ( 'NONE', *, *, #139, .F. ) ;
#43 = CARTESIAN_POINT ( 'NONE',  ( -2.886186225980445614E-31, 1.012337853296753338E-32, -8.266365894244629403E-17 ) ) ;
#44 = ORIENTED_EDGE ( 'NONE', *, *, #264, .T. ) ;
#45 = APPROVAL_DATE_TIME ( #279, #21 ) ;
#46 = FACE_BOUND ( 'NONE', #251, .T. ) ;
#47 = PRODUCT_RELATED_PRODUCT_CATEGORY ( 'detail', '', ( #136 ) ) ;
#48 = EDGE_CURVE ( 'NONE', #40, #40, #156, .T. ) ;
#49 = APPROVAL_PERSON_ORGANIZATION ( #258, #259, #132 ) ;
#50 = CARTESIAN_POINT ( 'NONE',  ( 3.551955569568687228E-14, 1.499999999999991562, 10.17320508075690100 ) ) ;
#51 = PERSON_AND_ORGANIZATION ( #54, #254 ) ;
#52 = DIRECTION ( 'NONE',  ( -3.491481338843133355E-15, 1.224646799147353207E-16, -1.000000000000000000 ) ) ;
#53 = AXIS2_PLACEMENT_3D ( 'NONE', #166, #217, #28 ) ;
#54 = PERSON ( 'UNSPECIFIED', 'UNSPECIFIED', 'UNSPECIFIED', ('UNSPECIFIED'), ('UNSPECIFIED'), ('UNSPECIFIED') ) ;
#55 = DATE_AND_TIME ( #175, #242 ) ;
#56 = DIRECTION ( 'NONE',  ( 4.275831445896958607E-31, 1.000000000000000000, 1.224646799147353454E-16 ) ) ;
#57 = CALENDAR_DATE ( 2021, 2, 12 ) ;
#58 = AXIS2_PLACEMENT_3D ( 'NONE', #174, #131, #56 ) ;
#59 = COORDINATED_UNIVERSAL_TIME_OFFSET ( 1, 0, .AHEAD. ) ;
#60 = ORIENTED_EDGE ( 'NONE', *, *, #155, .F. ) ;
#61 = ORIENTED_EDGE ( 'NONE', *, *, #180, .F. ) ;
#62 = CC_DESIGN_PERSON_AND_ORGANIZATION_ASSIGNMENT ( #189, #165, ( #157 ) ) ;
#63 = VERTEX_POINT ( 'NONE', #142 ) ;
#64 = ORIENTED_EDGE ( 'NONE', *, *, #177, .T. ) ;
#65 = CC_DESIGN_SECURITY_CLASSIFICATION ( #133, ( #157 ) ) ;
#66 = EDGE_CURVE ( 'NONE', #63, #63, #41, .T. ) ;
#67 = ADVANCED_FACE ( 'NONE', ( #150, #116 ), #29, .T. ) ;
#68 = FACE_OUTER_BOUND ( 'NONE', #268, .T. ) ;
#69 = VERTEX_POINT ( 'NONE', #50 ) ;
#70 = DIRECTION ( 'NONE',  ( 0.0000000000000000000, 1.000000000000000000, 0.0000000000000000000 ) ) ;
#71 = APPROVAL_ROLE ( '' ) ;
#72 = DIRECTION ( 'NONE',  ( 0.0000000000000000000, 1.000000000000000000, 0.0000000000000000000 ) ) ;
#73 = CIRCLE ( 'NONE', #86, 1.499999999999992895 ) ;
#74 = LOCAL_TIME ( 10, 35, 23.00000000000000000, #6 ) ;
#75 = FACE_OUTER_BOUND ( 'NONE', #143, .T. ) ;
#76 = COORDINATED_UNIVERSAL_TIME_OFFSET ( 1, 0, .AHEAD. ) ;
#77 = FACE_OUTER_BOUND ( 'NONE', #289, .T. ) ;
#78 = CONICAL_SURFACE ( 'NONE', #154, 1.200000000000001510, 0.7853981633974566057 ) ;
#79 = AXIS2_PLACEMENT_3D ( 'NONE', #220, #296, #245 ) ;
#80 = EDGE_CURVE ( 'NONE', #162, #162, #73, .T. ) ;
#81 = DIRECTION ( 'NONE',  ( 0.0000000000000000000, 1.000000000000000000, 0.0000000000000000000 ) ) ;
#82 = CIRCLE ( 'NONE', #3, 1.600000000000000089 ) ;
#83 = LOCAL_TIME ( 10, 35, 23.00000000000000000, #25 ) ;
#84 = EDGE_LOOP ( 'NONE', ( #42 ) ) ;
#85 = DIRECTION ( 'NONE',  ( -3.491481338843133355E-15, 1.224646799147353207E-16, -1.000000000000000000 ) ) ;
#86 = AXIS2_PLACEMENT_3D ( 'NONE', #235, #2, #228 ) ;
#87 = CARTESIAN_POINT ( 'NONE',  ( 2.433562493173664138E-13, 1.499999999999992673, 69.70000000000001705 ) ) ;
#88 = ORIENTED_EDGE ( 'NONE', *, *, #177, .F. ) ;
#89 = DIRECTION ( 'NONE',  ( -3.491481338843133355E-15, 1.224646799147353207E-16, -1.000000000000000000 ) ) ;
#90 = CARTESIAN_POINT ( 'NONE',  ( 3.491481338843133355E-14, -1.224646799147353256E-15, 10.00000000000000000 ) ) ;
#91 = PERSON_AND_ORGANIZATION ( #54, #254 ) ;
#92 = CARTESIAN_POINT ( 'NONE',  ( -5.772372451960891229E-31, 2.024675706593506676E-32, -1.653273178848925881E-16 ) ) ;
#93 = CARTESIAN_POINT ( 'NONE',  ( 2.433562493173664138E-13, -8.535788190057053710E-15, 69.70000000000001705 ) ) ;
#94 = PERSON_AND_ORGANIZATION_ROLE ( 'design_owner' ) ;
#95 = AXIS2_PLACEMENT_3D ( 'NONE', #269, #221, #293 ) ;
#96 = CARTESIAN_POINT ( 'NONE',  ( 0.0000000000000000000, 0.0000000000000000000, 0.0000000000000000000 ) ) ;
#97 = CALENDAR_DATE ( 2021, 2, 12 ) ;
#98 = CC_DESIGN_PERSON_AND_ORGANIZATION_ASSIGNMENT ( #51, #230, ( #266 ) ) ;
#99 = PERSON_AND_ORGANIZATION ( #54, #254 ) ;
#100 = ADVANCED_FACE ( 'NONE', ( #125, #302 ), #282, .T. ) ;
#101 = CARTESIAN_POINT ( 'NONE',  ( -5.772372451960891229E-31, 2.024675706593506676E-32, -1.653273178848925881E-16 ) ) ;
#102 = CLOSED_SHELL ( 'NONE', ( #33, #129, #280, #173, #208 ) ) ;
#103 = APPLICATION_CONTEXT ( 'configuration controlled 3d designs of mechanical parts and assemblies' ) ;
#104 = DIRECTION ( 'NONE',  ( -3.491481338843133355E-15, 1.224646799147353207E-16, -1.000000000000000000 ) ) ;
#105 = AXIS2_PLACEMENT_3D ( 'NONE', #123, #209, #72 ) ;
#106 = ORIENTED_EDGE ( 'NONE', *, *, #139, .T. ) ;
#107 = EDGE_LOOP ( 'NONE', ( #246 ) ) ;
#108 = CYLINDRICAL_SURFACE ( 'NONE', #79, 1.499999999999996891 ) ;
#109 = CC_DESIGN_DATE_AND_TIME_ASSIGNMENT ( #55, #288, ( #133 ) ) ;
#110 = ORIENTED_EDGE ( 'NONE', *, *, #225, .F. ) ;
#111 = DIRECTION ( 'NONE',  ( -3.491481338843133355E-15, 1.224646799147353207E-16, -1.000000000000000000 ) ) ;
#112 = CARTESIAN_POINT ( 'NONE',  ( 2.444036937190193601E-13, -8.572527594031472993E-15, 70.00000000000000000 ) ) ;
#113 = CARTESIAN_POINT ( 'NONE',  ( 3.491481338843133355E-14, 1.599999999999998757, 10.00000000000000000 ) ) ;
#114 = ADVANCED_FACE ( 'NONE', ( #5, #68 ), #231, .T. ) ;
#115 = FACE_OUTER_BOUND ( 'NONE', #292, .T. ) ;
#116 = FACE_OUTER_BOUND ( 'NONE', #141, .T. ) ;
#117 = DATE_TIME_ROLE ( 'creation_date' ) ;
#118 = CONICAL_SURFACE ( 'NONE', #300, 1.349999999999999201, 0.7853981633974500554 ) ;
#119 = PLANE ( 'NONE',  #202 ) ;
#120 = CIRCLE ( 'NONE', #95, 1.499999999999992895 ) ;
#121 = VERTEX_POINT ( 'NONE', #1 ) ;
#122 = DIRECTION ( 'NONE',  ( -3.491481338843133355E-15, 1.224646799147353207E-16, -1.000000000000000000 ) ) ;
#123 = CARTESIAN_POINT ( 'NONE',  ( 3.491481338843133355E-14, -1.224646799147353256E-15, 10.00000000000000000 ) ) ;
#124 = APPROVAL_STATUS ( 'not_yet_approved' ) ;
#125 = FACE_OUTER_BOUND ( 'NONE', #265, .T. ) ;
#126 = AXIS2_PLACEMENT_3D ( 'NONE', #10, #104, #7 ) ;
#127 =( NAMED_UNIT ( * ) PLANE_ANGLE_UNIT ( ) SI_UNIT ( $, .RADIAN. ) );
#128 = CARTESIAN_POINT ( 'NONE',  ( 3.491481338843133355E-14, -1.224646799147353256E-15, 10.00000000000000000 ) ) ;
#129 = ADVANCED_FACE ( 'NONE', ( #206, #271 ), #20, .T. ) ;
#130 = APPROVAL_STATUS ( 'not_yet_approved' ) ;
#131 = DIRECTION ( 'NONE',  ( -3.491481338843133355E-15, 1.224646799147353207E-16, -1.000000000000000000 ) ) ;
#132 = APPROVAL_ROLE ( '' ) ;
#133 = SECURITY_CLASSIFICATION ( '', '', #284 ) ;
#134 = FACE_BOUND ( 'NONE', #158, .T. ) ;
#135 = PERSON_AND_ORGANIZATION_ROLE ( 'classification_officer' ) ;
#136 = PRODUCT ( '321546', '321546', '', ( #210 ) ) ;
#137 = CARTESIAN_POINT ( 'NONE',  ( 3.551955569568687228E-14, 1.499999999999991562, 10.17320508075690100 ) ) ;
#138 = FACE_OUTER_BOUND ( 'NONE', #243, .T. ) ;
#139 = EDGE_CURVE ( 'NONE', #250, #250, #212, .T. ) ;
#140 = PLANE ( 'NONE',  #152 ) ;
#141 = EDGE_LOOP ( 'NONE', ( #60 ) ) ;
#142 = CARTESIAN_POINT ( 'NONE',  ( 2.444036937190193601E-13, 1.199999999999992628, 70.00000000000000000 ) ) ;
#143 = EDGE_LOOP ( 'NONE', ( #184 ) ) ;
#144 = PERSON_AND_ORGANIZATION ( #54, #254 ) ;
#145 = DIRECTION ( 'NONE',  ( 0.0000000000000000000, 1.000000000000000000, 0.0000000000000000000 ) ) ;
#146 = MANIFOLD_SOLID_BREP ( 'Corps-Déplacer/Copier1[1]', #102 ) ;
#147 = CARTESIAN_POINT ( 'NONE',  ( 0.0000000000000000000, 0.0000000000000000000, 0.0000000000000000000 ) ) ;
#148 = DIRECTION ( 'NONE',  ( -4.275831445896957731E-31, -1.000000000000000000, -1.224646799147353207E-16 ) ) ;
#149 = CALENDAR_DATE ( 2021, 2, 12 ) ;
#150 = FACE_BOUND ( 'NONE', #294, .T. ) ;
#151 = PLANE ( 'NONE',  #270 ) ;
#152 = AXIS2_PLACEMENT_3D ( 'NONE', #43, #85, #205 ) ;
#153 = APPROVAL_DATE_TIME ( #178, #259 ) ;
#154 = AXIS2_PLACEMENT_3D ( 'NONE', #8, #197, #81 ) ;
#155 = EDGE_CURVE ( 'NONE', #298, #298, #82, .T. ) ;
#156 = CIRCLE ( 'NONE', #295, 1.500000000000001110 ) ;
#157 = PRODUCT_DEFINITION_FORMATION_WITH_SPECIFIED_SOURCE ( 'ANY', '', #136, .NOT_KNOWN. ) ;
#158 = EDGE_LOOP ( 'NONE', ( #64 ) ) ;
#159 = DIRECTION ( 'NONE',  ( 4.814824860968089633E-31, 1.000000000000000000, 1.355252715606880543E-16 ) ) ;
#160 = ORIENTED_EDGE ( 'NONE', *, *, #180, .T. ) ;
#161 = DIRECTION ( 'NONE',  ( -3.491481338843133355E-15, 1.224646799147353207E-16, -1.000000000000000000 ) ) ;
#162 = VERTEX_POINT ( 'NONE', #137 ) ;
#163 = DIRECTION ( 'NONE',  ( 0.0000000000000000000, 1.000000000000000000, 0.0000000000000000000 ) ) ;
#164 = ADVANCED_BREP_SHAPE_REPRESENTATION ( '321546', ( #146, #247, #283 ), #260 ) ;
#165 = PERSON_AND_ORGANIZATION_ROLE ( 'creator' ) ;
#166 = CARTESIAN_POINT ( 'NONE',  ( 3.491481338843133355E-14, -1.224646799147353256E-15, 10.00000000000000000 ) ) ;
#167 = CC_DESIGN_PERSON_AND_ORGANIZATION_ASSIGNMENT ( #144, #232, ( #157 ) ) ;
#168 = CALENDAR_DATE ( 2021, 2, 12 ) ;
#169 = CIRCLE ( 'NONE', #244, 1.500000000000001110 ) ;
#170 = CARTESIAN_POINT ( 'NONE',  ( -8.552847072295026068E-47, 1.349999999999999201, 0.0000000000000000000 ) ) ;
#171 = DIRECTION ( 'NONE',  ( -4.275831445896958607E-31, -1.000000000000000000, -1.224646799147353207E-16 ) ) ;
#172 = APPLICATION_PROTOCOL_DEFINITION ( 'international standard', 'config_control_design', 1994, #273 ) ;
#173 = ADVANCED_FACE ( 'NONE', ( #31, #134 ), #78, .T. ) ;
#174 = CARTESIAN_POINT ( 'NONE',  ( 0.0000000000000000000, 0.0000000000000000000, 0.0000000000000000000 ) ) ;
#175 = CALENDAR_DATE ( 2021, 2, 12 ) ;
#176 = DIRECTION ( 'NONE',  ( 4.275831445896958607E-31, 1.000000000000000000, 1.224646799147353207E-16 ) ) ;
#177 = EDGE_CURVE ( 'NONE', #211, #211, #199, .T. ) ;
#178 = DATE_AND_TIME ( #57, #9 ) ;
#179 = FACE_OUTER_BOUND ( 'NONE', #38, .T. ) ;
#180 = EDGE_CURVE ( 'NONE', #4, #4, #287, .T. ) ;
#181 = ADVANCED_FACE ( 'NONE', ( #262, #179 ), #281, .T. ) ;
#182 = APPROVAL_PERSON_ORGANIZATION ( #192, #21, #216 ) ;
#183 = ORIENTED_EDGE ( 'NONE', *, *, #66, .F. ) ;
#184 = ORIENTED_EDGE ( 'NONE', *, *, #225, .T. ) ;
#185 = AXIS2_PLACEMENT_3D ( 'NONE', #256, #52, #145 ) ;
#186 = CARTESIAN_POINT ( 'NONE',  ( 2.433562493173664138E-13, -8.535788190057053710E-15, 69.70000000000001705 ) ) ;
#187 = DIRECTION ( 'NONE',  ( 3.491481338843133355E-15, -1.224646799147353207E-16, 1.000000000000000000 ) ) ;
#188 = APPROVAL_PERSON_ORGANIZATION ( #257, #12, #71 ) ;
#189 = PERSON_AND_ORGANIZATION ( #54, #254 ) ;
#190 = CC_DESIGN_PERSON_AND_ORGANIZATION_ASSIGNMENT ( #99, #135, ( #133 ) ) ;
#191 = DIRECTION ( 'NONE',  ( -3.491481338843133355E-15, 1.224646799147353207E-16, -1.000000000000000000 ) ) ;
#192 = PERSON_AND_ORGANIZATION ( #54, #254 ) ;
#193 = CIRCLE ( 'NONE', #26, 1.600000000000000089 ) ;
#194 = DIRECTION ( 'NONE',  ( 3.491481338843133355E-15, -1.224646799147353207E-16, 1.000000000000000000 ) ) ;
#195 = DIRECTION ( 'NONE',  ( 4.275831445896958607E-31, 1.000000000000000000, 1.224646799147353207E-16 ) ) ;
#196 = APPLICATION_PROTOCOL_DEFINITION ( 'international standard', 'config_control_design', 1994, #103 ) ;
#197 = DIRECTION ( 'NONE',  ( -3.491481338843133355E-15, 1.224646799147353207E-16, -1.000000000000000000 ) ) ;
#198 = DIRECTION ( 'NONE',  ( -3.491481338843133355E-15, 1.224646799147353207E-16, -1.000000000000000000 ) ) ;
#199 = CIRCLE ( 'NONE', #126, 1.200000000000001510 ) ;
#200 = ORIENTED_EDGE ( 'NONE', *, *, #80, .T. ) ;
#201 = EDGE_LOOP ( 'NONE', ( #204 ) ) ;
#202 = AXIS2_PLACEMENT_3D ( 'NONE', #19, #187, #171 ) ;
#203 = DIRECTION ( 'NONE',  ( -3.491481338843133355E-15, 1.224646799147353207E-16, -1.000000000000000000 ) ) ;
#204 = ORIENTED_EDGE ( 'NONE', *, *, #290, .F. ) ;
#205 = DIRECTION ( 'NONE',  ( 4.275831445896958607E-31, 1.000000000000000000, 1.224646799147353207E-16 ) ) ;
#206 = FACE_BOUND ( 'NONE', #263, .T. ) ;
#207 = AXIS2_PLACEMENT_3D ( 'NONE', #96, #89, #195 ) ;
#208 = ADVANCED_FACE ( 'NONE', ( #77 ), #151, .F. ) ;
#209 = DIRECTION ( 'NONE',  ( -3.491481338843133355E-15, 1.224646799147353207E-16, -1.000000000000000000 ) ) ;
#210 = MECHANICAL_CONTEXT ( 'NONE', #273, 'mechanical' ) ;
#211 = VERTEX_POINT ( 'NONE', #272 ) ;
#212 = CIRCLE ( 'NONE', #53, 1.600000000000000089 ) ;
#213 = DIRECTION ( 'NONE',  ( 0.0000000000000000000, 1.000000000000000000, 0.0000000000000000000 ) ) ;
#214 = AXIS2_PLACEMENT_3D ( 'NONE', #112, #203, #297 ) ;
#215 = CC_DESIGN_APPROVAL ( #259, ( #133 ) ) ;
#216 = APPROVAL_ROLE ( '' ) ;
#217 = DIRECTION ( 'NONE',  ( -3.491481338843133355E-15, 1.224646799147353207E-16, -1.000000000000000000 ) ) ;
#218 = CC_DESIGN_DATE_AND_TIME_ASSIGNMENT ( #27, #117, ( #266 ) ) ;
#219 = AXIS2_PLACEMENT_3D ( 'NONE', #90, #191, #70 ) ;
#220 = CARTESIAN_POINT ( 'NONE',  ( 0.0000000000000000000, 0.0000000000000000000, 0.0000000000000000000 ) ) ;
#221 = DIRECTION ( 'NONE',  ( -3.491481338843133355E-15, 1.224646799147353207E-16, -1.000000000000000000 ) ) ;
#222 = PRODUCT_DEFINITION_SHAPE ( 'NONE', 'NONE',  #266 ) ;
#223 = PLANE ( 'NONE',  #214 ) ;
#224 = DIRECTION ( 'NONE',  ( 4.275831445896958607E-31, 1.000000000000000000, 1.224646799147353207E-16 ) ) ;
#225 = EDGE_CURVE ( 'NONE', #274, #274, #193, .T. ) ;
#226 = ORIENTED_EDGE ( 'NONE', *, *, #48, .F. ) ;
#227 = EDGE_LOOP ( 'NONE', ( #106 ) ) ;
#228 = DIRECTION ( 'NONE',  ( 0.0000000000000000000, 1.000000000000000000, 0.0000000000000000000 ) ) ;
#229 = ADVANCED_FACE ( 'NONE', ( #115 ), #140, .T. ) ;
#230 = PERSON_AND_ORGANIZATION_ROLE ( 'creator' ) ;
#231 = CYLINDRICAL_SURFACE ( 'NONE', #207, 1.600000000000000089 ) ;
#232 = PERSON_AND_ORGANIZATION_ROLE ( 'design_supplier' ) ;
#233 = DIRECTION ( 'NONE',  ( 0.0000000000000000000, 0.0000000000000000000, 1.000000000000000000 ) ) ;
#234 = DIRECTION ( 'NONE',  ( -3.491481338843133355E-15, 1.224646799147353207E-16, -1.000000000000000000 ) ) ;
#235 = CARTESIAN_POINT ( 'NONE',  ( 3.551955569568687228E-14, -1.245858303921852760E-15, 10.17320508075690100 ) ) ;
#236 =( NAMED_UNIT ( * ) SI_UNIT ( $, .STERADIAN. ) SOLID_ANGLE_UNIT ( ) );
#237 = DESIGN_CONTEXT ( 'detailed design', #103, 'design' ) ;
#238 = CARTESIAN_POINT ( 'NONE',  ( 2.444036937190193601E-13, 8.998558695971026591E-33, 70.00000000000000000 ) ) ;
#239 = SHAPE_DEFINITION_REPRESENTATION ( #222, #164 ) ;
#240 = DIRECTION ( 'NONE',  ( -3.491481338843133355E-15, 1.224646799147353207E-16, -1.000000000000000000 ) ) ;
#241 = AXIS2_PLACEMENT_3D ( 'NONE', #101, #198, #176 ) ;
#242 = LOCAL_TIME ( 10, 35, 23.00000000000000000, #59 ) ;
#243 = EDGE_LOOP ( 'NONE', ( #183 ) ) ;
#244 = AXIS2_PLACEMENT_3D ( 'NONE', #186, #111, #163 ) ;
#245 = DIRECTION ( 'NONE',  ( 4.275831445896958607E-31, 1.000000000000000000, 1.224646799147353454E-16 ) ) ;
#246 = ORIENTED_EDGE ( 'NONE', *, *, #155, .T. ) ;
#247 = MANIFOLD_SOLID_BREP ( 'Corps-Déplacer/Copier1[2]', #35 ) ;
#248 = FACE_OUTER_BOUND ( 'NONE', #267, .T. ) ;
#249 = EDGE_LOOP ( 'NONE', ( #36 ) ) ;
#250 = VERTEX_POINT ( 'NONE', #113 ) ;
#251 = EDGE_LOOP ( 'NONE', ( #61 ) ) ;
#252 = DIRECTION ( 'NONE',  ( 0.0000000000000000000, 1.000000000000000000, 0.0000000000000000000 ) ) ;
#253 = AXIS2_PLACEMENT_3D ( 'NONE', #275, #122, #213 ) ;
#254 = ORGANIZATION ( 'UNSPECIFIED', 'UNSPECIFIED', '' ) ;
#255 = DATE_AND_TIME ( #149, #13 ) ;
#256 = CARTESIAN_POINT ( 'NONE',  ( 2.444036937190193601E-13, -8.572527594031472993E-15, 70.00000000000000000 ) ) ;
#257 = PERSON_AND_ORGANIZATION ( #54, #254 ) ;
#258 = PERSON_AND_ORGANIZATION ( #54, #254 ) ;
#259 = APPROVAL ( #130, 'UNSPECIFIED' ) ;
#260 =( GEOMETRIC_REPRESENTATION_CONTEXT ( 3 ) GLOBAL_UNCERTAINTY_ASSIGNED_CONTEXT ( ( #278 ) ) GLOBAL_UNIT_ASSIGNED_CONTEXT ( ( #24, #127, #236 ) ) REPRESENTATION_CONTEXT ( 'NONE', 'WORKASPACE' ) );
#261 = COORDINATED_UNIVERSAL_TIME_OFFSET ( 1, 0, .AHEAD. ) ;
#262 = FACE_OUTER_BOUND ( 'NONE', #201, .T. ) ;
#263 = EDGE_LOOP ( 'NONE', ( #200 ) ) ;
#264 = EDGE_CURVE ( 'NONE', #121, #121, #169, .T. ) ;
#265 = EDGE_LOOP ( 'NONE', ( #299 ) ) ;
#266 = PRODUCT_DEFINITION ( 'UNKNOWN', '', #157, #237 ) ;
#267 = EDGE_LOOP ( 'NONE', ( #17 ) ) ;
#268 = EDGE_LOOP ( 'NONE', ( #110 ) ) ;
#269 = CARTESIAN_POINT ( 'NONE',  ( 3.551955569568687228E-14, -1.245858303921852760E-15, 10.17320508075690100 ) ) ;
#270 = AXIS2_PLACEMENT_3D ( 'NONE', #238, #286, #224 ) ;
#271 = FACE_OUTER_BOUND ( 'NONE', #84, .T. ) ;
#272 = CARTESIAN_POINT ( 'NONE',  ( 2.444036937190193601E-13, 1.199999999999992628, 70.00000000000000000 ) ) ;
#273 = APPLICATION_CONTEXT ( 'configuration controlled 3d designs of mechanical parts and assemblies' ) ;
#274 = VERTEX_POINT ( 'NONE', #277 ) ;
#275 = CARTESIAN_POINT ( 'NONE',  ( 2.444036937190193601E-13, -8.572527594031472993E-15, 70.00000000000000000 ) ) ;
#276 = APPROVAL_STATUS ( 'not_yet_approved' ) ;
#277 = CARTESIAN_POINT ( 'NONE',  ( 8.728703347107835360E-16, 1.600000000000000089, 0.2500000000000000555 ) ) ;
#278 = UNCERTAINTY_MEASURE_WITH_UNIT (LENGTH_MEASURE( 1.000000000000000082E-05 ), #24, 'distance_accuracy_value', 'NONE');
#279 = DATE_AND_TIME ( #97, #74 ) ;
#280 = ADVANCED_FACE ( 'NONE', ( #248, #34 ), #108, .T. ) ;
#281 = CYLINDRICAL_SURFACE ( 'NONE', #58, 1.499999999999996891 ) ;
#282 = CONICAL_SURFACE ( 'NONE', #253, 1.200000000000001510, 0.7853981633974566057 ) ;
#283 = AXIS2_PLACEMENT_3D ( 'NONE', #147, #233, #301 ) ;
#284 = SECURITY_CLASSIFICATION_LEVEL ( 'unclassified' ) ;
#285 = DIRECTION ( 'NONE',  ( 0.0000000000000000000, 1.000000000000000000, 0.0000000000000000000 ) ) ;
#286 = DIRECTION ( 'NONE',  ( -3.491481338843133355E-15, 1.224646799147353207E-16, -1.000000000000000000 ) ) ;
#287 = CIRCLE ( 'NONE', #241, 1.349999999999999201 ) ;
#288 = DATE_TIME_ROLE ( 'classification_date' ) ;
#289 = EDGE_LOOP ( 'NONE', ( #88 ) ) ;
#290 = EDGE_CURVE ( 'NONE', #69, #69, #120, .T. ) ;
#291 = CC_DESIGN_PERSON_AND_ORGANIZATION_ASSIGNMENT ( #91, #94, ( #136 ) ) ;
#292 = EDGE_LOOP ( 'NONE', ( #160 ) ) ;
#293 = DIRECTION ( 'NONE',  ( 0.0000000000000000000, 1.000000000000000000, 0.0000000000000000000 ) ) ;
#294 = EDGE_LOOP ( 'NONE', ( #11 ) ) ;
#295 = AXIS2_PLACEMENT_3D ( 'NONE', #93, #234, #252 ) ;
#296 = DIRECTION ( 'NONE',  ( -3.491481338843133355E-15, 1.224646799147353207E-16, -1.000000000000000000 ) ) ;
#297 = DIRECTION ( 'NONE',  ( 4.275831445896958607E-31, 1.000000000000000000, 1.224646799147353207E-16 ) ) ;
#298 = VERTEX_POINT ( 'NONE', #23 ) ;
#299 = ORIENTED_EDGE ( 'NONE', *, *, #264, .F. ) ;
#300 = AXIS2_PLACEMENT_3D ( 'NONE', #92, #194, #148 ) ;
#301 = DIRECTION ( 'NONE',  ( 1.000000000000000000, 0.0000000000000000000, 0.0000000000000000000 ) ) ;
#302 = FACE_BOUND ( 'NONE', #39, .T. ) ;
#303 = APPROVAL_DATE_TIME ( #255, #12 ) ;
ENDSEC;
END-ISO-10303-21;
