ISO-10303-21;
HEADER;
FILE_DESCRIPTION (( 'STEP AP203' ),
    '1' );
FILE_NAME ('321545.step',
    '2021-12-02T09:35:22',
    ( '' ),
    ( '' ),
    'SwSTEP 2.0',
    'SolidWorks 2019',
    '' );
FILE_SCHEMA (( 'CONFIG_CONTROL_DESIGN' ));
ENDSEC;

DATA;
#1 = APPROVAL ( #61, 'UNSPECIFIED' ) ;
#2 = CARTESIAN_POINT ( 'NONE',  ( 2.433562493173664138E-13, -8.535788190057053710E-15, 69.70000000000001705 ) ) ;
#3 = APPROVAL_PERSON_ORGANIZATION ( #250, #1, #105 ) ;
#4 = CARTESIAN_POINT ( 'NONE',  ( -2.875496647365702819E-31, 1.008588453840098667E-32, -8.235749724265946257E-17 ) ) ;
#5 = DIRECTION ( 'NONE',  ( 4.275831445896958607E-31, 1.000000000000000000, 1.224646799147353454E-16 ) ) ;
#6 = CARTESIAN_POINT ( 'NONE',  ( 2.444036937190193601E-13, 1.199999999999992628, 70.00000000000000000 ) ) ;
#7 = COORDINATED_UNIVERSAL_TIME_OFFSET ( 1, 0, .AHEAD. ) ;
#8 = CARTESIAN_POINT ( 'NONE',  ( 3.491481338843133355E-14, 1.594999999999998863, 10.00000000000000000 ) ) ;
#9 = AXIS2_PLACEMENT_3D ( 'NONE', #178, #67, #138 ) ;
#10 = EDGE_CURVE ( 'NONE', #58, #58, #242, .T. ) ;
#11 = CARTESIAN_POINT ( 'NONE',  ( 2.444036937190193601E-13, 1.199999999999992628, 70.00000000000000000 ) ) ;
#12 = ORIENTED_EDGE ( 'NONE', *, *, #20, .F. ) ;
#13 = EDGE_LOOP ( 'NONE', ( #42 ) ) ;
#14 = CARTESIAN_POINT ( 'NONE',  ( -5.750993294731405639E-31, 2.017176907680197333E-32, -1.647149944853189251E-16 ) ) ;
#15 = AXIS2_PLACEMENT_3D ( 'NONE', #285, #189, #46 ) ;
#16 = AXIS2_PLACEMENT_3D ( 'NONE', #69, #208, #44 ) ;
#17 = CALENDAR_DATE ( 2021, 2, 12 ) ;
#18 = DIRECTION ( 'NONE',  ( 0.0000000000000000000, 1.000000000000000000, 0.0000000000000000000 ) ) ;
#19 = DIRECTION ( 'NONE',  ( 0.0000000000000000000, 1.000000000000000000, 0.0000000000000000000 ) ) ;
#20 = EDGE_CURVE ( 'NONE', #194, #194, #131, .T. ) ;
#21 = CARTESIAN_POINT ( 'NONE',  ( 2.433562493173664138E-13, -8.535788190057053710E-15, 69.70000000000001705 ) ) ;
#22 = DIRECTION ( 'NONE',  ( -3.491481338843133355E-15, 1.224646799147353207E-16, -1.000000000000000000 ) ) ;
#23 = FACE_OUTER_BOUND ( 'NONE', #36, .T. ) ;
#24 = EDGE_CURVE ( 'NONE', #100, #100, #177, .T. ) ;
#25 = DIRECTION ( 'NONE',  ( -3.491481338843133355E-15, 1.224646799147353207E-16, -1.000000000000000000 ) ) ;
#26 = DATE_TIME_ROLE ( 'classification_date' ) ;
#27 = FACE_BOUND ( 'NONE', #150, .T. ) ;
#28 = DIRECTION ( 'NONE',  ( -3.491481338843133355E-15, 1.224646799147353207E-16, -1.000000000000000000 ) ) ;
#29 = APPROVAL ( #272, 'UNSPECIFIED' ) ;
#30 = CARTESIAN_POINT ( 'NONE',  ( 3.491481338843133355E-14, -1.224646799147353256E-15, 10.00000000000000000 ) ) ;
#31 = CARTESIAN_POINT ( 'NONE',  ( 2.433562493173664138E-13, 1.499999999999992673, 69.70000000000001705 ) ) ;
#32 = AXIS2_PLACEMENT_3D ( 'NONE', #122, #95, #187 ) ;
#33 =( NAMED_UNIT ( * ) PLANE_ANGLE_UNIT ( ) SI_UNIT ( $, .RADIAN. ) );
#34 = CIRCLE ( 'NONE', #109, 1.499999999999992895 ) ;
#35 = AXIS2_PLACEMENT_3D ( 'NONE', #234, #25, #281 ) ;
#36 = EDGE_LOOP ( 'NONE', ( #249 ) ) ;
#37 = CLOSED_SHELL ( 'NONE', ( #107, #223, #76, #119, #82, #174, #153 ) ) ;
#38 = EDGE_LOOP ( 'NONE', ( #198 ) ) ;
#39 = DATE_AND_TIME ( #203, #216 ) ;
#40 = DIRECTION ( 'NONE',  ( -3.491481338843133355E-15, 1.224646799147353207E-16, -1.000000000000000000 ) ) ;
#41 = APPLICATION_PROTOCOL_DEFINITION ( 'international standard', 'config_control_design', 1994, #85 ) ;
#42 = ORIENTED_EDGE ( 'NONE', *, *, #60, .F. ) ;
#43 = CONICAL_SURFACE ( 'NONE', #32, 1.200000000000001510, 0.7853981633974566057 ) ;
#44 = DIRECTION ( 'NONE',  ( 1.000000000000000000, 0.0000000000000000000, 0.0000000000000000000 ) ) ;
#45 = ORIENTED_EDGE ( 'NONE', *, *, #20, .T. ) ;
#46 = DIRECTION ( 'NONE',  ( -4.275831445896958607E-31, -1.000000000000000000, -1.224646799147353207E-16 ) ) ;
#47 = APPROVAL_STATUS ( 'not_yet_approved' ) ;
#48 = CARTESIAN_POINT ( 'NONE',  ( 0.0000000000000000000, 0.0000000000000000000, 0.0000000000000000000 ) ) ;
#49 = CIRCLE ( 'NONE', #265, 1.500000000000001110 ) ;
#50 = AXIS2_PLACEMENT_3D ( 'NONE', #64, #139, #134 ) ;
#51 = CYLINDRICAL_SURFACE ( 'NONE', #291, 1.499999999999996891 ) ;
#52 = DIRECTION ( 'NONE',  ( 4.275831445896958607E-31, 1.000000000000000000, 1.224646799147353207E-16 ) ) ;
#53 = DIRECTION ( 'NONE',  ( -3.491481338843133355E-15, 1.224646799147353207E-16, -1.000000000000000000 ) ) ;
#54 = CIRCLE ( 'NONE', #130, 1.200000000000001510 ) ;
#55 = AXIS2_PLACEMENT_3D ( 'NONE', #4, #232, #52 ) ;
#56 = CARTESIAN_POINT ( 'NONE',  ( 3.491481338843133355E-14, 1.594999999999998863, 10.00000000000000000 ) ) ;
#57 = EDGE_CURVE ( 'NONE', #173, #173, #34, .T. ) ;
#58 = VERTEX_POINT ( 'NONE', #220 ) ;
#59 = EDGE_LOOP ( 'NONE', ( #205 ) ) ;
#60 = EDGE_CURVE ( 'NONE', #266, #266, #148, .T. ) ;
#61 = APPROVAL_STATUS ( 'not_yet_approved' ) ;
#62 = AXIS2_PLACEMENT_3D ( 'NONE', #144, #22, #74 ) ;
#63 = ORIENTED_EDGE ( 'NONE', *, *, #129, .T. ) ;
#64 = CARTESIAN_POINT ( 'NONE',  ( 2.444036937190193601E-13, -8.572527594031472993E-15, 70.00000000000000000 ) ) ;
#65 = APPROVAL_ROLE ( '' ) ;
#66 = ORIENTED_EDGE ( 'NONE', *, *, #217, .F. ) ;
#67 = DIRECTION ( 'NONE',  ( -3.491481338843133355E-15, 1.224646799147353207E-16, -1.000000000000000000 ) ) ;
#68 = CIRCLE ( 'NONE', #231, 1.594999999999999973 ) ;
#69 = CARTESIAN_POINT ( 'NONE',  ( 0.0000000000000000000, 0.0000000000000000000, 0.0000000000000000000 ) ) ;
#70 = DIRECTION ( 'NONE',  ( 4.275831445896958607E-31, 1.000000000000000000, 1.224646799147353454E-16 ) ) ;
#71 = DIRECTION ( 'NONE',  ( 0.0000000000000000000, 1.000000000000000000, 0.0000000000000000000 ) ) ;
#72 = FACE_OUTER_BOUND ( 'NONE', #104, .T. ) ;
#73 = AXIS2_PLACEMENT_3D ( 'NONE', #271, #226, #199 ) ;
#74 = DIRECTION ( 'NONE',  ( 0.0000000000000000000, 1.000000000000000000, 0.0000000000000000000 ) ) ;
#75 = DIRECTION ( 'NONE',  ( 0.0000000000000000000, 1.000000000000000000, 0.0000000000000000000 ) ) ;
#76 = ADVANCED_FACE ( 'NONE', ( #228, #225 ), #244, .T. ) ;
#77 = APPROVAL_ROLE ( '' ) ;
#78 = VERTEX_POINT ( 'NONE', #31 ) ;
#79 = CONICAL_SURFACE ( 'NONE', #247, 1.200000000000001510, 0.7853981633974566057 ) ;
#80 = CONICAL_SURFACE ( 'NONE', #286, 1.594999999999999973, 0.5235987755983005920 ) ;
#81 = ORIENTED_EDGE ( 'NONE', *, *, #200, .T. ) ;
#82 = ADVANCED_FACE ( 'NONE', ( #255 ), #84, .F. ) ;
#83 = CC_DESIGN_DATE_AND_TIME_ASSIGNMENT ( #87, #248, ( #221 ) ) ;
#84 = PLANE ( 'NONE',  #211 ) ;
#85 = APPLICATION_CONTEXT ( 'configuration controlled 3d designs of mechanical parts and assemblies' ) ;
#86 = ORIENTED_EDGE ( 'NONE', *, *, #129, .F. ) ;
#87 = DATE_AND_TIME ( #296, #116 ) ;
#88 = ADVANCED_FACE ( 'NONE', ( #259 ), #264, .F. ) ;
#89 = DIRECTION ( 'NONE',  ( -3.491481338843133355E-15, 1.224646799147353207E-16, -1.000000000000000000 ) ) ;
#90 = ORIENTED_EDGE ( 'NONE', *, *, #200, .F. ) ;
#91 = PERSON_AND_ORGANIZATION ( #151, #176 ) ;
#92 = EDGE_LOOP ( 'NONE', ( #81 ) ) ;
#93 = CC_DESIGN_SECURITY_CLASSIFICATION ( #289, ( #196 ) ) ;
#94 = PLANE ( 'NONE',  #55 ) ;
#95 = DIRECTION ( 'NONE',  ( -3.491481338843133355E-15, 1.224646799147353207E-16, -1.000000000000000000 ) ) ;
#96 = CYLINDRICAL_SURFACE ( 'NONE', #166, 1.594999999999999973 ) ;
#97 = DIRECTION ( 'NONE',  ( -3.491481338843133355E-15, 1.224646799147353207E-16, -1.000000000000000000 ) ) ;
#98 = DIRECTION ( 'NONE',  ( 4.275831445896958607E-31, 1.000000000000000000, 1.224646799147353454E-16 ) ) ;
#99 = EDGE_LOOP ( 'NONE', ( #180 ) ) ;
#100 = VERTEX_POINT ( 'NONE', #11 ) ;
#101 = AXIS2_PLACEMENT_3D ( 'NONE', #118, #186, #70 ) ;
#102 = PRODUCT_DEFINITION_SHAPE ( 'NONE', 'NONE',  #221 ) ;
#103 = CARTESIAN_POINT ( 'NONE',  ( 3.548931858032409093E-14, 1.499999999999991562, 10.16454482671905524 ) ) ;
#104 = EDGE_LOOP ( 'NONE', ( #12 ) ) ;
#105 = APPROVAL_ROLE ( '' ) ;
#106 = EDGE_LOOP ( 'NONE', ( #159 ) ) ;
#107 = ADVANCED_FACE ( 'NONE', ( #262, #260 ), #80, .T. ) ;
#108 = APPLICATION_PROTOCOL_DEFINITION ( 'international standard', 'config_control_design', 1994, #147 ) ;
#109 = AXIS2_PLACEMENT_3D ( 'NONE', #224, #227, #18 ) ;
#110 = APPROVAL_PERSON_ORGANIZATION ( #179, #29, #65 ) ;
#111 = DIRECTION ( 'NONE',  ( 3.491481338843133355E-15, -1.224646799147353207E-16, 1.000000000000000000 ) ) ;
#112 = DATE_AND_TIME ( #17, #209 ) ;
#113 = ORIENTED_EDGE ( 'NONE', *, *, #197, .F. ) ;
#114 = EDGE_LOOP ( 'NONE', ( #63 ) ) ;
#115 = DIRECTION ( 'NONE',  ( -3.491481338843133355E-15, 1.224646799147353207E-16, -1.000000000000000000 ) ) ;
#116 = LOCAL_TIME ( 10, 35, 22.00000000000000000, #256 ) ;
#117 = CARTESIAN_POINT ( 'NONE',  ( 2.444036937190193601E-13, -8.572527594031472993E-15, 70.00000000000000000 ) ) ;
#118 = CARTESIAN_POINT ( 'NONE',  ( 0.0000000000000000000, 0.0000000000000000000, 0.0000000000000000000 ) ) ;
#119 = ADVANCED_FACE ( 'NONE', ( #287 ), #94, .T. ) ;
#120 = DIRECTION ( 'NONE',  ( -3.491481338843133355E-15, 1.224646799147353207E-16, -1.000000000000000000 ) ) ;
#121 = PERSON_AND_ORGANIZATION ( #151, #176 ) ;
#122 = CARTESIAN_POINT ( 'NONE',  ( 2.444036937190193601E-13, -8.572527594031472993E-15, 70.00000000000000000 ) ) ;
#123 = VERTEX_POINT ( 'NONE', #8 ) ;
#124 = ADVANCED_FACE ( 'NONE', ( #141, #301 ), #172, .T. ) ;
#125 =( LENGTH_UNIT ( ) NAMED_UNIT ( * ) SI_UNIT ( .MILLI., .METRE. ) );
#126 = AXIS2_PLACEMENT_3D ( 'NONE', #21, #40, #132 ) ;
#127 = LOCAL_TIME ( 10, 35, 22.00000000000000000, #7 ) ;
#128 = VERTEX_POINT ( 'NONE', #6 ) ;
#129 = EDGE_CURVE ( 'NONE', #123, #123, #68, .T. ) ;
#130 = AXIS2_PLACEMENT_3D ( 'NONE', #163, #28, #75 ) ;
#131 = CIRCLE ( 'NONE', #9, 1.594999999999999973 ) ;
#132 = DIRECTION ( 'NONE',  ( 0.0000000000000000000, 1.000000000000000000, 0.0000000000000000000 ) ) ;
#133 = ORIENTED_EDGE ( 'NONE', *, *, #60, .T. ) ;
#134 = DIRECTION ( 'NONE',  ( 0.0000000000000000000, 1.000000000000000000, 0.0000000000000000000 ) ) ;
#135 = COORDINATED_UNIVERSAL_TIME_OFFSET ( 1, 0, .AHEAD. ) ;
#136 = AXIS2_PLACEMENT_3D ( 'NONE', #30, #157, #19 ) ;
#137 = MANIFOLD_SOLID_BREP ( 'Corps-Déplacer/Copier1[2]', #37 ) ;
#138 = DIRECTION ( 'NONE',  ( 4.829918355830058972E-31, 1.000000000000000000, 1.359501156721635768E-16 ) ) ;
#139 = DIRECTION ( 'NONE',  ( -3.491481338843133355E-15, 1.224646799147353207E-16, -1.000000000000000000 ) ) ;
#140 = CARTESIAN_POINT ( 'NONE',  ( 3.491481338843133355E-14, -1.224646799147353256E-15, 10.00000000000000000 ) ) ;
#141 = FACE_BOUND ( 'NONE', #267, .T. ) ;
#142 = FACE_BOUND ( 'NONE', #59, .T. ) ;
#143 = PERSON_AND_ORGANIZATION ( #151, #176 ) ;
#144 = CARTESIAN_POINT ( 'NONE',  ( 3.491481338843133355E-14, -1.224646799147353256E-15, 10.00000000000000000 ) ) ;
#145 = FACE_OUTER_BOUND ( 'NONE', #38, .T. ) ;
#146 = CARTESIAN_POINT ( 'NONE',  ( 3.548931858032409093E-14, 1.499999999999991562, 10.16454482671905524 ) ) ;
#147 = APPLICATION_CONTEXT ( 'configuration controlled 3d designs of mechanical parts and assemblies' ) ;
#148 = CIRCLE ( 'NONE', #73, 1.499999999999992895 ) ;
#149 = LOCAL_TIME ( 10, 35, 22.00000000000000000, #258 ) ;
#150 = EDGE_LOOP ( 'NONE', ( #253 ) ) ;
#151 = PERSON ( 'UNSPECIFIED', 'UNSPECIFIED', 'UNSPECIFIED', ('UNSPECIFIED'), ('UNSPECIFIED'), ('UNSPECIFIED') ) ;
#152 = PERSON_AND_ORGANIZATION ( #151, #176 ) ;
#153 = ADVANCED_FACE ( 'NONE', ( #210, #239 ), #51, .T. ) ;
#154 = CC_DESIGN_APPROVAL ( #283, ( #289 ) ) ;
#155 = MECHANICAL_CONTEXT ( 'NONE', #85, 'mechanical' ) ;
#156 = ORIENTED_EDGE ( 'NONE', *, *, #24, .F. ) ;
#157 = DIRECTION ( 'NONE',  ( -3.491481338843133355E-15, 1.224646799147353207E-16, -1.000000000000000000 ) ) ;
#158 = AXIS2_PLACEMENT_3D ( 'NONE', #257, #241, #222 ) ;
#159 = ORIENTED_EDGE ( 'NONE', *, *, #197, .T. ) ;
#160 = PERSON_AND_ORGANIZATION_ROLE ( 'creator' ) ;
#161 = PLANE ( 'NONE',  #158 ) ;
#162 = PERSON_AND_ORGANIZATION ( #151, #176 ) ;
#163 = CARTESIAN_POINT ( 'NONE',  ( 2.444036937190193601E-13, -8.572527594031472993E-15, 70.00000000000000000 ) ) ;
#164 = CC_DESIGN_PERSON_AND_ORGANIZATION_ASSIGNMENT ( #143, #167, ( #196 ) ) ;
#165 = CARTESIAN_POINT ( 'NONE',  ( 0.0000000000000000000, 0.0000000000000000000, 0.0000000000000000000 ) ) ;
#166 = AXIS2_PLACEMENT_3D ( 'NONE', #165, #97, #98 ) ;
#167 = PERSON_AND_ORGANIZATION_ROLE ( 'creator' ) ;
#168 = DIRECTION ( 'NONE',  ( -3.491481338843133355E-15, 1.224646799147353207E-16, -1.000000000000000000 ) ) ;
#169 = APPROVAL_DATE_TIME ( #230, #283 ) ;
#170 = ADVANCED_FACE ( 'NONE', ( #277, #214 ), #218, .T. ) ;
#171 = CARTESIAN_POINT ( 'NONE',  ( 0.0000000000000000000, 1.344999999999999085, 0.0000000000000000000 ) ) ;
#172 = CONICAL_SURFACE ( 'NONE', #62, 1.594999999999999973, 0.5235987755983005920 ) ;
#173 = VERTEX_POINT ( 'NONE', #103 ) ;
#174 = ADVANCED_FACE ( 'NONE', ( #302, #27 ), #43, .T. ) ;
#175 = ORIENTED_EDGE ( 'NONE', *, *, #57, .T. ) ;
#176 = ORGANIZATION ( 'UNSPECIFIED', 'UNSPECIFIED', '' ) ;
#177 = CIRCLE ( 'NONE', #50, 1.200000000000001510 ) ;
#178 = CARTESIAN_POINT ( 'NONE',  ( 8.728703347107827472E-16, -3.061616997868381169E-17, 0.2499999999999998335 ) ) ;
#179 = PERSON_AND_ORGANIZATION ( #151, #176 ) ;
#180 = ORIENTED_EDGE ( 'NONE', *, *, #299, .F. ) ;
#181 = ADVANCED_FACE ( 'NONE', ( #23, #142 ), #79, .T. ) ;
#182 = EDGE_LOOP ( 'NONE', ( #156 ) ) ;
#183 = PERSON_AND_ORGANIZATION_ROLE ( 'design_owner' ) ;
#184 = EDGE_LOOP ( 'NONE', ( #300 ) ) ;
#185 = CALENDAR_DATE ( 2021, 2, 12 ) ;
#186 = DIRECTION ( 'NONE',  ( -3.491481338843133355E-15, 1.224646799147353207E-16, -1.000000000000000000 ) ) ;
#187 = DIRECTION ( 'NONE',  ( 0.0000000000000000000, 1.000000000000000000, 0.0000000000000000000 ) ) ;
#188 = CALENDAR_DATE ( 2021, 2, 12 ) ;
#189 = DIRECTION ( 'NONE',  ( 3.491481338843133355E-15, -1.224646799147353207E-16, 1.000000000000000000 ) ) ;
#190 = AXIS2_PLACEMENT_3D ( 'NONE', #14, #111, #293 ) ;
#191 = DATE_AND_TIME ( #188, #127 ) ;
#192 = FACE_OUTER_BOUND ( 'NONE', #275, .T. ) ;
#193 = DESIGN_CONTEXT ( 'detailed design', #147, 'design' ) ;
#194 = VERTEX_POINT ( 'NONE', #290 ) ;
#195 = VERTEX_POINT ( 'NONE', #56 ) ;
#196 = PRODUCT_DEFINITION_FORMATION_WITH_SPECIFIED_SOURCE ( 'ANY', '', #219, .NOT_KNOWN. ) ;
#197 = EDGE_CURVE ( 'NONE', #288, #288, #204, .T. ) ;
#198 = ORIENTED_EDGE ( 'NONE', *, *, #299, .T. ) ;
#199 = DIRECTION ( 'NONE',  ( 0.0000000000000000000, 1.000000000000000000, 0.0000000000000000000 ) ) ;
#200 = EDGE_CURVE ( 'NONE', #78, #78, #49, .T. ) ;
#201 = COORDINATED_UNIVERSAL_TIME_OFFSET ( 1, 0, .AHEAD. ) ;
#202 = EDGE_LOOP ( 'NONE', ( #133 ) ) ;
#203 = CALENDAR_DATE ( 2021, 2, 12 ) ;
#204 = CIRCLE ( 'NONE', #35, 1.344999999999999085 ) ;
#205 = ORIENTED_EDGE ( 'NONE', *, *, #217, .T. ) ;
#206 = APPROVAL_DATE_TIME ( #112, #29 ) ;
#207 = DIRECTION ( 'NONE',  ( 4.275831445896958607E-31, 1.000000000000000000, 1.224646799147353207E-16 ) ) ;
#208 = DIRECTION ( 'NONE',  ( 0.0000000000000000000, 0.0000000000000000000, 1.000000000000000000 ) ) ;
#209 = LOCAL_TIME ( 10, 35, 22.00000000000000000, #135 ) ;
#210 = FACE_OUTER_BOUND ( 'NONE', #13, .T. ) ;
#211 = AXIS2_PLACEMENT_3D ( 'NONE', #297, #89, #207 ) ;
#212 = PERSON_AND_ORGANIZATION_ROLE ( 'design_supplier' ) ;
#213 = DIRECTION ( 'NONE',  ( -3.491481338843133355E-15, 1.224646799147353207E-16, -1.000000000000000000 ) ) ;
#214 = FACE_OUTER_BOUND ( 'NONE', #184, .T. ) ;
#215 = DIRECTION ( 'NONE',  ( 0.0000000000000000000, 1.000000000000000000, 0.0000000000000000000 ) ) ;
#216 = LOCAL_TIME ( 10, 35, 22.00000000000000000, #201 ) ;
#217 = EDGE_CURVE ( 'NONE', #128, #128, #54, .T. ) ;
#218 = CYLINDRICAL_SURFACE ( 'NONE', #101, 1.499999999999996891 ) ;
#219 = PRODUCT ( '321545', '321545', '', ( #155 ) ) ;
#220 = CARTESIAN_POINT ( 'NONE',  ( 2.433562493173664138E-13, 1.499999999999992673, 69.70000000000001705 ) ) ;
#221 = PRODUCT_DEFINITION ( 'UNKNOWN', '', #196, #193 ) ;
#222 = DIRECTION ( 'NONE',  ( 4.275831445896958607E-31, 1.000000000000000000, 1.224646799147353207E-16 ) ) ;
#223 = ADVANCED_FACE ( 'NONE', ( #145, #72 ), #96, .T. ) ;
#224 = CARTESIAN_POINT ( 'NONE',  ( 3.548931858032409093E-14, -1.244797728683127913E-15, 10.16454482671905524 ) ) ;
#225 = FACE_BOUND ( 'NONE', #295, .T. ) ;
#226 = DIRECTION ( 'NONE',  ( -3.491481338843133355E-15, 1.224646799147353207E-16, -1.000000000000000000 ) ) ;
#227 = DIRECTION ( 'NONE',  ( -3.491481338843133355E-15, 1.224646799147353207E-16, -1.000000000000000000 ) ) ;
#228 = FACE_OUTER_BOUND ( 'NONE', #252, .T. ) ;
#229 = DIRECTION ( 'NONE',  ( 0.0000000000000000000, 1.000000000000000000, 0.0000000000000000000 ) ) ;
#230 = DATE_AND_TIME ( #185, #149 ) ;
#231 = AXIS2_PLACEMENT_3D ( 'NONE', #236, #115, #279 ) ;
#232 = DIRECTION ( 'NONE',  ( -3.491481338843133355E-15, 1.224646799147353207E-16, -1.000000000000000000 ) ) ;
#233 = MANIFOLD_SOLID_BREP ( 'Corps-Déplacer/Copier1[1]', #269 ) ;
#234 = CARTESIAN_POINT ( 'NONE',  ( -5.750993294731405639E-31, 2.017176907680197333E-32, -1.647149944853189251E-16 ) ) ;
#235 = PERSON_AND_ORGANIZATION ( #151, #176 ) ;
#236 = CARTESIAN_POINT ( 'NONE',  ( 3.491481338843133355E-14, -1.224646799147353256E-15, 10.00000000000000000 ) ) ;
#237 = UNCERTAINTY_MEASURE_WITH_UNIT (LENGTH_MEASURE( 1.000000000000000082E-05 ), #125, 'distance_accuracy_value', 'NONE');
#238 = CC_DESIGN_PERSON_AND_ORGANIZATION_ASSIGNMENT ( #121, #212, ( #196 ) ) ;
#239 = FACE_OUTER_BOUND ( 'NONE', #92, .T. ) ;
#240 = CC_DESIGN_APPROVAL ( #29, ( #196 ) ) ;
#241 = DIRECTION ( 'NONE',  ( -3.491481338843133355E-15, 1.224646799147353207E-16, -1.000000000000000000 ) ) ;
#242 = CIRCLE ( 'NONE', #126, 1.500000000000001110 ) ;
#243 = CC_DESIGN_APPROVAL ( #1, ( #221 ) ) ;
#244 = CONICAL_SURFACE ( 'NONE', #190, 1.344999999999999085, 0.7853981633974500554 ) ;
#245 = CC_DESIGN_PERSON_AND_ORGANIZATION_ASSIGNMENT ( #91, #183, ( #219 ) ) ;
#246 = EDGE_LOOP ( 'NONE', ( #86 ) ) ;
#247 = AXIS2_PLACEMENT_3D ( 'NONE', #117, #53, #71 ) ;
#248 = DATE_TIME_ROLE ( 'creation_date' ) ;
#249 = ORIENTED_EDGE ( 'NONE', *, *, #10, .F. ) ;
#250 = PERSON_AND_ORGANIZATION ( #151, #176 ) ;
#251 = CC_DESIGN_PERSON_AND_ORGANIZATION_ASSIGNMENT ( #235, #280, ( #289 ) ) ;
#252 = EDGE_LOOP ( 'NONE', ( #45 ) ) ;
#253 = ORIENTED_EDGE ( 'NONE', *, *, #24, .T. ) ;
#254 =( GEOMETRIC_REPRESENTATION_CONTEXT ( 3 ) GLOBAL_UNCERTAINTY_ASSIGNED_CONTEXT ( ( #237 ) ) GLOBAL_UNIT_ASSIGNED_CONTEXT ( ( #125, #33, #274 ) ) REPRESENTATION_CONTEXT ( 'NONE', 'WORKASPACE' ) );
#255 = FACE_OUTER_BOUND ( 'NONE', #182, .T. ) ;
#256 = COORDINATED_UNIVERSAL_TIME_OFFSET ( 1, 0, .AHEAD. ) ;
#257 = CARTESIAN_POINT ( 'NONE',  ( 2.444036937190193601E-13, 8.998558695971026591E-33, 70.00000000000000000 ) ) ;
#258 = COORDINATED_UNIVERSAL_TIME_OFFSET ( 1, 0, .AHEAD. ) ;
#259 = FACE_OUTER_BOUND ( 'NONE', #114, .T. ) ;
#260 = FACE_OUTER_BOUND ( 'NONE', #99, .T. ) ;
#261 = SECURITY_CLASSIFICATION_LEVEL ( 'unclassified' ) ;
#262 = FACE_BOUND ( 'NONE', #202, .T. ) ;
#263 = CC_DESIGN_DATE_AND_TIME_ASSIGNMENT ( #191, #26, ( #289 ) ) ;
#264 = PLANE ( 'NONE',  #15 ) ;
#265 = AXIS2_PLACEMENT_3D ( 'NONE', #2, #120, #215 ) ;
#266 = VERTEX_POINT ( 'NONE', #146 ) ;
#267 = EDGE_LOOP ( 'NONE', ( #175 ) ) ;
#268 = CIRCLE ( 'NONE', #136, 1.594999999999999973 ) ;
#269 = CLOSED_SHELL ( 'NONE', ( #88, #124, #170, #181, #270 ) ) ;
#270 = ADVANCED_FACE ( 'NONE', ( #192 ), #161, .F. ) ;
#271 = CARTESIAN_POINT ( 'NONE',  ( 3.548931858032409093E-14, -1.244797728683127913E-15, 10.16454482671905524 ) ) ;
#272 = APPROVAL_STATUS ( 'not_yet_approved' ) ;
#273 = EDGE_LOOP ( 'NONE', ( #90 ) ) ;
#274 =( NAMED_UNIT ( * ) SI_UNIT ( $, .STERADIAN. ) SOLID_ANGLE_UNIT ( ) );
#275 = EDGE_LOOP ( 'NONE', ( #66 ) ) ;
#276 = APPROVAL_DATE_TIME ( #39, #1 ) ;
#277 = FACE_OUTER_BOUND ( 'NONE', #298, .T. ) ;
#278 = PRODUCT_RELATED_PRODUCT_CATEGORY ( 'detail', '', ( #219 ) ) ;
#279 = DIRECTION ( 'NONE',  ( 0.0000000000000000000, 1.000000000000000000, 0.0000000000000000000 ) ) ;
#280 = PERSON_AND_ORGANIZATION_ROLE ( 'classification_officer' ) ;
#281 = DIRECTION ( 'NONE',  ( 4.275831445896958607E-31, 1.000000000000000000, 1.224646799147353454E-16 ) ) ;
#282 = SHAPE_DEFINITION_REPRESENTATION ( #102, #303 ) ;
#283 = APPROVAL ( #47, 'UNSPECIFIED' ) ;
#284 = APPROVAL_PERSON_ORGANIZATION ( #162, #283, #77 ) ;
#285 = CARTESIAN_POINT ( 'NONE',  ( 3.491481338843133355E-14, 1.196058426672829636E-32, 10.00000000000000000 ) ) ;
#286 = AXIS2_PLACEMENT_3D ( 'NONE', #140, #168, #229 ) ;
#287 = FACE_OUTER_BOUND ( 'NONE', #106, .T. ) ;
#288 = VERTEX_POINT ( 'NONE', #171 ) ;
#289 = SECURITY_CLASSIFICATION ( '', '', #261 ) ;
#290 = CARTESIAN_POINT ( 'NONE',  ( 8.728703347107835360E-16, 1.594999999999999973, 0.2500000000000000555 ) ) ;
#291 = AXIS2_PLACEMENT_3D ( 'NONE', #48, #213, #5 ) ;
#292 = ORIENTED_EDGE ( 'NONE', *, *, #57, .F. ) ;
#293 = DIRECTION ( 'NONE',  ( -4.275831445896958607E-31, -1.000000000000000000, -1.224646799147353454E-16 ) ) ;
#294 = CC_DESIGN_PERSON_AND_ORGANIZATION_ASSIGNMENT ( #152, #160, ( #221 ) ) ;
#295 = EDGE_LOOP ( 'NONE', ( #113 ) ) ;
#296 = CALENDAR_DATE ( 2021, 2, 12 ) ;
#297 = CARTESIAN_POINT ( 'NONE',  ( 2.444036937190193601E-13, -8.572527594031472993E-15, 70.00000000000000000 ) ) ;
#298 = EDGE_LOOP ( 'NONE', ( #292 ) ) ;
#299 = EDGE_CURVE ( 'NONE', #195, #195, #268, .T. ) ;
#300 = ORIENTED_EDGE ( 'NONE', *, *, #10, .T. ) ;
#301 = FACE_OUTER_BOUND ( 'NONE', #246, .T. ) ;
#302 = FACE_OUTER_BOUND ( 'NONE', #273, .T. ) ;
#303 = ADVANCED_BREP_SHAPE_REPRESENTATION ( '321545', ( #233, #137, #16 ), #254 ) ;
ENDSEC;
END-ISO-10303-21;
