ISO-10303-21;
HEADER;
FILE_DESCRIPTION (( 'STEP AP203' ),
    '1' );
FILE_NAME ('321544.step',
    '2021-12-02T09:35:22',
    ( '' ),
    ( '' ),
    'SwSTEP 2.0',
    'SolidWorks 2019',
    '' );
FILE_SCHEMA (( 'CONFIG_CONTROL_DESIGN' ));
ENDSEC;

DATA;
#1 = CALENDAR_DATE ( 2021, 2, 12 ) ;
#2 = ORIENTED_EDGE ( 'NONE', *, *, #301, .F. ) ;
#3 = APPROVAL ( #7, 'UNSPECIFIED' ) ;
#4 = AXIS2_PLACEMENT_3D ( 'NONE', #8, #35, #242 ) ;
#5 = PERSON_AND_ORGANIZATION ( #262, #143 ) ;
#6 = CIRCLE ( 'NONE', #222, 1.339999999999999192 ) ;
#7 = APPROVAL_STATUS ( 'not_yet_approved' ) ;
#8 = CARTESIAN_POINT ( 'NONE',  ( 3.491481338843133355E-14, 1.192309027216174828E-32, 10.00000000000000000 ) ) ;
#9 = DIRECTION ( 'NONE',  ( -3.491481338843133355E-15, 1.224646799147353207E-16, -1.000000000000000000 ) ) ;
#10 = EDGE_CURVE ( 'NONE', #299, #299, #140, .T. ) ;
#11 = AXIS2_PLACEMENT_3D ( 'NONE', #271, #93, #123 ) ;
#12 = CARTESIAN_POINT ( 'NONE',  ( 2.444036937190193601E-13, -8.572527594031472993E-15, 70.00000000000000000 ) ) ;
#13 = DIRECTION ( 'NONE',  ( 4.275831445896958607E-31, 1.000000000000000000, 1.224646799147353454E-16 ) ) ;
#14 = FACE_BOUND ( 'NONE', #272, .T. ) ;
#15 = ORIENTED_EDGE ( 'NONE', *, *, #184, .F. ) ;
#16 = DIRECTION ( 'NONE',  ( 0.0000000000000000000, 1.000000000000000000, 0.0000000000000000000 ) ) ;
#17 = DIRECTION ( 'NONE',  ( 4.275831445896958607E-31, 1.000000000000000000, 1.224646799147353207E-16 ) ) ;
#18 =( LENGTH_UNIT ( ) NAMED_UNIT ( * ) SI_UNIT ( .MILLI., .METRE. ) );
#19 = CARTESIAN_POINT ( 'NONE',  ( 0.0000000000000000000, 0.0000000000000000000, 0.0000000000000000000 ) ) ;
#20 = ADVANCED_FACE ( 'NONE', ( #159 ), #139, .F. ) ;
#21 = DIRECTION ( 'NONE',  ( -3.491481338843133355E-15, 1.224646799147353207E-16, -1.000000000000000000 ) ) ;
#22 = LOCAL_TIME ( 10, 35, 22.00000000000000000, #30 ) ;
#23 = CONICAL_SURFACE ( 'NONE', #274, 1.590000000000000080, 0.5235987755983028125 ) ;
#24 = DIRECTION ( 'NONE',  ( 0.0000000000000000000, 0.0000000000000000000, 1.000000000000000000 ) ) ;
#25 = CARTESIAN_POINT ( 'NONE',  ( 3.491481338843133355E-14, 1.589999999999998748, 10.00000000000000000 ) ) ;
#26 = EDGE_CURVE ( 'NONE', #73, #73, #173, .T. ) ;
#27 = CC_DESIGN_SECURITY_CLASSIFICATION ( #60, ( #191 ) ) ;
#28 = PERSON_AND_ORGANIZATION ( #262, #143 ) ;
#29 = DIRECTION ( 'NONE',  ( -3.491481338843133355E-15, 1.224646799147353207E-16, -1.000000000000000000 ) ) ;
#30 = COORDINATED_UNIVERSAL_TIME_OFFSET ( 1, 0, .AHEAD. ) ;
#31 = ORIENTED_EDGE ( 'NONE', *, *, #264, .F. ) ;
#32 = PERSON_AND_ORGANIZATION ( #262, #143 ) ;
#33 = EDGE_LOOP ( 'NONE', ( #156 ) ) ;
#34 = SHAPE_DEFINITION_REPRESENTATION ( #155, #115 ) ;
#35 = DIRECTION ( 'NONE',  ( 3.491481338843133355E-15, -1.224646799147353207E-16, 1.000000000000000000 ) ) ;
#36 = DIRECTION ( 'NONE',  ( 4.275831445896958607E-31, 1.000000000000000000, 1.224646799147353207E-16 ) ) ;
#37 = EDGE_CURVE ( 'NONE', #71, #71, #52, .T. ) ;
#38 = EDGE_LOOP ( 'NONE', ( #124 ) ) ;
#39 = CC_DESIGN_APPROVAL ( #3, ( #66 ) ) ;
#40 = ORIENTED_EDGE ( 'NONE', *, *, #184, .T. ) ;
#41 = PRODUCT ( '321544', '321544', '', ( #57 ) ) ;
#42 = APPROVAL_PERSON_ORGANIZATION ( #28, #3, #213 ) ;
#43 = FACE_OUTER_BOUND ( 'NONE', #128, .T. ) ;
#44 = APPROVAL ( #127, 'UNSPECIFIED' ) ;
#45 = DIRECTION ( 'NONE',  ( 0.0000000000000000000, 1.000000000000000000, 0.0000000000000000000 ) ) ;
#46 = CARTESIAN_POINT ( 'NONE',  ( 2.433562493173664138E-13, 1.499999999999992673, 69.70000000000001705 ) ) ;
#47 = AXIS2_PLACEMENT_3D ( 'NONE', #137, #196, #286 ) ;
#48 = CARTESIAN_POINT ( 'NONE',  ( 2.444036937190193601E-13, 8.998558695971026591E-33, 70.00000000000000000 ) ) ;
#49 = DIRECTION ( 'NONE',  ( -3.491481338843133355E-15, 1.224646799147353207E-16, -1.000000000000000000 ) ) ;
#50 = CARTESIAN_POINT ( 'NONE',  ( 3.545908146496131589E-14, -1.243737153444402869E-15, 10.15588457268120948 ) ) ;
#51 = DIRECTION ( 'NONE',  ( 0.0000000000000000000, 1.000000000000000000, 0.0000000000000000000 ) ) ;
#52 = CIRCLE ( 'NONE', #246, 1.499999999999992895 ) ;
#53 = AXIS2_PLACEMENT_3D ( 'NONE', #90, #49, #95 ) ;
#54 = CARTESIAN_POINT ( 'NONE',  ( 0.0000000000000000000, 0.0000000000000000000, 0.0000000000000000000 ) ) ;
#55 = APPLICATION_CONTEXT ( 'configuration controlled 3d designs of mechanical parts and assemblies' ) ;
#56 = EDGE_CURVE ( 'NONE', #275, #275, #72, .T. ) ;
#57 = MECHANICAL_CONTEXT ( 'NONE', #55, 'mechanical' ) ;
#58 = ORIENTED_EDGE ( 'NONE', *, *, #264, .T. ) ;
#59 = PERSON_AND_ORGANIZATION_ROLE ( 'classification_officer' ) ;
#60 = SECURITY_CLASSIFICATION ( '', '', #210 ) ;
#61 = ADVANCED_FACE ( 'NONE', ( #138, #151 ), #225, .T. ) ;
#62 = EDGE_LOOP ( 'NONE', ( #2 ) ) ;
#63 = DIRECTION ( 'NONE',  ( -3.491481338843133355E-15, 1.224646799147353207E-16, -1.000000000000000000 ) ) ;
#64 = AXIS2_PLACEMENT_3D ( 'NONE', #172, #171, #113 ) ;
#65 = ORIENTED_EDGE ( 'NONE', *, *, #301, .T. ) ;
#66 = PRODUCT_DEFINITION ( 'UNKNOWN', '', #191, #282 ) ;
#67 = CONICAL_SURFACE ( 'NONE', #205, 1.200000000000001510, 0.7853981633974566057 ) ;
#68 = ORIENTED_EDGE ( 'NONE', *, *, #56, .T. ) ;
#69 = ORIENTED_EDGE ( 'NONE', *, *, #176, .T. ) ;
#70 = VERTEX_POINT ( 'NONE', #243 ) ;
#71 = VERTEX_POINT ( 'NONE', #117 ) ;
#72 = CIRCLE ( 'NONE', #236, 1.500000000000001110 ) ;
#73 = VERTEX_POINT ( 'NONE', #181 ) ;
#74 = COORDINATED_UNIVERSAL_TIME_OFFSET ( 1, 0, .AHEAD. ) ;
#75 = APPROVAL_ROLE ( '' ) ;
#76 = EDGE_CURVE ( 'NONE', #183, #183, #108, .T. ) ;
#77 = AXIS2_PLACEMENT_3D ( 'NONE', #248, #118, #298 ) ;
#78 = LOCAL_TIME ( 10, 35, 22.00000000000000000, #74 ) ;
#79 = CC_DESIGN_APPROVAL ( #44, ( #60 ) ) ;
#80 = CARTESIAN_POINT ( 'NONE',  ( 3.491481338843133355E-14, -1.224646799147353256E-15, 10.00000000000000000 ) ) ;
#81 = FACE_OUTER_BOUND ( 'NONE', #62, .T. ) ;
#82 = CARTESIAN_POINT ( 'NONE',  ( 3.545908146496131589E-14, -1.243737153444402869E-15, 10.15588457268120948 ) ) ;
#83 = DIRECTION ( 'NONE',  ( -3.491481338843133355E-15, 1.224646799147353207E-16, -1.000000000000000000 ) ) ;
#84 = CARTESIAN_POINT ( 'NONE',  ( 2.433562493173664138E-13, -8.535788190057053710E-15, 69.70000000000001705 ) ) ;
#85 = PLANE ( 'NONE',  #280 ) ;
#86 = FACE_OUTER_BOUND ( 'NONE', #217, .T. ) ;
#87 = CARTESIAN_POINT ( 'NONE',  ( 0.0000000000000000000, 0.0000000000000000000, 0.0000000000000000000 ) ) ;
#88 = ADVANCED_FACE ( 'NONE', ( #86, #223 ), #300, .T. ) ;
#89 = CONICAL_SURFACE ( 'NONE', #11, 1.590000000000000080, 0.5235987755983028125 ) ;
#90 = CARTESIAN_POINT ( 'NONE',  ( 2.433562493173664138E-13, -8.535788190057053710E-15, 69.70000000000001705 ) ) ;
#91 = CONICAL_SURFACE ( 'NONE', #255, 1.200000000000001510, 0.7853981633974566057 ) ;
#92 = DIRECTION ( 'NONE',  ( 4.275831445896958607E-31, 1.000000000000000000, 1.224646799147353454E-16 ) ) ;
#93 = DIRECTION ( 'NONE',  ( -3.491481338843133355E-15, 1.224646799147353207E-16, -1.000000000000000000 ) ) ;
#94 = CC_DESIGN_PERSON_AND_ORGANIZATION_ASSIGNMENT ( #277, #59, ( #60 ) ) ;
#95 = DIRECTION ( 'NONE',  ( 0.0000000000000000000, 1.000000000000000000, 0.0000000000000000000 ) ) ;
#96 = CYLINDRICAL_SURFACE ( 'NONE', #247, 1.499999999999996891 ) ;
#97 = CARTESIAN_POINT ( 'NONE',  ( -5.729614137501920924E-31, 2.009678108766887990E-32, -1.641026710857452129E-16 ) ) ;
#98 = PERSON_AND_ORGANIZATION_ROLE ( 'creator' ) ;
#99 = ORIENTED_EDGE ( 'NONE', *, *, #26, .F. ) ;
#100 = PERSON_AND_ORGANIZATION_ROLE ( 'creator' ) ;
#101 = UNCERTAINTY_MEASURE_WITH_UNIT (LENGTH_MEASURE( 1.000000000000000082E-05 ), #18, 'distance_accuracy_value', 'NONE');
#102 = APPROVAL_DATE_TIME ( #148, #200 ) ;
#103 = CLOSED_SHELL ( 'NONE', ( #20, #170, #61, #224, #134 ) ) ;
#104 = DATE_AND_TIME ( #167, #22 ) ;
#105 = COORDINATED_UNIVERSAL_TIME_OFFSET ( 1, 0, .AHEAD. ) ;
#106 = EDGE_LOOP ( 'NONE', ( #99 ) ) ;
#107 = FACE_BOUND ( 'NONE', #158, .T. ) ;
#108 = CIRCLE ( 'NONE', #47, 1.590000000000000080 ) ;
#109 = CARTESIAN_POINT ( 'NONE',  ( 8.728703347107827472E-16, -3.061616997868381169E-17, 0.2499999999999998335 ) ) ;
#110 = ADVANCED_FACE ( 'NONE', ( #201, #289 ), #23, .T. ) ;
#111 = ORIENTED_EDGE ( 'NONE', *, *, #10, .F. ) ;
#112 = DIRECTION ( 'NONE',  ( 0.0000000000000000000, 1.000000000000000000, 0.0000000000000000000 ) ) ;
#113 = DIRECTION ( 'NONE',  ( -4.275831445896958607E-31, -1.000000000000000000, -1.224646799147352961E-16 ) ) ;
#114 = DIRECTION ( 'NONE',  ( -3.491481338843133355E-15, 1.224646799147353207E-16, -1.000000000000000000 ) ) ;
#115 = ADVANCED_BREP_SHAPE_REPRESENTATION ( '321544', ( #198, #208, #161 ), #253 ) ;
#116 =( NAMED_UNIT ( * ) PLANE_ANGLE_UNIT ( ) SI_UNIT ( $, .RADIAN. ) );
#117 = CARTESIAN_POINT ( 'NONE',  ( 3.545908146496131589E-14, 1.499999999999991562, 10.15588457268120948 ) ) ;
#118 = DIRECTION ( 'NONE',  ( -3.491481338843133355E-15, 1.224646799147353207E-16, -1.000000000000000000 ) ) ;
#119 = CC_DESIGN_APPROVAL ( #200, ( #191 ) ) ;
#120 = CC_DESIGN_PERSON_AND_ORGANIZATION_ASSIGNMENT ( #257, #187, ( #41 ) ) ;
#121 = FACE_OUTER_BOUND ( 'NONE', #303, .T. ) ;
#122 = CARTESIAN_POINT ( 'NONE',  ( 2.444036937190193601E-13, -8.572527594031472993E-15, 70.00000000000000000 ) ) ;
#123 = DIRECTION ( 'NONE',  ( 0.0000000000000000000, 1.000000000000000000, 0.0000000000000000000 ) ) ;
#124 = ORIENTED_EDGE ( 'NONE', *, *, #295, .F. ) ;
#125 = CALENDAR_DATE ( 2021, 2, 12 ) ;
#126 = ADVANCED_FACE ( 'NONE', ( #266, #154 ), #241, .T. ) ;
#127 = APPROVAL_STATUS ( 'not_yet_approved' ) ;
#128 = EDGE_LOOP ( 'NONE', ( #15 ) ) ;
#129 = APPROVAL_STATUS ( 'not_yet_approved' ) ;
#130 = PRODUCT_RELATED_PRODUCT_CATEGORY ( 'detail', '', ( #41 ) ) ;
#131 = ORIENTED_EDGE ( 'NONE', *, *, #176, .F. ) ;
#132 = FACE_OUTER_BOUND ( 'NONE', #33, .T. ) ;
#133 = DIRECTION ( 'NONE',  ( -3.491481338843133355E-15, 1.224646799147353207E-16, -1.000000000000000000 ) ) ;
#134 = ADVANCED_FACE ( 'NONE', ( #43 ), #85, .F. ) ;
#135 = CARTESIAN_POINT ( 'NONE',  ( -2.864807068750960462E-31, 1.004839054383443995E-32, -8.205133554287260646E-17 ) ) ;
#136 = AXIS2_PLACEMENT_3D ( 'NONE', #203, #199, #16 ) ;
#137 = CARTESIAN_POINT ( 'NONE',  ( 3.491481338843133355E-14, -1.224646799147353256E-15, 10.00000000000000000 ) ) ;
#138 = FACE_OUTER_BOUND ( 'NONE', #265, .T. ) ;
#139 = PLANE ( 'NONE',  #4 ) ;
#140 = CIRCLE ( 'NONE', #269, 1.590000000000000080 ) ;
#141 =( NAMED_UNIT ( * ) SI_UNIT ( $, .STERADIAN. ) SOLID_ANGLE_UNIT ( ) );
#142 = VERTEX_POINT ( 'NONE', #230 ) ;
#143 = ORGANIZATION ( 'UNSPECIFIED', 'UNSPECIFIED', '' ) ;
#144 = DIRECTION ( 'NONE',  ( 4.275831445896958607E-31, 1.000000000000000000, 1.224646799147353207E-16 ) ) ;
#145 = APPROVAL_DATE_TIME ( #190, #44 ) ;
#146 = APPLICATION_PROTOCOL_DEFINITION ( 'international standard', 'config_control_design', 1994, #244 ) ;
#147 = AXIS2_PLACEMENT_3D ( 'NONE', #122, #209, #144 ) ;
#148 = DATE_AND_TIME ( #216, #185 ) ;
#149 = EDGE_LOOP ( 'NONE', ( #214 ) ) ;
#150 = CC_DESIGN_PERSON_AND_ORGANIZATION_ASSIGNMENT ( #5, #281, ( #191 ) ) ;
#151 = FACE_OUTER_BOUND ( 'NONE', #254, .T. ) ;
#152 = CARTESIAN_POINT ( 'NONE',  ( 2.444036937190193601E-13, -8.572527594031472993E-15, 70.00000000000000000 ) ) ;
#153 = EDGE_LOOP ( 'NONE', ( #287 ) ) ;
#154 = FACE_OUTER_BOUND ( 'NONE', #106, .T. ) ;
#155 = PRODUCT_DEFINITION_SHAPE ( 'NONE', 'NONE',  #66 ) ;
#156 = ORIENTED_EDGE ( 'NONE', *, *, #56, .F. ) ;
#157 = DIRECTION ( 'NONE',  ( -3.491481338843133355E-15, 1.224646799147353207E-16, -1.000000000000000000 ) ) ;
#158 = EDGE_LOOP ( 'NONE', ( #197 ) ) ;
#159 = FACE_OUTER_BOUND ( 'NONE', #194, .T. ) ;
#160 = VERTEX_POINT ( 'NONE', #273 ) ;
#161 = AXIS2_PLACEMENT_3D ( 'NONE', #19, #24, #163 ) ;
#162 = FACE_OUTER_BOUND ( 'NONE', #292, .T. ) ;
#163 = DIRECTION ( 'NONE',  ( 1.000000000000000000, 0.0000000000000000000, 0.0000000000000000000 ) ) ;
#164 = DATE_TIME_ROLE ( 'classification_date' ) ;
#165 = PERSON_AND_ORGANIZATION ( #262, #143 ) ;
#166 = CIRCLE ( 'NONE', #77, 1.200000000000001510 ) ;
#167 = CALENDAR_DATE ( 2021, 2, 12 ) ;
#168 = LOCAL_TIME ( 10, 35, 22.00000000000000000, #105 ) ;
#169 = DIRECTION ( 'NONE',  ( 4.845106778332668339E-31, 1.000000000000000000, 1.363776317591829343E-16 ) ) ;
#170 = ADVANCED_FACE ( 'NONE', ( #14, #291 ), #89, .T. ) ;
#171 = DIRECTION ( 'NONE',  ( 3.491481338843133355E-15, -1.224646799147353207E-16, 1.000000000000000000 ) ) ;
#172 = CARTESIAN_POINT ( 'NONE',  ( -5.729614137501920924E-31, 2.009678108766887990E-32, -1.641026710857452129E-16 ) ) ;
#173 = CIRCLE ( 'NONE', #284, 1.590000000000000080 ) ;
#174 = CIRCLE ( 'NONE', #296, 1.499999999999992895 ) ;
#175 = CARTESIAN_POINT ( 'NONE',  ( 3.491481338843133355E-14, -1.224646799147353256E-15, 10.00000000000000000 ) ) ;
#176 = EDGE_CURVE ( 'NONE', #142, #142, #6, .T. ) ;
#177 = EDGE_LOOP ( 'NONE', ( #258 ) ) ;
#178 = PLANE ( 'NONE',  #147 ) ;
#179 = ADVANCED_FACE ( 'NONE', ( #81, #107 ), #91, .T. ) ;
#180 = AXIS2_PLACEMENT_3D ( 'NONE', #238, #9, #13 ) ;
#181 = CARTESIAN_POINT ( 'NONE',  ( 8.728703347107835360E-16, 1.590000000000000080, 0.2500000000000000555 ) ) ;
#182 = VERTEX_POINT ( 'NONE', #297 ) ;
#183 = VERTEX_POINT ( 'NONE', #207 ) ;
#184 = EDGE_CURVE ( 'NONE', #182, #182, #285, .T. ) ;
#185 = LOCAL_TIME ( 10, 35, 22.00000000000000000, #193 ) ;
#186 = PERSON_AND_ORGANIZATION ( #262, #143 ) ;
#187 = PERSON_AND_ORGANIZATION_ROLE ( 'design_owner' ) ;
#188 = ORIENTED_EDGE ( 'NONE', *, *, #37, .F. ) ;
#189 = ADVANCED_FACE ( 'NONE', ( #288 ), #290, .T. ) ;
#190 = DATE_AND_TIME ( #235, #168 ) ;
#191 = PRODUCT_DEFINITION_FORMATION_WITH_SPECIFIED_SOURCE ( 'ANY', '', #41, .NOT_KNOWN. ) ;
#192 = AXIS2_PLACEMENT_3D ( 'NONE', #87, #245, #17 ) ;
#193 = COORDINATED_UNIVERSAL_TIME_OFFSET ( 1, 0, .AHEAD. ) ;
#194 = EDGE_LOOP ( 'NONE', ( #218 ) ) ;
#195 = CIRCLE ( 'NONE', #53, 1.500000000000001110 ) ;
#196 = DIRECTION ( 'NONE',  ( -3.491481338843133355E-15, 1.224646799147353207E-16, -1.000000000000000000 ) ) ;
#197 = ORIENTED_EDGE ( 'NONE', *, *, #295, .T. ) ;
#198 = MANIFOLD_SOLID_BREP ( 'Corps-Déplacer/Copier1[1]', #103 ) ;
#199 = DIRECTION ( 'NONE',  ( -3.491481338843133355E-15, 1.224646799147353207E-16, -1.000000000000000000 ) ) ;
#200 = APPROVAL ( #129, 'UNSPECIFIED' ) ;
#201 = FACE_BOUND ( 'NONE', #149, .T. ) ;
#202 = DIRECTION ( 'NONE',  ( 0.0000000000000000000, 1.000000000000000000, 0.0000000000000000000 ) ) ;
#203 = CARTESIAN_POINT ( 'NONE',  ( 2.444036937190193601E-13, -8.572527594031472993E-15, 70.00000000000000000 ) ) ;
#204 = VERTEX_POINT ( 'NONE', #232 ) ;
#205 = AXIS2_PLACEMENT_3D ( 'NONE', #152, #83, #51 ) ;
#206 = APPROVAL_PERSON_ORGANIZATION ( #32, #200, #75 ) ;
#207 = CARTESIAN_POINT ( 'NONE',  ( 3.491481338843133355E-14, 1.589999999999998748, 10.00000000000000000 ) ) ;
#208 = MANIFOLD_SOLID_BREP ( 'Corps-Déplacer/Copier1[2]', #260 ) ;
#209 = DIRECTION ( 'NONE',  ( -3.491481338843133355E-15, 1.224646799147353207E-16, -1.000000000000000000 ) ) ;
#210 = SECURITY_CLASSIFICATION_LEVEL ( 'unclassified' ) ;
#211 = APPROVAL_DATE_TIME ( #233, #3 ) ;
#212 = EDGE_LOOP ( 'NONE', ( #40 ) ) ;
#213 = APPROVAL_ROLE ( '' ) ;
#214 = ORIENTED_EDGE ( 'NONE', *, *, #37, .T. ) ;
#215 = PERSON_AND_ORGANIZATION ( #262, #143 ) ;
#216 = CALENDAR_DATE ( 2021, 2, 12 ) ;
#217 = EDGE_LOOP ( 'NONE', ( #267 ) ) ;
#218 = ORIENTED_EDGE ( 'NONE', *, *, #76, .T. ) ;
#219 = FACE_BOUND ( 'NONE', #212, .T. ) ;
#220 = DIRECTION ( 'NONE',  ( 4.275831445896958607E-31, 1.000000000000000000, 1.224646799147353207E-16 ) ) ;
#221 = EDGE_LOOP ( 'NONE', ( #69 ) ) ;
#222 = AXIS2_PLACEMENT_3D ( 'NONE', #97, #29, #227 ) ;
#223 = FACE_BOUND ( 'NONE', #283, .T. ) ;
#224 = ADVANCED_FACE ( 'NONE', ( #132, #219 ), #67, .T. ) ;
#225 = CYLINDRICAL_SURFACE ( 'NONE', #180, 1.499999999999996891 ) ;
#226 = DIRECTION ( 'NONE',  ( -3.491481338843133355E-15, 1.224646799147353207E-16, -1.000000000000000000 ) ) ;
#227 = DIRECTION ( 'NONE',  ( 4.275831445896958607E-31, 1.000000000000000000, 1.224646799147352961E-16 ) ) ;
#228 = APPROVAL_PERSON_ORGANIZATION ( #165, #44, #256 ) ;
#229 = CC_DESIGN_PERSON_AND_ORGANIZATION_ASSIGNMENT ( #186, #100, ( #191 ) ) ;
#230 = CARTESIAN_POINT ( 'NONE',  ( 0.0000000000000000000, 1.339999999999999192, 0.0000000000000000000 ) ) ;
#231 = LOCAL_TIME ( 10, 35, 22.00000000000000000, #252 ) ;
#232 = CARTESIAN_POINT ( 'NONE',  ( 3.545908146496131589E-14, 1.499999999999991562, 10.15588457268120948 ) ) ;
#233 = DATE_AND_TIME ( #125, #231 ) ;
#234 = EDGE_LOOP ( 'NONE', ( #111 ) ) ;
#235 = CALENDAR_DATE ( 2021, 2, 12 ) ;
#236 = AXIS2_PLACEMENT_3D ( 'NONE', #84, #226, #263 ) ;
#237 = ADVANCED_FACE ( 'NONE', ( #251 ), #178, .F. ) ;
#238 = CARTESIAN_POINT ( 'NONE',  ( 0.0000000000000000000, 0.0000000000000000000, 0.0000000000000000000 ) ) ;
#239 = DIRECTION ( 'NONE',  ( 0.0000000000000000000, 1.000000000000000000, 0.0000000000000000000 ) ) ;
#240 = ADVANCED_FACE ( 'NONE', ( #121, #162 ), #96, .T. ) ;
#241 = CYLINDRICAL_SURFACE ( 'NONE', #192, 1.590000000000000080 ) ;
#242 = DIRECTION ( 'NONE',  ( -4.275831445896958607E-31, -1.000000000000000000, -1.224646799147353207E-16 ) ) ;
#243 = CARTESIAN_POINT ( 'NONE',  ( 2.444036937190193601E-13, 1.199999999999992628, 70.00000000000000000 ) ) ;
#244 = APPLICATION_CONTEXT ( 'configuration controlled 3d designs of mechanical parts and assemblies' ) ;
#245 = DIRECTION ( 'NONE',  ( -3.491481338843133355E-15, 1.224646799147353207E-16, -1.000000000000000000 ) ) ;
#246 = AXIS2_PLACEMENT_3D ( 'NONE', #82, #133, #239 ) ;
#247 = AXIS2_PLACEMENT_3D ( 'NONE', #54, #294, #92 ) ;
#248 = CARTESIAN_POINT ( 'NONE',  ( 2.444036937190193601E-13, -8.572527594031472993E-15, 70.00000000000000000 ) ) ;
#249 = APPLICATION_PROTOCOL_DEFINITION ( 'international standard', 'config_control_design', 1994, #55 ) ;
#250 = CC_DESIGN_PERSON_AND_ORGANIZATION_ASSIGNMENT ( #215, #98, ( #66 ) ) ;
#251 = FACE_OUTER_BOUND ( 'NONE', #38, .T. ) ;
#252 = COORDINATED_UNIVERSAL_TIME_OFFSET ( 1, 0, .AHEAD. ) ;
#253 =( GEOMETRIC_REPRESENTATION_CONTEXT ( 3 ) GLOBAL_UNCERTAINTY_ASSIGNED_CONTEXT ( ( #101 ) ) GLOBAL_UNIT_ASSIGNED_CONTEXT ( ( #18, #116, #141 ) ) REPRESENTATION_CONTEXT ( 'NONE', 'WORKASPACE' ) );
#254 = EDGE_LOOP ( 'NONE', ( #68 ) ) ;
#255 = AXIS2_PLACEMENT_3D ( 'NONE', #12, #268, #112 ) ;
#256 = APPROVAL_ROLE ( '' ) ;
#257 = PERSON_AND_ORGANIZATION ( #262, #143 ) ;
#258 = ORIENTED_EDGE ( 'NONE', *, *, #10, .T. ) ;
#259 = CC_DESIGN_DATE_AND_TIME_ASSIGNMENT ( #279, #164, ( #60 ) ) ;
#260 = CLOSED_SHELL ( 'NONE', ( #110, #126, #88, #189, #237, #179, #240 ) ) ;
#261 = AXIS2_PLACEMENT_3D ( 'NONE', #135, #293, #36 ) ;
#262 = PERSON ( 'UNSPECIFIED', 'UNSPECIFIED', 'UNSPECIFIED', ('UNSPECIFIED'), ('UNSPECIFIED'), ('UNSPECIFIED') ) ;
#263 = DIRECTION ( 'NONE',  ( 0.0000000000000000000, 1.000000000000000000, 0.0000000000000000000 ) ) ;
#264 = EDGE_CURVE ( 'NONE', #204, #204, #174, .T. ) ;
#265 = EDGE_LOOP ( 'NONE', ( #31 ) ) ;
#266 = FACE_OUTER_BOUND ( 'NONE', #177, .T. ) ;
#267 = ORIENTED_EDGE ( 'NONE', *, *, #26, .T. ) ;
#268 = DIRECTION ( 'NONE',  ( -3.491481338843133355E-15, 1.224646799147353207E-16, -1.000000000000000000 ) ) ;
#269 = AXIS2_PLACEMENT_3D ( 'NONE', #80, #114, #202 ) ;
#270 = DIRECTION ( 'NONE',  ( -3.491481338843133355E-15, 1.224646799147353207E-16, -1.000000000000000000 ) ) ;
#271 = CARTESIAN_POINT ( 'NONE',  ( 3.491481338843133355E-14, -1.224646799147353256E-15, 10.00000000000000000 ) ) ;
#272 = EDGE_LOOP ( 'NONE', ( #58 ) ) ;
#273 = CARTESIAN_POINT ( 'NONE',  ( 2.433562493173664138E-13, 1.499999999999992673, 69.70000000000001705 ) ) ;
#274 = AXIS2_PLACEMENT_3D ( 'NONE', #175, #270, #45 ) ;
#275 = VERTEX_POINT ( 'NONE', #46 ) ;
#276 = DIRECTION ( 'NONE',  ( 0.0000000000000000000, 1.000000000000000000, 0.0000000000000000000 ) ) ;
#277 = PERSON_AND_ORGANIZATION ( #262, #143 ) ;
#278 = CC_DESIGN_DATE_AND_TIME_ASSIGNMENT ( #104, #302, ( #66 ) ) ;
#279 = DATE_AND_TIME ( #1, #78 ) ;
#280 = AXIS2_PLACEMENT_3D ( 'NONE', #48, #157, #220 ) ;
#281 = PERSON_AND_ORGANIZATION_ROLE ( 'design_supplier' ) ;
#282 = DESIGN_CONTEXT ( 'detailed design', #244, 'design' ) ;
#283 = EDGE_LOOP ( 'NONE', ( #131 ) ) ;
#284 = AXIS2_PLACEMENT_3D ( 'NONE', #109, #63, #169 ) ;
#285 = CIRCLE ( 'NONE', #136, 1.200000000000001510 ) ;
#286 = DIRECTION ( 'NONE',  ( 0.0000000000000000000, 1.000000000000000000, 0.0000000000000000000 ) ) ;
#287 = ORIENTED_EDGE ( 'NONE', *, *, #76, .F. ) ;
#288 = FACE_OUTER_BOUND ( 'NONE', #221, .T. ) ;
#289 = FACE_OUTER_BOUND ( 'NONE', #234, .T. ) ;
#290 = PLANE ( 'NONE',  #261 ) ;
#291 = FACE_OUTER_BOUND ( 'NONE', #153, .T. ) ;
#292 = EDGE_LOOP ( 'NONE', ( #65 ) ) ;
#293 = DIRECTION ( 'NONE',  ( -3.491481338843133355E-15, 1.224646799147353207E-16, -1.000000000000000000 ) ) ;
#294 = DIRECTION ( 'NONE',  ( -3.491481338843133355E-15, 1.224646799147353207E-16, -1.000000000000000000 ) ) ;
#295 = EDGE_CURVE ( 'NONE', #70, #70, #166, .T. ) ;
#296 = AXIS2_PLACEMENT_3D ( 'NONE', #50, #21, #276 ) ;
#297 = CARTESIAN_POINT ( 'NONE',  ( 2.444036937190193601E-13, 1.199999999999992628, 70.00000000000000000 ) ) ;
#298 = DIRECTION ( 'NONE',  ( 0.0000000000000000000, 1.000000000000000000, 0.0000000000000000000 ) ) ;
#299 = VERTEX_POINT ( 'NONE', #25 ) ;
#300 = CONICAL_SURFACE ( 'NONE', #64, 1.339999999999999192, 0.7853981633974500554 ) ;
#301 = EDGE_CURVE ( 'NONE', #160, #160, #195, .T. ) ;
#302 = DATE_TIME_ROLE ( 'creation_date' ) ;
#303 = EDGE_LOOP ( 'NONE', ( #188 ) ) ;
ENDSEC;
END-ISO-10303-21;
