ISO-10303-21;
HEADER;
FILE_DESCRIPTION (( 'STEP AP203' ),
    '1' );
FILE_NAME ('321543.step',
    '2021-12-02T09:35:21',
    ( '' ),
    ( '' ),
    'SwSTEP 2.0',
    'SolidWorks 2019',
    '' );
FILE_SCHEMA (( 'CONFIG_CONTROL_DESIGN' ));
ENDSEC;

DATA;
#1 = CARTESIAN_POINT ( 'NONE',  ( 3.542884434959854715E-14, 1.499999999999991562, 10.14722431864336727 ) ) ;
#2 = MANIFOLD_SOLID_BREP ( 'Corps-Déplacer/Copier1[2]', #237 ) ;
#3 = CARTESIAN_POINT ( 'NONE',  ( 3.491481338843133355E-14, -1.224646799147353256E-15, 10.00000000000000000 ) ) ;
#4 = FACE_BOUND ( 'NONE', #144, .T. ) ;
#5 = ADVANCED_FACE ( 'NONE', ( #51 ), #287, .F. ) ;
#6 = VERTEX_POINT ( 'NONE', #178 ) ;
#7 = VERTEX_POINT ( 'NONE', #48 ) ;
#8 = ORIENTED_EDGE ( 'NONE', *, *, #100, .F. ) ;
#9 = PERSON_AND_ORGANIZATION ( #179, #82 ) ;
#10 = APPROVAL_DATE_TIME ( #141, #242 ) ;
#11 = APPROVAL_STATUS ( 'not_yet_approved' ) ;
#12 = AXIS2_PLACEMENT_3D ( 'NONE', #131, #65, #67 ) ;
#13 =( GEOMETRIC_REPRESENTATION_CONTEXT ( 3 ) GLOBAL_UNCERTAINTY_ASSIGNED_CONTEXT ( ( #174 ) ) GLOBAL_UNIT_ASSIGNED_CONTEXT ( ( #30, #288, #166 ) ) REPRESENTATION_CONTEXT ( 'NONE', 'WORKASPACE' ) );
#14 = AXIS2_PLACEMENT_3D ( 'NONE', #3, #193, #40 ) ;
#15 = PERSON_AND_ORGANIZATION_ROLE ( 'classification_officer' ) ;
#16 = EDGE_LOOP ( 'NONE', ( #158 ) ) ;
#17 = DIRECTION ( 'NONE',  ( -3.491481338843133355E-15, 1.224646799147353207E-16, -1.000000000000000000 ) ) ;
#18 = ADVANCED_FACE ( 'NONE', ( #233 ), #165, .F. ) ;
#19 = DIRECTION ( 'NONE',  ( -3.491481338843133355E-15, 1.224646799147353207E-16, -1.000000000000000000 ) ) ;
#20 = LOCAL_TIME ( 10, 35, 21.00000000000000000, #264 ) ;
#21 = DIRECTION ( 'NONE',  ( -3.491481338843133355E-15, 1.224646799147353207E-16, -1.000000000000000000 ) ) ;
#22 = CARTESIAN_POINT ( 'NONE',  ( 0.0000000000000000000, 0.0000000000000000000, 0.0000000000000000000 ) ) ;
#23 = CARTESIAN_POINT ( 'NONE',  ( 2.444036937190193601E-13, -8.572527594031472993E-15, 70.00000000000000000 ) ) ;
#24 = VERTEX_POINT ( 'NONE', #130 ) ;
#25 = DIRECTION ( 'NONE',  ( -3.491481338843133355E-15, 1.224646799147353207E-16, -1.000000000000000000 ) ) ;
#26 = CC_DESIGN_PERSON_AND_ORGANIZATION_ASSIGNMENT ( #238, #15, ( #289 ) ) ;
#27 = FACE_OUTER_BOUND ( 'NONE', #121, .T. ) ;
#28 = DIRECTION ( 'NONE',  ( 0.0000000000000000000, 1.000000000000000000, 0.0000000000000000000 ) ) ;
#29 = ADVANCED_FACE ( 'NONE', ( #60, #299 ), #146, .T. ) ;
#30 =( LENGTH_UNIT ( ) NAMED_UNIT ( * ) SI_UNIT ( .MILLI., .METRE. ) );
#31 = ORIENTED_EDGE ( 'NONE', *, *, #64, .T. ) ;
#32 = CARTESIAN_POINT ( 'NONE',  ( 3.542884434959854715E-14, 1.499999999999991562, 10.14722431864336727 ) ) ;
#33 = APPROVAL_ROLE ( '' ) ;
#34 = ADVANCED_FACE ( 'NONE', ( #266, #269 ), #74, .T. ) ;
#35 = PRODUCT_DEFINITION_SHAPE ( 'NONE', 'NONE',  #215 ) ;
#36 = CALENDAR_DATE ( 2021, 2, 12 ) ;
#37 = CARTESIAN_POINT ( 'NONE',  ( 2.444036937190193601E-13, -8.572527594031472993E-15, 70.00000000000000000 ) ) ;
#38 = CIRCLE ( 'NONE', #203, 1.584999999999999964 ) ;
#39 = DIRECTION ( 'NONE',  ( 4.275831445896958607E-31, 1.000000000000000000, 1.224646799147353207E-16 ) ) ;
#40 = DIRECTION ( 'NONE',  ( 0.0000000000000000000, 1.000000000000000000, 0.0000000000000000000 ) ) ;
#41 = ADVANCED_FACE ( 'NONE', ( #210, #62 ), #101, .T. ) ;
#42 = CARTESIAN_POINT ( 'NONE',  ( 3.491481338843133355E-14, -1.224646799147353256E-15, 10.00000000000000000 ) ) ;
#43 = CARTESIAN_POINT ( 'NONE',  ( 0.0000000000000000000, 1.334999999999999076, 0.0000000000000000000 ) ) ;
#44 = CARTESIAN_POINT ( 'NONE',  ( 2.433562493173664138E-13, -8.535788190057053710E-15, 69.70000000000001705 ) ) ;
#45 = EDGE_CURVE ( 'NONE', #191, #191, #300, .T. ) ;
#46 = DIRECTION ( 'NONE',  ( -3.491481338843133355E-15, 1.224646799147353207E-16, -1.000000000000000000 ) ) ;
#47 = EDGE_LOOP ( 'NONE', ( #49 ) ) ;
#48 = CARTESIAN_POINT ( 'NONE',  ( 2.433562493173664138E-13, 1.499999999999992673, 69.70000000000001705 ) ) ;
#49 = ORIENTED_EDGE ( 'NONE', *, *, #126, .T. ) ;
#50 = APPROVAL_ROLE ( '' ) ;
#51 = FACE_OUTER_BOUND ( 'NONE', #214, .T. ) ;
#52 = PERSON_AND_ORGANIZATION_ROLE ( 'creator' ) ;
#53 = PERSON_AND_ORGANIZATION ( #179, #82 ) ;
#54 = ORIENTED_EDGE ( 'NONE', *, *, #64, .F. ) ;
#55 = DIRECTION ( 'NONE',  ( 4.275831445896958607E-31, 1.000000000000000000, 1.224646799147353454E-16 ) ) ;
#56 = CONICAL_SURFACE ( 'NONE', #224, 1.584999999999999964, 0.5235987755983002589 ) ;
#57 = ORIENTED_EDGE ( 'NONE', *, *, #126, .F. ) ;
#58 = CARTESIAN_POINT ( 'NONE',  ( 3.542884434959854715E-14, -1.242676578205678219E-15, 10.14722431864336727 ) ) ;
#59 = ORIENTED_EDGE ( 'NONE', *, *, #295, .F. ) ;
#60 = FACE_OUTER_BOUND ( 'NONE', #205, .T. ) ;
#61 = AXIS2_PLACEMENT_3D ( 'NONE', #225, #129, #69 ) ;
#62 = FACE_OUTER_BOUND ( 'NONE', #281, .T. ) ;
#63 = CARTESIAN_POINT ( 'NONE',  ( 8.728703347107835360E-16, 1.584999999999999964, 0.2500000000000000555 ) ) ;
#64 = EDGE_CURVE ( 'NONE', #274, #274, #240, .T. ) ;
#65 = DIRECTION ( 'NONE',  ( -3.491481338843133355E-15, 1.224646799147353207E-16, -1.000000000000000000 ) ) ;
#66 = DIRECTION ( 'NONE',  ( 4.275831445896958607E-31, 1.000000000000000000, 1.224646799147353207E-16 ) ) ;
#67 = DIRECTION ( 'NONE',  ( 4.275831445896958607E-31, 1.000000000000000000, 1.224646799147353207E-16 ) ) ;
#68 = ORIENTED_EDGE ( 'NONE', *, *, #147, .F. ) ;
#69 = DIRECTION ( 'NONE',  ( 0.0000000000000000000, 1.000000000000000000, 0.0000000000000000000 ) ) ;
#70 = PERSON_AND_ORGANIZATION ( #179, #82 ) ;
#71 = EDGE_LOOP ( 'NONE', ( #31 ) ) ;
#72 = COORDINATED_UNIVERSAL_TIME_OFFSET ( 1, 0, .AHEAD. ) ;
#73 = DATE_AND_TIME ( #260, #267 ) ;
#74 = CONICAL_SURFACE ( 'NONE', #185, 1.200000000000001510, 0.7853981633974566057 ) ;
#75 = LOCAL_TIME ( 10, 35, 21.00000000000000000, #201 ) ;
#76 = CALENDAR_DATE ( 2021, 2, 12 ) ;
#77 = PLANE ( 'NONE',  #202 ) ;
#78 = AXIS2_PLACEMENT_3D ( 'NONE', #58, #239, #124 ) ;
#79 = APPROVAL_PERSON_ORGANIZATION ( #92, #116, #164 ) ;
#80 = DIRECTION ( 'NONE',  ( 0.0000000000000000000, 1.000000000000000000, 0.0000000000000000000 ) ) ;
#81 = CIRCLE ( 'NONE', #180, 1.500000000000001110 ) ;
#82 = ORGANIZATION ( 'UNSPECIFIED', 'UNSPECIFIED', '' ) ;
#83 = FACE_OUTER_BOUND ( 'NONE', #120, .T. ) ;
#84 = ADVANCED_FACE ( 'NONE', ( #292, #212 ), #298, .T. ) ;
#85 = DIRECTION ( 'NONE',  ( 0.0000000000000000000, 1.000000000000000000, 0.0000000000000000000 ) ) ;
#86 = CARTESIAN_POINT ( 'NONE',  ( 2.433562493173664138E-13, 1.499999999999992673, 69.70000000000001705 ) ) ;
#87 = AXIS2_PLACEMENT_3D ( 'NONE', #162, #142, #286 ) ;
#88 = DIRECTION ( 'NONE',  ( -4.275831445896958607E-31, -1.000000000000000000, -1.224646799147353207E-16 ) ) ;
#89 = CARTESIAN_POINT ( 'NONE',  ( 3.491481338843133355E-14, -1.224646799147353256E-15, 10.00000000000000000 ) ) ;
#90 = CIRCLE ( 'NONE', #61, 1.499999999999992895 ) ;
#91 = ADVANCED_FACE ( 'NONE', ( #127 ), #77, .T. ) ;
#92 = PERSON_AND_ORGANIZATION ( #179, #82 ) ;
#93 = AXIS2_PLACEMENT_3D ( 'NONE', #150, #110, #189 ) ;
#94 = COORDINATED_UNIVERSAL_TIME_OFFSET ( 1, 0, .AHEAD. ) ;
#95 = AXIS2_PLACEMENT_3D ( 'NONE', #294, #145, #55 ) ;
#96 = AXIS2_PLACEMENT_3D ( 'NONE', #280, #170, #218 ) ;
#97 = EDGE_LOOP ( 'NONE', ( #293 ) ) ;
#98 = EDGE_LOOP ( 'NONE', ( #184 ) ) ;
#99 = EDGE_LOOP ( 'NONE', ( #123 ) ) ;
#100 = EDGE_CURVE ( 'NONE', #128, #128, #81, .T. ) ;
#101 = CYLINDRICAL_SURFACE ( 'NONE', #95, 1.499999999999996891 ) ;
#102 = DIRECTION ( 'NONE',  ( 4.275831445896958607E-31, 1.000000000000000000, 1.224646799147353207E-16 ) ) ;
#103 = FACE_OUTER_BOUND ( 'NONE', #71, .T. ) ;
#104 = AXIS2_PLACEMENT_3D ( 'NONE', #37, #213, #102 ) ;
#105 = CARTESIAN_POINT ( 'NONE',  ( 3.491481338843133355E-14, 1.188559627759520156E-32, 10.00000000000000000 ) ) ;
#106 = FACE_BOUND ( 'NONE', #112, .T. ) ;
#107 = DIRECTION ( 'NONE',  ( -3.491481338843133355E-15, 1.224646799147353207E-16, -1.000000000000000000 ) ) ;
#108 = AXIS2_PLACEMENT_3D ( 'NONE', #182, #21, #186 ) ;
#109 = APPROVAL_PERSON_ORGANIZATION ( #137, #242, #33 ) ;
#110 = DIRECTION ( 'NONE',  ( -3.491481338843133355E-15, 1.224646799147353207E-16, -1.000000000000000000 ) ) ;
#111 = COORDINATED_UNIVERSAL_TIME_OFFSET ( 1, 0, .AHEAD. ) ;
#112 = EDGE_LOOP ( 'NONE', ( #113 ) ) ;
#113 = ORIENTED_EDGE ( 'NONE', *, *, #204, .T. ) ;
#114 = APPROVAL_DATE_TIME ( #229, #171 ) ;
#115 = CARTESIAN_POINT ( 'NONE',  ( 3.491481338843133355E-14, 1.584999999999998632, 10.00000000000000000 ) ) ;
#116 = APPROVAL ( #11, 'UNSPECIFIED' ) ;
#117 = EDGE_LOOP ( 'NONE', ( #236 ) ) ;
#118 = MECHANICAL_CONTEXT ( 'NONE', #221, 'mechanical' ) ;
#119 = CONICAL_SURFACE ( 'NONE', #14, 1.584999999999999964, 0.5235987755983002589 ) ;
#120 = EDGE_LOOP ( 'NONE', ( #259 ) ) ;
#121 = EDGE_LOOP ( 'NONE', ( #209 ) ) ;
#122 = CC_DESIGN_PERSON_AND_ORGANIZATION_ASSIGNMENT ( #291, #282, ( #198 ) ) ;
#123 = ORIENTED_EDGE ( 'NONE', *, *, #147, .T. ) ;
#124 = DIRECTION ( 'NONE',  ( 0.0000000000000000000, 1.000000000000000000, 0.0000000000000000000 ) ) ;
#125 = CC_DESIGN_APPROVAL ( #116, ( #198 ) ) ;
#126 = EDGE_CURVE ( 'NONE', #217, #217, #156, .T. ) ;
#127 = FACE_OUTER_BOUND ( 'NONE', #47, .T. ) ;
#128 = VERTEX_POINT ( 'NONE', #86 ) ;
#129 = DIRECTION ( 'NONE',  ( -3.491481338843133355E-15, 1.224646799147353207E-16, -1.000000000000000000 ) ) ;
#130 = CARTESIAN_POINT ( 'NONE',  ( 2.444036937190193601E-13, 1.199999999999992628, 70.00000000000000000 ) ) ;
#131 = CARTESIAN_POINT ( 'NONE',  ( -5.708234980272436210E-31, 2.002179309853578647E-32, -1.634903476861715500E-16 ) ) ;
#132 = EDGE_LOOP ( 'NONE', ( #254 ) ) ;
#133 = CARTESIAN_POINT ( 'NONE',  ( 2.433562493173664138E-13, -8.535788190057053710E-15, 69.70000000000001705 ) ) ;
#134 = ADVANCED_FACE ( 'NONE', ( #301, #83 ), #222, .T. ) ;
#135 = VERTEX_POINT ( 'NONE', #115 ) ;
#136 = CALENDAR_DATE ( 2021, 2, 12 ) ;
#137 = PERSON_AND_ORGANIZATION ( #179, #82 ) ;
#138 = DATE_TIME_ROLE ( 'creation_date' ) ;
#139 = CC_DESIGN_PERSON_AND_ORGANIZATION_ASSIGNMENT ( #70, #52, ( #198 ) ) ;
#140 = DIRECTION ( 'NONE',  ( 4.275831445896958607E-31, 1.000000000000000000, 1.224646799147353207E-16 ) ) ;
#141 = DATE_AND_TIME ( #76, #245 ) ;
#142 = DIRECTION ( 'NONE',  ( 0.0000000000000000000, 0.0000000000000000000, 1.000000000000000000 ) ) ;
#143 = VERTEX_POINT ( 'NONE', #255 ) ;
#144 = EDGE_LOOP ( 'NONE', ( #57 ) ) ;
#145 = DIRECTION ( 'NONE',  ( -3.491481338843133355E-15, 1.224646799147353207E-16, -1.000000000000000000 ) ) ;
#146 = CONICAL_SURFACE ( 'NONE', #272, 1.200000000000001510, 0.7853981633974566057 ) ;
#147 = EDGE_CURVE ( 'NONE', #24, #24, #223, .T. ) ;
#148 = DIRECTION ( 'NONE',  ( -3.491481338843133355E-15, 1.224646799147353207E-16, -1.000000000000000000 ) ) ;
#149 = DIRECTION ( 'NONE',  ( 3.491481338843133355E-15, -1.224646799147353207E-16, 1.000000000000000000 ) ) ;
#150 = CARTESIAN_POINT ( 'NONE',  ( 0.0000000000000000000, 0.0000000000000000000, 0.0000000000000000000 ) ) ;
#151 = CC_DESIGN_SECURITY_CLASSIFICATION ( #289, ( #198 ) ) ;
#152 = DIRECTION ( 'NONE',  ( 0.0000000000000000000, 1.000000000000000000, 0.0000000000000000000 ) ) ;
#153 = PLANE ( 'NONE',  #177 ) ;
#154 = CARTESIAN_POINT ( 'NONE',  ( 2.444036937190193601E-13, -8.572527594031472993E-15, 70.00000000000000000 ) ) ;
#155 = CC_DESIGN_PERSON_AND_ORGANIZATION_ASSIGNMENT ( #9, #257, ( #270 ) ) ;
#156 = CIRCLE ( 'NONE', #12, 1.334999999999999076 ) ;
#157 = CIRCLE ( 'NONE', #187, 1.500000000000001110 ) ;
#158 = ORIENTED_EDGE ( 'NONE', *, *, #45, .F. ) ;
#159 = SECURITY_CLASSIFICATION_LEVEL ( 'unclassified' ) ;
#160 = EDGE_LOOP ( 'NONE', ( #54 ) ) ;
#161 = APPLICATION_PROTOCOL_DEFINITION ( 'international standard', 'config_control_design', 1994, #221 ) ;
#162 = CARTESIAN_POINT ( 'NONE',  ( 0.0000000000000000000, 0.0000000000000000000, 0.0000000000000000000 ) ) ;
#163 = ORIENTED_EDGE ( 'NONE', *, *, #100, .T. ) ;
#164 = APPROVAL_ROLE ( '' ) ;
#165 = PLANE ( 'NONE',  #104 ) ;
#166 =( NAMED_UNIT ( * ) SI_UNIT ( $, .STERADIAN. ) SOLID_ANGLE_UNIT ( ) );
#167 = ORIENTED_EDGE ( 'NONE', *, *, #273, .F. ) ;
#168 = AXIS2_PLACEMENT_3D ( 'NONE', #154, #188, #169 ) ;
#169 = DIRECTION ( 'NONE',  ( 0.0000000000000000000, 1.000000000000000000, 0.0000000000000000000 ) ) ;
#170 = DIRECTION ( 'NONE',  ( 3.491481338843133355E-15, -1.224646799147353207E-16, 1.000000000000000000 ) ) ;
#171 = APPROVAL ( #234, 'UNSPECIFIED' ) ;
#172 = DIRECTION ( 'NONE',  ( 0.0000000000000000000, 1.000000000000000000, 0.0000000000000000000 ) ) ;
#173 = FACE_OUTER_BOUND ( 'NONE', #285, .T. ) ;
#174 = UNCERTAINTY_MEASURE_WITH_UNIT (LENGTH_MEASURE( 1.000000000000000082E-05 ), #30, 'distance_accuracy_value', 'NONE');
#175 = DIRECTION ( 'NONE',  ( 0.0000000000000000000, 1.000000000000000000, 0.0000000000000000000 ) ) ;
#176 = ORIENTED_EDGE ( 'NONE', *, *, #263, .F. ) ;
#177 = AXIS2_PLACEMENT_3D ( 'NONE', #105, #149, #88 ) ;
#178 = CARTESIAN_POINT ( 'NONE',  ( 3.491481338843133355E-14, 1.584999999999998632, 10.00000000000000000 ) ) ;
#179 = PERSON ( 'UNSPECIFIED', 'UNSPECIFIED', 'UNSPECIFIED', ('UNSPECIFIED'), ('UNSPECIFIED'), ('UNSPECIFIED') ) ;
#180 = AXIS2_PLACEMENT_3D ( 'NONE', #133, #251, #152 ) ;
#181 = CALENDAR_DATE ( 2021, 2, 12 ) ;
#182 = CARTESIAN_POINT ( 'NONE',  ( 8.728703347107827472E-16, -3.061616997868381169E-17, 0.2499999999999998335 ) ) ;
#183 = MANIFOLD_SOLID_BREP ( 'Corps-Déplacer/Copier1[1]', #276 ) ;
#184 = ORIENTED_EDGE ( 'NONE', *, *, #227, .F. ) ;
#185 = AXIS2_PLACEMENT_3D ( 'NONE', #23, #19, #208 ) ;
#186 = DIRECTION ( 'NONE',  ( 4.860391026844759248E-31, 1.000000000000000000, 1.368078451085810011E-16 ) ) ;
#187 = AXIS2_PLACEMENT_3D ( 'NONE', #44, #107, #175 ) ;
#188 = DIRECTION ( 'NONE',  ( -3.491481338843133355E-15, 1.224646799147353207E-16, -1.000000000000000000 ) ) ;
#189 = DIRECTION ( 'NONE',  ( 4.275831445896958607E-31, 1.000000000000000000, 1.224646799147353454E-16 ) ) ;
#190 = ADVANCED_FACE ( 'NONE', ( #27 ), #153, .F. ) ;
#191 = VERTEX_POINT ( 'NONE', #1 ) ;
#192 = FACE_OUTER_BOUND ( 'NONE', #228, .T. ) ;
#193 = DIRECTION ( 'NONE',  ( -3.491481338843133355E-15, 1.224646799147353207E-16, -1.000000000000000000 ) ) ;
#194 = APPROVAL_DATE_TIME ( #262, #116 ) ;
#195 = DATE_TIME_ROLE ( 'classification_date' ) ;
#196 = PERSON_AND_ORGANIZATION ( #179, #82 ) ;
#197 = AXIS2_PLACEMENT_3D ( 'NONE', #206, #17, #140 ) ;
#198 = PRODUCT_DEFINITION_FORMATION_WITH_SPECIFIED_SOURCE ( 'ANY', '', #270, .NOT_KNOWN. ) ;
#199 = PERSON_AND_ORGANIZATION_ROLE ( 'creator' ) ;
#200 = PRODUCT_RELATED_PRODUCT_CATEGORY ( 'detail', '', ( #270 ) ) ;
#201 = COORDINATED_UNIVERSAL_TIME_OFFSET ( 1, 0, .AHEAD. ) ;
#202 = AXIS2_PLACEMENT_3D ( 'NONE', #275, #279, #66 ) ;
#203 = AXIS2_PLACEMENT_3D ( 'NONE', #42, #248, #247 ) ;
#204 = EDGE_CURVE ( 'NONE', #219, #219, #90, .T. ) ;
#205 = EDGE_LOOP ( 'NONE', ( #8 ) ) ;
#206 = CARTESIAN_POINT ( 'NONE',  ( 2.444036937190193601E-13, 8.998558695971026591E-33, 70.00000000000000000 ) ) ;
#207 = CARTESIAN_POINT ( 'NONE',  ( 2.444036937190193601E-13, -8.572527594031472993E-15, 70.00000000000000000 ) ) ;
#208 = DIRECTION ( 'NONE',  ( 0.0000000000000000000, 1.000000000000000000, 0.0000000000000000000 ) ) ;
#209 = ORIENTED_EDGE ( 'NONE', *, *, #263, .T. ) ;
#210 = FACE_OUTER_BOUND ( 'NONE', #16, .T. ) ;
#211 = CC_DESIGN_DATE_AND_TIME_ASSIGNMENT ( #73, #138, ( #215 ) ) ;
#212 = FACE_OUTER_BOUND ( 'NONE', #160, .T. ) ;
#213 = DIRECTION ( 'NONE',  ( -3.491481338843133355E-15, 1.224646799147353207E-16, -1.000000000000000000 ) ) ;
#214 = EDGE_LOOP ( 'NONE', ( #68 ) ) ;
#215 = PRODUCT_DEFINITION ( 'UNKNOWN', '', #198, #249 ) ;
#216 = CIRCLE ( 'NONE', #168, 1.200000000000001510 ) ;
#217 = VERTEX_POINT ( 'NONE', #43 ) ;
#218 = DIRECTION ( 'NONE',  ( -4.275831445896958607E-31, -1.000000000000000000, -1.224646799147353207E-16 ) ) ;
#219 = VERTEX_POINT ( 'NONE', #32 ) ;
#220 = CC_DESIGN_PERSON_AND_ORGANIZATION_ASSIGNMENT ( #53, #199, ( #215 ) ) ;
#221 = APPLICATION_CONTEXT ( 'configuration controlled 3d designs of mechanical parts and assemblies' ) ;
#222 = CYLINDRICAL_SURFACE ( 'NONE', #93, 1.499999999999996891 ) ;
#223 = CIRCLE ( 'NONE', #271, 1.200000000000001510 ) ;
#224 = AXIS2_PLACEMENT_3D ( 'NONE', #89, #302, #85 ) ;
#225 = CARTESIAN_POINT ( 'NONE',  ( 3.542884434959854715E-14, -1.242676578205678219E-15, 10.14722431864336727 ) ) ;
#226 = ORIENTED_EDGE ( 'NONE', *, *, #273, .T. ) ;
#227 = EDGE_CURVE ( 'NONE', #7, #7, #157, .T. ) ;
#228 = EDGE_LOOP ( 'NONE', ( #167 ) ) ;
#229 = DATE_AND_TIME ( #136, #75 ) ;
#230 = AXIS2_PLACEMENT_3D ( 'NONE', #246, #46, #172 ) ;
#231 = APPROVAL_STATUS ( 'not_yet_approved' ) ;
#232 = EDGE_LOOP ( 'NONE', ( #59 ) ) ;
#233 = FACE_OUTER_BOUND ( 'NONE', #232, .T. ) ;
#234 = APPROVAL_STATUS ( 'not_yet_approved' ) ;
#235 = ADVANCED_FACE ( 'NONE', ( #278, #192 ), #119, .T. ) ;
#236 = ORIENTED_EDGE ( 'NONE', *, *, #204, .F. ) ;
#237 = CLOSED_SHELL ( 'NONE', ( #235, #84, #256, #91, #18, #29, #41 ) ) ;
#238 = PERSON_AND_ORGANIZATION ( #179, #82 ) ;
#239 = DIRECTION ( 'NONE',  ( -3.491481338843133355E-15, 1.224646799147353207E-16, -1.000000000000000000 ) ) ;
#240 = CIRCLE ( 'NONE', #108, 1.584999999999999964 ) ;
#241 = LOCAL_TIME ( 10, 35, 21.00000000000000000, #94 ) ;
#242 = APPROVAL ( #231, 'UNSPECIFIED' ) ;
#243 = CARTESIAN_POINT ( 'NONE',  ( 2.444036937190193601E-13, -8.572527594031472993E-15, 70.00000000000000000 ) ) ;
#244 = AXIS2_PLACEMENT_3D ( 'NONE', #22, #148, #39 ) ;
#245 = LOCAL_TIME ( 10, 35, 21.00000000000000000, #72 ) ;
#246 = CARTESIAN_POINT ( 'NONE',  ( 3.491481338843133355E-14, -1.224646799147353256E-15, 10.00000000000000000 ) ) ;
#247 = DIRECTION ( 'NONE',  ( 0.0000000000000000000, 1.000000000000000000, 0.0000000000000000000 ) ) ;
#248 = DIRECTION ( 'NONE',  ( -3.491481338843133355E-15, 1.224646799147353207E-16, -1.000000000000000000 ) ) ;
#249 = DESIGN_CONTEXT ( 'detailed design', #253, 'design' ) ;
#250 = EDGE_LOOP ( 'NONE', ( #226 ) ) ;
#251 = DIRECTION ( 'NONE',  ( -3.491481338843133355E-15, 1.224646799147353207E-16, -1.000000000000000000 ) ) ;
#252 = APPROVAL_PERSON_ORGANIZATION ( #196, #171, #50 ) ;
#253 = APPLICATION_CONTEXT ( 'configuration controlled 3d designs of mechanical parts and assemblies' ) ;
#254 = ORIENTED_EDGE ( 'NONE', *, *, #45, .T. ) ;
#255 = CARTESIAN_POINT ( 'NONE',  ( 2.444036937190193601E-13, 1.199999999999992628, 70.00000000000000000 ) ) ;
#256 = ADVANCED_FACE ( 'NONE', ( #103, #4 ), #277, .T. ) ;
#257 = PERSON_AND_ORGANIZATION_ROLE ( 'design_owner' ) ;
#258 = DATE_AND_TIME ( #36, #20 ) ;
#259 = ORIENTED_EDGE ( 'NONE', *, *, #227, .T. ) ;
#260 = CALENDAR_DATE ( 2021, 2, 12 ) ;
#261 = CC_DESIGN_APPROVAL ( #171, ( #215 ) ) ;
#262 = DATE_AND_TIME ( #181, #241 ) ;
#263 = EDGE_CURVE ( 'NONE', #135, #135, #283, .T. ) ;
#264 = COORDINATED_UNIVERSAL_TIME_OFFSET ( 1, 0, .AHEAD. ) ;
#265 = APPLICATION_PROTOCOL_DEFINITION ( 'international standard', 'config_control_design', 1994, #253 ) ;
#266 = FACE_OUTER_BOUND ( 'NONE', #98, .T. ) ;
#267 = LOCAL_TIME ( 10, 35, 21.00000000000000000, #111 ) ;
#268 = CC_DESIGN_DATE_AND_TIME_ASSIGNMENT ( #258, #195, ( #289 ) ) ;
#269 = FACE_BOUND ( 'NONE', #99, .T. ) ;
#270 = PRODUCT ( '321543', '321543', '', ( #118 ) ) ;
#271 = AXIS2_PLACEMENT_3D ( 'NONE', #243, #25, #28 ) ;
#272 = AXIS2_PLACEMENT_3D ( 'NONE', #207, #297, #80 ) ;
#273 = EDGE_CURVE ( 'NONE', #6, #6, #38, .T. ) ;
#274 = VERTEX_POINT ( 'NONE', #63 ) ;
#275 = CARTESIAN_POINT ( 'NONE',  ( -2.854117490136218105E-31, 1.001089654926789324E-32, -8.174517384308577499E-17 ) ) ;
#276 = CLOSED_SHELL ( 'NONE', ( #190, #284, #134, #34, #5 ) ) ;
#277 = CONICAL_SURFACE ( 'NONE', #96, 1.334999999999999076, 0.7853981633974500554 ) ;
#278 = FACE_BOUND ( 'NONE', #132, .T. ) ;
#279 = DIRECTION ( 'NONE',  ( -3.491481338843133355E-15, 1.224646799147353207E-16, -1.000000000000000000 ) ) ;
#280 = CARTESIAN_POINT ( 'NONE',  ( -5.708234980272436210E-31, 2.002179309853578647E-32, -1.634903476861715500E-16 ) ) ;
#281 = EDGE_LOOP ( 'NONE', ( #163 ) ) ;
#282 = PERSON_AND_ORGANIZATION_ROLE ( 'design_supplier' ) ;
#283 = CIRCLE ( 'NONE', #230, 1.584999999999999964 ) ;
#284 = ADVANCED_FACE ( 'NONE', ( #106, #173 ), #56, .T. ) ;
#285 = EDGE_LOOP ( 'NONE', ( #176 ) ) ;
#286 = DIRECTION ( 'NONE',  ( 1.000000000000000000, 0.0000000000000000000, 0.0000000000000000000 ) ) ;
#287 = PLANE ( 'NONE',  #197 ) ;
#288 =( NAMED_UNIT ( * ) PLANE_ANGLE_UNIT ( ) SI_UNIT ( $, .RADIAN. ) );
#289 = SECURITY_CLASSIFICATION ( '', '', #159 ) ;
#290 = SHAPE_DEFINITION_REPRESENTATION ( #35, #303 ) ;
#291 = PERSON_AND_ORGANIZATION ( #179, #82 ) ;
#292 = FACE_OUTER_BOUND ( 'NONE', #250, .T. ) ;
#293 = ORIENTED_EDGE ( 'NONE', *, *, #295, .T. ) ;
#294 = CARTESIAN_POINT ( 'NONE',  ( 0.0000000000000000000, 0.0000000000000000000, 0.0000000000000000000 ) ) ;
#295 = EDGE_CURVE ( 'NONE', #143, #143, #216, .T. ) ;
#296 = CC_DESIGN_APPROVAL ( #242, ( #289 ) ) ;
#297 = DIRECTION ( 'NONE',  ( -3.491481338843133355E-15, 1.224646799147353207E-16, -1.000000000000000000 ) ) ;
#298 = CYLINDRICAL_SURFACE ( 'NONE', #244, 1.584999999999999964 ) ;
#299 = FACE_BOUND ( 'NONE', #97, .T. ) ;
#300 = CIRCLE ( 'NONE', #78, 1.499999999999992895 ) ;
#301 = FACE_OUTER_BOUND ( 'NONE', #117, .T. ) ;
#302 = DIRECTION ( 'NONE',  ( -3.491481338843133355E-15, 1.224646799147353207E-16, -1.000000000000000000 ) ) ;
#303 = ADVANCED_BREP_SHAPE_REPRESENTATION ( '321543', ( #183, #2, #87 ), #13 ) ;
ENDSEC;
END-ISO-10303-21;
