ISO-10303-21;
HEADER;
FILE_DESCRIPTION (( 'STEP AP203' ),
    '1' );
FILE_NAME ('321542.step',
    '2021-12-02T09:35:20',
    ( '' ),
    ( '' ),
    'SwSTEP 2.0',
    'SolidWorks 2019',
    '' );
FILE_SCHEMA (( 'CONFIG_CONTROL_DESIGN' ));
ENDSEC;

DATA;
#1 = CARTESIAN_POINT ( 'NONE',  ( 3.491481338843133355E-14, 1.579999999999998739, 10.00000000000000000 ) ) ;
#2 = CC_DESIGN_PERSON_AND_ORGANIZATION_ASSIGNMENT ( #159, #257, ( #262 ) ) ;
#3 = AXIS2_PLACEMENT_3D ( 'NONE', #34, #52, #212 ) ;
#4 = CC_DESIGN_APPROVAL ( #167, ( #289 ) ) ;
#5 = PERSON_AND_ORGANIZATION_ROLE ( 'creator' ) ;
#6 = ORIENTED_EDGE ( 'NONE', *, *, #264, .T. ) ;
#7 = DATE_AND_TIME ( #109, #91 ) ;
#8 = FACE_BOUND ( 'NONE', #32, .T. ) ;
#9 = CARTESIAN_POINT ( 'NONE',  ( -2.843427911521475748E-31, 9.973402554701346524E-33, -8.143901214329893121E-17 ) ) ;
#10 = EDGE_CURVE ( 'NONE', #20, #20, #110, .T. ) ;
#11 = CARTESIAN_POINT ( 'NONE',  ( 3.491481338843133355E-14, -1.224646799147353256E-15, 10.00000000000000000 ) ) ;
#12 = PLANE ( 'NONE',  #80 ) ;
#13 = DIRECTION ( 'NONE',  ( -3.491481338843133355E-15, 1.224646799147353207E-16, -1.000000000000000000 ) ) ;
#14 = AXIS2_PLACEMENT_3D ( 'NONE', #243, #36, #288 ) ;
#15 = DIRECTION ( 'NONE',  ( 0.0000000000000000000, 1.000000000000000000, 0.0000000000000000000 ) ) ;
#16 = PLANE ( 'NONE',  #270 ) ;
#17 = FACE_OUTER_BOUND ( 'NONE', #282, .T. ) ;
#18 = ADVANCED_FACE ( 'NONE', ( #245 ), #12, .T. ) ;
#19 = AXIS2_PLACEMENT_3D ( 'NONE', #54, #56, #286 ) ;
#20 = VERTEX_POINT ( 'NONE', #299 ) ;
#21 = DIRECTION ( 'NONE',  ( -3.491481338843133355E-15, 1.224646799147353207E-16, -1.000000000000000000 ) ) ;
#22 = ADVANCED_FACE ( 'NONE', ( #287, #95 ), #116, .T. ) ;
#23 = DIRECTION ( 'NONE',  ( -3.491481338843133355E-15, 1.224646799147353207E-16, -1.000000000000000000 ) ) ;
#24 = MECHANICAL_CONTEXT ( 'NONE', #59, 'mechanical' ) ;
#25 = ORIENTED_EDGE ( 'NONE', *, *, #96, .F. ) ;
#26 = VERTEX_POINT ( 'NONE', #161 ) ;
#27 = APPLICATION_PROTOCOL_DEFINITION ( 'international standard', 'config_control_design', 1994, #59 ) ;
#28 = ORIENTED_EDGE ( 'NONE', *, *, #174, .T. ) ;
#29 = CARTESIAN_POINT ( 'NONE',  ( 2.444036937190193601E-13, -8.572527594031472993E-15, 70.00000000000000000 ) ) ;
#30 = DATE_AND_TIME ( #208, #146 ) ;
#31 = APPROVAL ( #72, 'UNSPECIFIED' ) ;
#32 = EDGE_LOOP ( 'NONE', ( #6 ) ) ;
#33 = FACE_OUTER_BOUND ( 'NONE', #133, .T. ) ;
#34 = CARTESIAN_POINT ( 'NONE',  ( 2.444036937190193601E-13, -8.572527594031472993E-15, 70.00000000000000000 ) ) ;
#35 = COORDINATED_UNIVERSAL_TIME_OFFSET ( 1, 0, .AHEAD. ) ;
#36 = DIRECTION ( 'NONE',  ( -3.491481338843133355E-15, 1.224646799147353207E-16, -1.000000000000000000 ) ) ;
#37 = CYLINDRICAL_SURFACE ( 'NONE', #87, 1.499999999999996891 ) ;
#38 = DIRECTION ( 'NONE',  ( -3.491481338843133355E-15, 1.224646799147353207E-16, -1.000000000000000000 ) ) ;
#39 = PRODUCT_DEFINITION_SHAPE ( 'NONE', 'NONE',  #181 ) ;
#40 = CC_DESIGN_SECURITY_CLASSIFICATION ( #262, ( #289 ) ) ;
#41 = CARTESIAN_POINT ( 'NONE',  ( 0.0000000000000000000, 1.329999999999999183, 0.0000000000000000000 ) ) ;
#42 = DATE_AND_TIME ( #303, #266 ) ;
#43 = ADVANCED_FACE ( 'NONE', ( #75, #122 ), #250, .T. ) ;
#44 = EDGE_LOOP ( 'NONE', ( #273 ) ) ;
#45 = COORDINATED_UNIVERSAL_TIME_OFFSET ( 1, 0, .AHEAD. ) ;
#46 =( NAMED_UNIT ( * ) SI_UNIT ( $, .STERADIAN. ) SOLID_ANGLE_UNIT ( ) );
#47 = ORIENTED_EDGE ( 'NONE', *, *, #96, .T. ) ;
#48 = COORDINATED_UNIVERSAL_TIME_OFFSET ( 1, 0, .AHEAD. ) ;
#49 = ADVANCED_FACE ( 'NONE', ( #55, #285 ), #84, .T. ) ;
#50 = EDGE_LOOP ( 'NONE', ( #231 ) ) ;
#51 = DIRECTION ( 'NONE',  ( 0.0000000000000000000, 1.000000000000000000, 0.0000000000000000000 ) ) ;
#52 = DIRECTION ( 'NONE',  ( -3.491481338843133355E-15, 1.224646799147353207E-16, -1.000000000000000000 ) ) ;
#53 = CC_DESIGN_PERSON_AND_ORGANIZATION_ASSIGNMENT ( #204, #90, ( #289 ) ) ;
#54 = CARTESIAN_POINT ( 'NONE',  ( 0.0000000000000000000, 0.0000000000000000000, 0.0000000000000000000 ) ) ;
#55 = FACE_OUTER_BOUND ( 'NONE', #50, .T. ) ;
#56 = DIRECTION ( 'NONE',  ( -3.491481338843133355E-15, 1.224646799147353207E-16, -1.000000000000000000 ) ) ;
#57 = CARTESIAN_POINT ( 'NONE',  ( 2.433562493173664138E-13, 1.499999999999992673, 69.70000000000001705 ) ) ;
#58 = AXIS2_PLACEMENT_3D ( 'NONE', #62, #127, #15 ) ;
#59 = APPLICATION_CONTEXT ( 'configuration controlled 3d designs of mechanical parts and assemblies' ) ;
#60 = DIRECTION ( 'NONE',  ( -4.275831445896958607E-31, -1.000000000000000000, -1.224646799147353207E-16 ) ) ;
#61 = VERTEX_POINT ( 'NONE', #130 ) ;
#62 = CARTESIAN_POINT ( 'NONE',  ( 3.539860723423576580E-14, -1.241616002966953175E-15, 10.13856406460552151 ) ) ;
#63 = CYLINDRICAL_SURFACE ( 'NONE', #100, 1.499999999999996891 ) ;
#64 = EDGE_CURVE ( 'NONE', #292, #292, #272, .T. ) ;
#65 = AXIS2_PLACEMENT_3D ( 'NONE', #144, #97, #77 ) ;
#66 = CIRCLE ( 'NONE', #183, 1.200000000000001510 ) ;
#67 = DIRECTION ( 'NONE',  ( 4.275831445896958607E-31, 1.000000000000000000, 1.224646799147353454E-16 ) ) ;
#68 = EDGE_CURVE ( 'NONE', #132, #132, #233, .T. ) ;
#69 = ORIENTED_EDGE ( 'NONE', *, *, #10, .F. ) ;
#70 = VERTEX_POINT ( 'NONE', #1 ) ;
#71 = EDGE_LOOP ( 'NONE', ( #124 ) ) ;
#72 = APPROVAL_STATUS ( 'not_yet_approved' ) ;
#73 = FACE_OUTER_BOUND ( 'NONE', #71, .T. ) ;
#74 = PERSON_AND_ORGANIZATION_ROLE ( 'design_owner' ) ;
#75 = FACE_BOUND ( 'NONE', #207, .T. ) ;
#76 = DIRECTION ( 'NONE',  ( 4.275831445896958607E-31, 1.000000000000000000, 1.224646799147353207E-16 ) ) ;
#77 = DIRECTION ( 'NONE',  ( -4.275831445896958607E-31, -1.000000000000000000, -1.224646799147353207E-16 ) ) ;
#78 = ADVANCED_BREP_SHAPE_REPRESENTATION ( '321542', ( #196, #298, #134 ), #165 ) ;
#79 = FACE_OUTER_BOUND ( 'NONE', #89, .T. ) ;
#80 = AXIS2_PLACEMENT_3D ( 'NONE', #9, #141, #119 ) ;
#81 = APPROVAL_PERSON_ORGANIZATION ( #281, #31, #182 ) ;
#82 = DIRECTION ( 'NONE',  ( 0.0000000000000000000, 1.000000000000000000, 0.0000000000000000000 ) ) ;
#83 = CC_DESIGN_PERSON_AND_ORGANIZATION_ASSIGNMENT ( #136, #74, ( #126 ) ) ;
#84 = CONICAL_SURFACE ( 'NONE', #65, 1.329999999999999183, 0.7853981633974500554 ) ;
#85 = LOCAL_TIME ( 10, 35, 20.00000000000000000, #184 ) ;
#86 = DIRECTION ( 'NONE',  ( -3.491481338843133355E-15, 1.224646799147353207E-16, -1.000000000000000000 ) ) ;
#87 = AXIS2_PLACEMENT_3D ( 'NONE', #215, #13, #186 ) ;
#88 =( LENGTH_UNIT ( ) NAMED_UNIT ( * ) SI_UNIT ( .MILLI., .METRE. ) );
#89 = EDGE_LOOP ( 'NONE', ( #28 ) ) ;
#90 = PERSON_AND_ORGANIZATION_ROLE ( 'design_supplier' ) ;
#91 = LOCAL_TIME ( 10, 35, 20.00000000000000000, #232 ) ;
#92 =( NAMED_UNIT ( * ) PLANE_ANGLE_UNIT ( ) SI_UNIT ( $, .RADIAN. ) );
#93 = DIRECTION ( 'NONE',  ( 0.0000000000000000000, 1.000000000000000000, 0.0000000000000000000 ) ) ;
#94 = CIRCLE ( 'NONE', #284, 1.580000000000000071 ) ;
#95 = FACE_OUTER_BOUND ( 'NONE', #256, .T. ) ;
#96 = EDGE_CURVE ( 'NONE', #61, #61, #99, .T. ) ;
#97 = DIRECTION ( 'NONE',  ( 3.491481338843133355E-15, -1.224646799147353207E-16, 1.000000000000000000 ) ) ;
#98 = DIRECTION ( 'NONE',  ( -3.491481338843133355E-15, 1.224646799147353207E-16, -1.000000000000000000 ) ) ;
#99 = CIRCLE ( 'NONE', #14, 1.499999999999992895 ) ;
#100 = AXIS2_PLACEMENT_3D ( 'NONE', #153, #21, #67 ) ;
#101 = FACE_OUTER_BOUND ( 'NONE', #265, .T. ) ;
#102 = CARTESIAN_POINT ( 'NONE',  ( 3.491481338843133355E-14, 1.184810228302865622E-32, 10.00000000000000000 ) ) ;
#103 = PLANE ( 'NONE',  #176 ) ;
#104 = CC_DESIGN_APPROVAL ( #192, ( #262 ) ) ;
#105 = CC_DESIGN_PERSON_AND_ORGANIZATION_ASSIGNMENT ( #142, #5, ( #181 ) ) ;
#106 = VERTEX_POINT ( 'NONE', #220 ) ;
#107 = DIRECTION ( 'NONE',  ( 0.0000000000000000000, 1.000000000000000000, 0.0000000000000000000 ) ) ;
#108 = EDGE_LOOP ( 'NONE', ( #205 ) ) ;
#109 = CALENDAR_DATE ( 2021, 2, 12 ) ;
#110 = CIRCLE ( 'NONE', #3, 1.200000000000001510 ) ;
#111 = PERSON_AND_ORGANIZATION_ROLE ( 'creator' ) ;
#112 = CC_DESIGN_PERSON_AND_ORGANIZATION_ASSIGNMENT ( #228, #111, ( #289 ) ) ;
#113 = EDGE_LOOP ( 'NONE', ( #191 ) ) ;
#114 = DATE_TIME_ROLE ( 'classification_date' ) ;
#115 = APPROVAL_DATE_TIME ( #7, #31 ) ;
#116 = CONICAL_SURFACE ( 'NONE', #154, 1.580000000000000071, 0.5235987755983027014 ) ;
#117 = ADVANCED_FACE ( 'NONE', ( #73, #79 ), #37, .T. ) ;
#118 = DIRECTION ( 'NONE',  ( -3.491481338843133355E-15, 1.224646799147353207E-16, -1.000000000000000000 ) ) ;
#119 = DIRECTION ( 'NONE',  ( 4.275831445896958607E-31, 1.000000000000000000, 1.224646799147353207E-16 ) ) ;
#120 = SHAPE_DEFINITION_REPRESENTATION ( #39, #78 ) ;
#121 = EDGE_CURVE ( 'NONE', #223, #223, #254, .T. ) ;
#122 = FACE_OUTER_BOUND ( 'NONE', #113, .T. ) ;
#123 = APPLICATION_CONTEXT ( 'configuration controlled 3d designs of mechanical parts and assemblies' ) ;
#124 = ORIENTED_EDGE ( 'NONE', *, *, #177, .F. ) ;
#125 = CARTESIAN_POINT ( 'NONE',  ( 3.491481338843133355E-14, -1.224646799147353256E-15, 10.00000000000000000 ) ) ;
#126 = PRODUCT ( '321542', '321542', '', ( #24 ) ) ;
#127 = DIRECTION ( 'NONE',  ( -3.491481338843133355E-15, 1.224646799147353207E-16, -1.000000000000000000 ) ) ;
#128 = DIRECTION ( 'NONE',  ( 3.491481338843133355E-15, -1.224646799147353207E-16, 1.000000000000000000 ) ) ;
#129 = FACE_OUTER_BOUND ( 'NONE', #201, .T. ) ;
#130 = CARTESIAN_POINT ( 'NONE',  ( 3.539860723423576580E-14, 1.499999999999991562, 10.13856406460552151 ) ) ;
#131 = FACE_OUTER_BOUND ( 'NONE', #44, .T. ) ;
#132 = VERTEX_POINT ( 'NONE', #290 ) ;
#133 = EDGE_LOOP ( 'NONE', ( #179 ) ) ;
#134 = AXIS2_PLACEMENT_3D ( 'NONE', #206, #163, #274 ) ;
#135 = CALENDAR_DATE ( 2021, 2, 12 ) ;
#136 = PERSON_AND_ORGANIZATION ( #239, #255 ) ;
#137 = PRODUCT_RELATED_PRODUCT_CATEGORY ( 'detail', '', ( #126 ) ) ;
#138 = CARTESIAN_POINT ( 'NONE',  ( 2.444036937190193601E-13, 1.199999999999992628, 70.00000000000000000 ) ) ;
#139 = AXIS2_PLACEMENT_3D ( 'NONE', #296, #224, #248 ) ;
#140 = CIRCLE ( 'NONE', #295, 1.580000000000000071 ) ;
#141 = DIRECTION ( 'NONE',  ( -3.491481338843133355E-15, 1.224646799147353207E-16, -1.000000000000000000 ) ) ;
#142 = PERSON_AND_ORGANIZATION ( #239, #255 ) ;
#143 = ORIENTED_EDGE ( 'NONE', *, *, #301, .T. ) ;
#144 = CARTESIAN_POINT ( 'NONE',  ( -5.686855823042951496E-31, 1.994680510940269305E-32, -1.628780242865978624E-16 ) ) ;
#145 = APPROVAL_DATE_TIME ( #30, #192 ) ;
#146 = LOCAL_TIME ( 10, 35, 20.00000000000000000, #35 ) ;
#147 = DIRECTION ( 'NONE',  ( 0.0000000000000000000, 1.000000000000000000, 0.0000000000000000000 ) ) ;
#148 = CARTESIAN_POINT ( 'NONE',  ( 8.728703347107827472E-16, -3.061616997868381169E-17, 0.2499999999999998335 ) ) ;
#149 = CARTESIAN_POINT ( 'NONE',  ( 3.491481338843133355E-14, -1.224646799147353256E-15, 10.00000000000000000 ) ) ;
#150 = ADVANCED_FACE ( 'NONE', ( #236, #8 ), #198, .T. ) ;
#151 = PERSON_AND_ORGANIZATION ( #239, #255 ) ;
#152 = DIRECTION ( 'NONE',  ( -3.491481338843133355E-15, 1.224646799147353207E-16, -1.000000000000000000 ) ) ;
#153 = CARTESIAN_POINT ( 'NONE',  ( 0.0000000000000000000, 0.0000000000000000000, 0.0000000000000000000 ) ) ;
#154 = AXIS2_PLACEMENT_3D ( 'NONE', #11, #190, #193 ) ;
#155 = CARTESIAN_POINT ( 'NONE',  ( 3.491481338843133355E-14, -1.224646799147353256E-15, 10.00000000000000000 ) ) ;
#156 = ORIENTED_EDGE ( 'NONE', *, *, #177, .T. ) ;
#157 = APPLICATION_PROTOCOL_DEFINITION ( 'international standard', 'config_control_design', 1994, #123 ) ;
#158 = EDGE_LOOP ( 'NONE', ( #276 ) ) ;
#159 = PERSON_AND_ORGANIZATION ( #239, #255 ) ;
#160 = APPROVAL_PERSON_ORGANIZATION ( #237, #167, #253 ) ;
#161 = CARTESIAN_POINT ( 'NONE',  ( 8.728703347107835360E-16, 1.580000000000000071, 0.2500000000000000555 ) ) ;
#162 = CARTESIAN_POINT ( 'NONE',  ( 2.433562493173664138E-13, -8.535788190057053710E-15, 69.70000000000001705 ) ) ;
#163 = DIRECTION ( 'NONE',  ( 0.0000000000000000000, 0.0000000000000000000, 1.000000000000000000 ) ) ;
#164 = AXIS2_PLACEMENT_3D ( 'NONE', #162, #260, #93 ) ;
#165 =( GEOMETRIC_REPRESENTATION_CONTEXT ( 3 ) GLOBAL_UNCERTAINTY_ASSIGNED_CONTEXT ( ( #185 ) ) GLOBAL_UNIT_ASSIGNED_CONTEXT ( ( #88, #92, #46 ) ) REPRESENTATION_CONTEXT ( 'NONE', 'WORKASPACE' ) );
#166 = DIRECTION ( 'NONE',  ( -3.491481338843133355E-15, 1.224646799147353207E-16, -1.000000000000000000 ) ) ;
#167 = APPROVAL ( #280, 'UNSPECIFIED' ) ;
#168 = EDGE_LOOP ( 'NONE', ( #238 ) ) ;
#169 = DIRECTION ( 'NONE',  ( -3.491481338843133355E-15, 1.224646799147353207E-16, -1.000000000000000000 ) ) ;
#170 = LOCAL_TIME ( 10, 35, 20.00000000000000000, #45 ) ;
#171 = CARTESIAN_POINT ( 'NONE',  ( -5.686855823042951496E-31, 1.994680510940269305E-32, -1.628780242865978624E-16 ) ) ;
#172 = CYLINDRICAL_SURFACE ( 'NONE', #19, 1.580000000000000071 ) ;
#173 = APPROVAL_STATUS ( 'not_yet_approved' ) ;
#174 = EDGE_CURVE ( 'NONE', #106, #106, #293, .T. ) ;
#175 = DIRECTION ( 'NONE',  ( -3.491481338843133355E-15, 1.224646799147353207E-16, -1.000000000000000000 ) ) ;
#176 = AXIS2_PLACEMENT_3D ( 'NONE', #102, #128, #60 ) ;
#177 = EDGE_CURVE ( 'NONE', #199, #199, #189, .T. ) ;
#178 = ORIENTED_EDGE ( 'NONE', *, *, #10, .T. ) ;
#179 = ORIENTED_EDGE ( 'NONE', *, *, #241, .F. ) ;
#180 = SECURITY_CLASSIFICATION_LEVEL ( 'unclassified' ) ;
#181 = PRODUCT_DEFINITION ( 'UNKNOWN', '', #289, #230 ) ;
#182 = APPROVAL_ROLE ( '' ) ;
#183 = AXIS2_PLACEMENT_3D ( 'NONE', #271, #23, #82 ) ;
#184 = COORDINATED_UNIVERSAL_TIME_OFFSET ( 1, 0, .AHEAD. ) ;
#185 = UNCERTAINTY_MEASURE_WITH_UNIT (LENGTH_MEASURE( 1.000000000000000082E-05 ), #88, 'distance_accuracy_value', 'NONE');
#186 = DIRECTION ( 'NONE',  ( 4.275831445896958607E-31, 1.000000000000000000, 1.224646799147353454E-16 ) ) ;
#187 = DATE_AND_TIME ( #277, #85 ) ;
#188 = DIRECTION ( 'NONE',  ( 0.0000000000000000000, 1.000000000000000000, 0.0000000000000000000 ) ) ;
#189 = CIRCLE ( 'NONE', #58, 1.499999999999992895 ) ;
#190 = DIRECTION ( 'NONE',  ( -3.491481338843133355E-15, 1.224646799147353207E-16, -1.000000000000000000 ) ) ;
#191 = ORIENTED_EDGE ( 'NONE', *, *, #301, .F. ) ;
#192 = APPROVAL ( #173, 'UNSPECIFIED' ) ;
#193 = DIRECTION ( 'NONE',  ( 0.0000000000000000000, 1.000000000000000000, 0.0000000000000000000 ) ) ;
#194 = AXIS2_PLACEMENT_3D ( 'NONE', #125, #166, #51 ) ;
#195 = FACE_OUTER_BOUND ( 'NONE', #240, .T. ) ;
#196 = MANIFOLD_SOLID_BREP ( 'Corps-Déplacer/Copier1[1]', #278 ) ;
#197 = FACE_BOUND ( 'NONE', #252, .T. ) ;
#198 = CONICAL_SURFACE ( 'NONE', #234, 1.200000000000001510, 0.7853981633974566057 ) ;
#199 = VERTEX_POINT ( 'NONE', #297 ) ;
#200 = ADVANCED_FACE ( 'NONE', ( #101 ), #103, .F. ) ;
#201 = EDGE_LOOP ( 'NONE', ( #302 ) ) ;
#202 = APPROVAL_DATE_TIME ( #42, #167 ) ;
#203 = ORIENTED_EDGE ( 'NONE', *, *, #64, .F. ) ;
#204 = PERSON_AND_ORGANIZATION ( #239, #255 ) ;
#205 = ORIENTED_EDGE ( 'NONE', *, *, #68, .T. ) ;
#206 = CARTESIAN_POINT ( 'NONE',  ( 0.0000000000000000000, 0.0000000000000000000, 0.0000000000000000000 ) ) ;
#207 = EDGE_LOOP ( 'NONE', ( #156 ) ) ;
#208 = CALENDAR_DATE ( 2021, 2, 12 ) ;
#209 = ORIENTED_EDGE ( 'NONE', *, *, #264, .F. ) ;
#210 = AXIS2_PLACEMENT_3D ( 'NONE', #149, #98, #147 ) ;
#211 = AXIS2_PLACEMENT_3D ( 'NONE', #283, #246, #217 ) ;
#212 = DIRECTION ( 'NONE',  ( 0.0000000000000000000, 1.000000000000000000, 0.0000000000000000000 ) ) ;
#213 = ADVANCED_FACE ( 'NONE', ( #129, #197 ), #242, .T. ) ;
#214 = EDGE_LOOP ( 'NONE', ( #47 ) ) ;
#215 = CARTESIAN_POINT ( 'NONE',  ( 0.0000000000000000000, 0.0000000000000000000, 0.0000000000000000000 ) ) ;
#216 = AXIS2_PLACEMENT_3D ( 'NONE', #291, #175, #222 ) ;
#217 = DIRECTION ( 'NONE',  ( 0.0000000000000000000, 1.000000000000000000, 0.0000000000000000000 ) ) ;
#218 = DIRECTION ( 'NONE',  ( 4.875772011106925700E-31, 1.000000000000000000, 1.372407813272790279E-16 ) ) ;
#219 = CC_DESIGN_DATE_AND_TIME_ASSIGNMENT ( #187, #261, ( #181 ) ) ;
#220 = CARTESIAN_POINT ( 'NONE',  ( 2.433562493173664138E-13, 1.499999999999992673, 69.70000000000001705 ) ) ;
#221 = DIRECTION ( 'NONE',  ( 4.275831445896958607E-31, 1.000000000000000000, 1.224646799147353207E-16 ) ) ;
#222 = DIRECTION ( 'NONE',  ( 0.0000000000000000000, 1.000000000000000000, 0.0000000000000000000 ) ) ;
#223 = VERTEX_POINT ( 'NONE', #57 ) ;
#224 = DIRECTION ( 'NONE',  ( -3.491481338843133355E-15, 1.224646799147353207E-16, -1.000000000000000000 ) ) ;
#225 = CARTESIAN_POINT ( 'NONE',  ( 2.444036937190193601E-13, -8.572527594031472993E-15, 70.00000000000000000 ) ) ;
#226 = FACE_OUTER_BOUND ( 'NONE', #108, .T. ) ;
#227 = EDGE_LOOP ( 'NONE', ( #203 ) ) ;
#228 = PERSON_AND_ORGANIZATION ( #239, #255 ) ;
#229 = DATE_AND_TIME ( #135, #170 ) ;
#230 = DESIGN_CONTEXT ( 'detailed design', #123, 'design' ) ;
#231 = ORIENTED_EDGE ( 'NONE', *, *, #241, .T. ) ;
#232 = COORDINATED_UNIVERSAL_TIME_OFFSET ( 1, 0, .AHEAD. ) ;
#233 = CIRCLE ( 'NONE', #210, 1.580000000000000071 ) ;
#234 = AXIS2_PLACEMENT_3D ( 'NONE', #29, #118, #188 ) ;
#235 = ADVANCED_FACE ( 'NONE', ( #226, #33 ), #172, .T. ) ;
#236 = FACE_OUTER_BOUND ( 'NONE', #168, .T. ) ;
#237 = PERSON_AND_ORGANIZATION ( #239, #255 ) ;
#238 = ORIENTED_EDGE ( 'NONE', *, *, #174, .F. ) ;
#239 = PERSON ( 'UNSPECIFIED', 'UNSPECIFIED', 'UNSPECIFIED', ('UNSPECIFIED'), ('UNSPECIFIED'), ('UNSPECIFIED') ) ;
#240 = EDGE_LOOP ( 'NONE', ( #209 ) ) ;
#241 = EDGE_CURVE ( 'NONE', #26, #26, #94, .T. ) ;
#242 = CONICAL_SURFACE ( 'NONE', #216, 1.200000000000001510, 0.7853981633974566057 ) ;
#243 = CARTESIAN_POINT ( 'NONE',  ( 3.539860723423576580E-14, -1.241616002966953175E-15, 10.13856406460552151 ) ) ;
#244 = FACE_OUTER_BOUND ( 'NONE', #267, .T. ) ;
#245 = FACE_OUTER_BOUND ( 'NONE', #158, .T. ) ;
#246 = DIRECTION ( 'NONE',  ( -3.491481338843133355E-15, 1.224646799147353207E-16, -1.000000000000000000 ) ) ;
#247 = CLOSED_SHELL ( 'NONE', ( #22, #235, #49, #18, #259, #213, #294 ) ) ;
#248 = DIRECTION ( 'NONE',  ( 4.275831445896958607E-31, 1.000000000000000000, 1.224646799147353207E-16 ) ) ;
#249 = CC_DESIGN_DATE_AND_TIME_ASSIGNMENT ( #229, #114, ( #262 ) ) ;
#250 = CONICAL_SURFACE ( 'NONE', #194, 1.580000000000000071, 0.5235987755983027014 ) ;
#251 = APPROVAL_PERSON_ORGANIZATION ( #151, #192, #268 ) ;
#252 = EDGE_LOOP ( 'NONE', ( #178 ) ) ;
#253 = APPROVAL_ROLE ( '' ) ;
#254 = CIRCLE ( 'NONE', #164, 1.500000000000001110 ) ;
#255 = ORGANIZATION ( 'UNSPECIFIED', 'UNSPECIFIED', '' ) ;
#256 = EDGE_LOOP ( 'NONE', ( #263 ) ) ;
#257 = PERSON_AND_ORGANIZATION_ROLE ( 'classification_officer' ) ;
#258 = VERTEX_POINT ( 'NONE', #138 ) ;
#259 = ADVANCED_FACE ( 'NONE', ( #244 ), #16, .F. ) ;
#260 = DIRECTION ( 'NONE',  ( -3.491481338843133355E-15, 1.224646799147353207E-16, -1.000000000000000000 ) ) ;
#261 = DATE_TIME_ROLE ( 'creation_date' ) ;
#262 = SECURITY_CLASSIFICATION ( '', '', #180 ) ;
#263 = ORIENTED_EDGE ( 'NONE', *, *, #68, .F. ) ;
#264 = EDGE_CURVE ( 'NONE', #258, #258, #66, .T. ) ;
#265 = EDGE_LOOP ( 'NONE', ( #143 ) ) ;
#266 = LOCAL_TIME ( 10, 35, 20.00000000000000000, #48 ) ;
#267 = EDGE_LOOP ( 'NONE', ( #69 ) ) ;
#268 = APPROVAL_ROLE ( '' ) ;
#269 = PLANE ( 'NONE',  #139 ) ;
#270 = AXIS2_PLACEMENT_3D ( 'NONE', #225, #38, #221 ) ;
#271 = CARTESIAN_POINT ( 'NONE',  ( 2.444036937190193601E-13, -8.572527594031472993E-15, 70.00000000000000000 ) ) ;
#272 = CIRCLE ( 'NONE', #300, 1.329999999999999183 ) ;
#273 = ORIENTED_EDGE ( 'NONE', *, *, #121, .T. ) ;
#274 = DIRECTION ( 'NONE',  ( 1.000000000000000000, 0.0000000000000000000, 0.0000000000000000000 ) ) ;
#275 = ADVANCED_FACE ( 'NONE', ( #195 ), #269, .F. ) ;
#276 = ORIENTED_EDGE ( 'NONE', *, *, #64, .T. ) ;
#277 = CALENDAR_DATE ( 2021, 2, 12 ) ;
#278 = CLOSED_SHELL ( 'NONE', ( #200, #43, #117, #150, #275 ) ) ;
#279 = CC_DESIGN_APPROVAL ( #31, ( #181 ) ) ;
#280 = APPROVAL_STATUS ( 'not_yet_approved' ) ;
#281 = PERSON_AND_ORGANIZATION ( #239, #255 ) ;
#282 = EDGE_LOOP ( 'NONE', ( #25 ) ) ;
#283 = CARTESIAN_POINT ( 'NONE',  ( 2.433562493173664138E-13, -8.535788190057053710E-15, 69.70000000000001705 ) ) ;
#284 = AXIS2_PLACEMENT_3D ( 'NONE', #148, #152, #218 ) ;
#285 = FACE_BOUND ( 'NONE', #227, .T. ) ;
#286 = DIRECTION ( 'NONE',  ( 4.275831445896958607E-31, 1.000000000000000000, 1.224646799147353207E-16 ) ) ;
#287 = FACE_BOUND ( 'NONE', #214, .T. ) ;
#288 = DIRECTION ( 'NONE',  ( 0.0000000000000000000, 1.000000000000000000, 0.0000000000000000000 ) ) ;
#289 = PRODUCT_DEFINITION_FORMATION_WITH_SPECIFIED_SOURCE ( 'ANY', '', #126, .NOT_KNOWN. ) ;
#290 = CARTESIAN_POINT ( 'NONE',  ( 3.491481338843133355E-14, 1.579999999999998739, 10.00000000000000000 ) ) ;
#291 = CARTESIAN_POINT ( 'NONE',  ( 2.444036937190193601E-13, -8.572527594031472993E-15, 70.00000000000000000 ) ) ;
#292 = VERTEX_POINT ( 'NONE', #41 ) ;
#293 = CIRCLE ( 'NONE', #211, 1.500000000000001110 ) ;
#294 = ADVANCED_FACE ( 'NONE', ( #17, #131 ), #63, .T. ) ;
#295 = AXIS2_PLACEMENT_3D ( 'NONE', #155, #86, #107 ) ;
#296 = CARTESIAN_POINT ( 'NONE',  ( 2.444036937190193601E-13, 8.998558695971026591E-33, 70.00000000000000000 ) ) ;
#297 = CARTESIAN_POINT ( 'NONE',  ( 3.539860723423576580E-14, 1.499999999999991562, 10.13856406460552151 ) ) ;
#298 = MANIFOLD_SOLID_BREP ( 'Corps-Déplacer/Copier1[2]', #247 ) ;
#299 = CARTESIAN_POINT ( 'NONE',  ( 2.444036937190193601E-13, 1.199999999999992628, 70.00000000000000000 ) ) ;
#300 = AXIS2_PLACEMENT_3D ( 'NONE', #171, #169, #76 ) ;
#301 = EDGE_CURVE ( 'NONE', #70, #70, #140, .T. ) ;
#302 = ORIENTED_EDGE ( 'NONE', *, *, #121, .F. ) ;
#303 = CALENDAR_DATE ( 2021, 2, 12 ) ;
ENDSEC;
END-ISO-10303-21;
