ISO-10303-21;
HEADER;
FILE_DESCRIPTION (( 'STEP AP203' ),
    '1' );
FILE_NAME ('321541.step',
    '2021-12-02T09:35:20',
    ( '' ),
    ( '' ),
    'SwSTEP 2.0',
    'SolidWorks 2019',
    '' );
FILE_SCHEMA (( 'CONFIG_CONTROL_DESIGN' ));
ENDSEC;

DATA;
#1 = CARTESIAN_POINT ( 'NONE',  ( 0.0000000000000000000, 0.0000000000000000000, 0.0000000000000000000 ) ) ;
#2 = MANIFOLD_SOLID_BREP ( 'Corps-Déplacer/Copier1[1]', #276 ) ;
#3 = CIRCLE ( 'NONE', #99, 1.574999999999999956 ) ;
#4 = AXIS2_PLACEMENT_3D ( 'NONE', #261, #286, #51 ) ;
#5 = DIRECTION ( 'NONE',  ( 4.275831445896958607E-31, 1.000000000000000000, 1.224646799147353207E-16 ) ) ;
#6 = CARTESIAN_POINT ( 'NONE',  ( 3.491481338843133355E-14, -1.224646799147353256E-15, 10.00000000000000000 ) ) ;
#7 = CARTESIAN_POINT ( 'NONE',  ( 8.728703347107833388E-16, 1.574999999999999956, 0.2500000000000000555 ) ) ;
#8 = PRODUCT_RELATED_PRODUCT_CATEGORY ( 'detail', '', ( #300 ) ) ;
#9 =( LENGTH_UNIT ( ) NAMED_UNIT ( * ) SI_UNIT ( .MILLI., .METRE. ) );
#10 = VERTEX_POINT ( 'NONE', #128 ) ;
#11 = CARTESIAN_POINT ( 'NONE',  ( 3.536837011887299076E-14, 1.499999999999991562, 10.12990381056767752 ) ) ;
#12 = AXIS2_PLACEMENT_3D ( 'NONE', #89, #117, #190 ) ;
#13 = CC_DESIGN_APPROVAL ( #215, ( #235 ) ) ;
#14 = LOCAL_TIME ( 10, 35, 20.00000000000000000, #62 ) ;
#15 = APPLICATION_PROTOCOL_DEFINITION ( 'international standard', 'config_control_design', 1994, #145 ) ;
#16 = EDGE_LOOP ( 'NONE', ( #290 ) ) ;
#17 = APPROVAL_STATUS ( 'not_yet_approved' ) ;
#18 = ORIENTED_EDGE ( 'NONE', *, *, #47, .T. ) ;
#19 = ORIENTED_EDGE ( 'NONE', *, *, #110, .F. ) ;
#20 = EDGE_LOOP ( 'NONE', ( #19 ) ) ;
#21 = EDGE_LOOP ( 'NONE', ( #39 ) ) ;
#22 = PERSON_AND_ORGANIZATION ( #237, #212 ) ;
#23 = CC_DESIGN_PERSON_AND_ORGANIZATION_ASSIGNMENT ( #132, #218, ( #300 ) ) ;
#24 = DIRECTION ( 'NONE',  ( -3.491481338843133355E-15, 1.224646799147353207E-16, -1.000000000000000000 ) ) ;
#25 = CALENDAR_DATE ( 2021, 2, 12 ) ;
#26 = CARTESIAN_POINT ( 'NONE',  ( 2.444036937190193601E-13, -8.572527594031472993E-15, 70.00000000000000000 ) ) ;
#27 = PLANE ( 'NONE',  #78 ) ;
#28 = DIRECTION ( 'NONE',  ( -3.491481338843133355E-15, 1.224646799147353207E-16, -1.000000000000000000 ) ) ;
#29 = ADVANCED_FACE ( 'NONE', ( #185, #179 ), #244, .T. ) ;
#30 = DIRECTION ( 'NONE',  ( 0.0000000000000000000, 1.000000000000000000, 0.0000000000000000000 ) ) ;
#31 = VERTEX_POINT ( 'NONE', #151 ) ;
#32 = APPROVAL_ROLE ( '' ) ;
#33 = CARTESIAN_POINT ( 'NONE',  ( 3.491481338843133355E-14, 1.574999999999998623, 10.00000000000000000 ) ) ;
#34 = FACE_BOUND ( 'NONE', #197, .T. ) ;
#35 = CARTESIAN_POINT ( 'NONE',  ( 3.491481338843133355E-14, 1.574999999999998623, 10.00000000000000000 ) ) ;
#36 = CC_DESIGN_PERSON_AND_ORGANIZATION_ASSIGNMENT ( #22, #38, ( #79 ) ) ;
#37 = ORIENTED_EDGE ( 'NONE', *, *, #147, .F. ) ;
#38 = PERSON_AND_ORGANIZATION_ROLE ( 'creator' ) ;
#39 = ORIENTED_EDGE ( 'NONE', *, *, #260, .F. ) ;
#40 = LOCAL_TIME ( 10, 35, 20.00000000000000000, #155 ) ;
#41 = EDGE_LOOP ( 'NONE', ( #108 ) ) ;
#42 = APPLICATION_CONTEXT ( 'configuration controlled 3d designs of mechanical parts and assemblies' ) ;
#43 = PLANE ( 'NONE',  #159 ) ;
#44 = CALENDAR_DATE ( 2021, 2, 12 ) ;
#45 = DIRECTION ( 'NONE',  ( 0.0000000000000000000, 1.000000000000000000, 0.0000000000000000000 ) ) ;
#46 = DIRECTION ( 'NONE',  ( 4.275831445896959482E-31, 1.000000000000000000, 1.224646799147353207E-16 ) ) ;
#47 = EDGE_CURVE ( 'NONE', #209, #209, #163, .T. ) ;
#48 = CYLINDRICAL_SURFACE ( 'NONE', #12, 1.499999999999996891 ) ;
#49 = CARTESIAN_POINT ( 'NONE',  ( 2.444036937190193601E-13, -8.572527594031472993E-15, 70.00000000000000000 ) ) ;
#50 = CARTESIAN_POINT ( 'NONE',  ( 2.444036937190193601E-13, 1.199999999999992628, 70.00000000000000000 ) ) ;
#51 = DIRECTION ( 'NONE',  ( 3.668437989309020777E-31, 1.000000000000000000, 1.376764663473656463E-16 ) ) ;
#52 = VERTEX_POINT ( 'NONE', #127 ) ;
#53 = CARTESIAN_POINT ( 'NONE',  ( 3.491481338843133355E-14, 1.181060828846210950E-32, 10.00000000000000000 ) ) ;
#54 = PERSON_AND_ORGANIZATION_ROLE ( 'creator' ) ;
#55 = FACE_OUTER_BOUND ( 'NONE', #106, .T. ) ;
#56 = PERSON_AND_ORGANIZATION ( #237, #212 ) ;
#57 = ORIENTED_EDGE ( 'NONE', *, *, #75, .F. ) ;
#58 = APPROVAL_ROLE ( '' ) ;
#59 = CONICAL_SURFACE ( 'NONE', #181, 1.200000000000001510, 0.7853981633974566057 ) ;
#60 = ADVANCED_FACE ( 'NONE', ( #73, #254 ), #271, .T. ) ;
#61 = ORIENTED_EDGE ( 'NONE', *, *, #75, .T. ) ;
#62 = COORDINATED_UNIVERSAL_TIME_OFFSET ( 1, 0, .AHEAD. ) ;
#63 = MECHANICAL_CONTEXT ( 'NONE', #42, 'mechanical' ) ;
#64 = EDGE_LOOP ( 'NONE', ( #288 ) ) ;
#65 = DATE_AND_TIME ( #297, #287 ) ;
#66 = CIRCLE ( 'NONE', #292, 1.500000000000001110 ) ;
#67 = CC_DESIGN_APPROVAL ( #161, ( #79 ) ) ;
#68 = CARTESIAN_POINT ( 'NONE',  ( -2.832738332906733391E-31, 9.935908560134801178E-33, -8.113285044351209975E-17 ) ) ;
#69 = SHAPE_DEFINITION_REPRESENTATION ( #104, #178 ) ;
#70 = DIRECTION ( 'NONE',  ( -3.491481338843133355E-15, 1.224646799147353207E-16, -1.000000000000000000 ) ) ;
#71 = CARTESIAN_POINT ( 'NONE',  ( 3.491481338843133355E-14, -1.224646799147353256E-15, 10.00000000000000000 ) ) ;
#72 = CC_DESIGN_PERSON_AND_ORGANIZATION_ASSIGNMENT ( #56, #54, ( #189 ) ) ;
#73 = FACE_OUTER_BOUND ( 'NONE', #103, .T. ) ;
#74 = DIRECTION ( 'NONE',  ( -3.491481338843133355E-15, 1.224646799147353207E-16, -1.000000000000000000 ) ) ;
#75 = EDGE_CURVE ( 'NONE', #241, #241, #194, .T. ) ;
#76 = PLANE ( 'NONE',  #93 ) ;
#77 = CARTESIAN_POINT ( 'NONE',  ( 2.444036937190193601E-13, -8.572527594031472993E-15, 70.00000000000000000 ) ) ;
#78 = AXIS2_PLACEMENT_3D ( 'NONE', #68, #70, #165 ) ;
#79 = PRODUCT_DEFINITION_FORMATION_WITH_SPECIFIED_SOURCE ( 'ANY', '', #300, .NOT_KNOWN. ) ;
#80 = EDGE_LOOP ( 'NONE', ( #86 ) ) ;
#81 = AXIS2_PLACEMENT_3D ( 'NONE', #105, #131, #242 ) ;
#82 = ORIENTED_EDGE ( 'NONE', *, *, #256, .F. ) ;
#83 = APPROVAL_STATUS ( 'not_yet_approved' ) ;
#84 = ORIENTED_EDGE ( 'NONE', *, *, #129, .T. ) ;
#85 = ADVANCED_FACE ( 'NONE', ( #234 ), #43, .F. ) ;
#86 = ORIENTED_EDGE ( 'NONE', *, *, #166, .T. ) ;
#87 = CIRCLE ( 'NONE', #172, 1.200000000000001510 ) ;
#88 = CC_DESIGN_SECURITY_CLASSIFICATION ( #235, ( #79 ) ) ;
#89 = CARTESIAN_POINT ( 'NONE',  ( 0.0000000000000000000, 0.0000000000000000000, 0.0000000000000000000 ) ) ;
#90 = FACE_OUTER_BOUND ( 'NONE', #111, .T. ) ;
#91 = EDGE_CURVE ( 'NONE', #150, #150, #120, .T. ) ;
#92 = CARTESIAN_POINT ( 'NONE',  ( 3.536837011887299076E-14, -1.240555427728228328E-15, 10.12990381056767752 ) ) ;
#93 = AXIS2_PLACEMENT_3D ( 'NONE', #259, #156, #210 ) ;
#94 = DIRECTION ( 'NONE',  ( -3.491481338843133355E-15, 1.224646799147353207E-16, -1.000000000000000000 ) ) ;
#95 = DIRECTION ( 'NONE',  ( 0.0000000000000000000, 1.000000000000000000, 0.0000000000000000000 ) ) ;
#96 = MANIFOLD_SOLID_BREP ( 'Corps-Déplacer/Copier1[2]', #211 ) ;
#97 = AXIS2_PLACEMENT_3D ( 'NONE', #71, #302, #168 ) ;
#98 =( NAMED_UNIT ( * ) PLANE_ANGLE_UNIT ( ) SI_UNIT ( $, .RADIAN. ) );
#99 = AXIS2_PLACEMENT_3D ( 'NONE', #6, #273, #146 ) ;
#100 = LOCAL_TIME ( 10, 35, 20.00000000000000000, #299 ) ;
#101 = CC_DESIGN_DATE_AND_TIME_ASSIGNMENT ( #268, #295, ( #235 ) ) ;
#102 = PERSON_AND_ORGANIZATION ( #237, #212 ) ;
#103 = EDGE_LOOP ( 'NONE', ( #224 ) ) ;
#104 = PRODUCT_DEFINITION_SHAPE ( 'NONE', 'NONE',  #189 ) ;
#105 = CARTESIAN_POINT ( 'NONE',  ( 0.0000000000000000000, 0.0000000000000000000, 0.0000000000000000000 ) ) ;
#106 = EDGE_LOOP ( 'NONE', ( #57 ) ) ;
#107 = COORDINATED_UNIVERSAL_TIME_OFFSET ( 1, 0, .AHEAD. ) ;
#108 = ORIENTED_EDGE ( 'NONE', *, *, #166, .F. ) ;
#109 = LOCAL_TIME ( 10, 35, 20.00000000000000000, #107 ) ;
#110 = EDGE_CURVE ( 'NONE', #31, #31, #66, .T. ) ;
#111 = EDGE_LOOP ( 'NONE', ( #84 ) ) ;
#112 = PERSON_AND_ORGANIZATION_ROLE ( 'classification_officer' ) ;
#113 = DIRECTION ( 'NONE',  ( 0.0000000000000000000, 1.000000000000000000, 0.0000000000000000000 ) ) ;
#114 = AXIS2_PLACEMENT_3D ( 'NONE', #255, #250, #45 ) ;
#115 = CC_DESIGN_PERSON_AND_ORGANIZATION_ASSIGNMENT ( #222, #112, ( #235 ) ) ;
#116 = FACE_BOUND ( 'NONE', #221, .T. ) ;
#117 = DIRECTION ( 'NONE',  ( -3.491481338843133355E-15, 1.224646799147353207E-16, -1.000000000000000000 ) ) ;
#118 = FACE_OUTER_BOUND ( 'NONE', #298, .T. ) ;
#119 = ADVANCED_FACE ( 'NONE', ( #231 ), #27, .T. ) ;
#120 = CIRCLE ( 'NONE', #124, 1.500000000000001110 ) ;
#121 =( GEOMETRIC_REPRESENTATION_CONTEXT ( 3 ) GLOBAL_UNCERTAINTY_ASSIGNED_CONTEXT ( ( #274 ) ) GLOBAL_UNIT_ASSIGNED_CONTEXT ( ( #9, #98, #285 ) ) REPRESENTATION_CONTEXT ( 'NONE', 'WORKASPACE' ) );
#122 = DIRECTION ( 'NONE',  ( 0.0000000000000000000, 1.000000000000000000, 0.0000000000000000000 ) ) ;
#123 = CARTESIAN_POINT ( 'NONE',  ( 2.444036937190193601E-13, 1.199999999999992628, 70.00000000000000000 ) ) ;
#124 = AXIS2_PLACEMENT_3D ( 'NONE', #141, #143, #275 ) ;
#125 = FACE_OUTER_BOUND ( 'NONE', #16, .T. ) ;
#126 = ADVANCED_FACE ( 'NONE', ( #90, #227 ), #253, .T. ) ;
#127 = CARTESIAN_POINT ( 'NONE',  ( 3.536837011887299076E-14, 1.499999999999991562, 10.12990381056767752 ) ) ;
#128 = CARTESIAN_POINT ( 'NONE',  ( 0.0000000000000000000, 1.324999999999999067, 0.0000000000000000000 ) ) ;
#129 = EDGE_CURVE ( 'NONE', #257, #257, #3, .T. ) ;
#130 = ORIENTED_EDGE ( 'NONE', *, *, #129, .F. ) ;
#131 = DIRECTION ( 'NONE',  ( 0.0000000000000000000, 0.0000000000000000000, 1.000000000000000000 ) ) ;
#132 = PERSON_AND_ORGANIZATION ( #237, #212 ) ;
#133 = CALENDAR_DATE ( 2021, 2, 12 ) ;
#134 = ADVANCED_FACE ( 'NONE', ( #278, #118 ), #48, .T. ) ;
#135 = SECURITY_CLASSIFICATION_LEVEL ( 'unclassified' ) ;
#136 = CC_DESIGN_APPROVAL ( #205, ( #189 ) ) ;
#137 = ORIENTED_EDGE ( 'NONE', *, *, #110, .T. ) ;
#138 = APPROVAL_DATE_TIME ( #65, #161 ) ;
#139 = DIRECTION ( 'NONE',  ( -3.491481338843133355E-15, 1.224646799147353207E-16, -1.000000000000000000 ) ) ;
#140 = PERSON_AND_ORGANIZATION ( #237, #212 ) ;
#141 = CARTESIAN_POINT ( 'NONE',  ( 2.433562493173664138E-13, -8.535788190057053710E-15, 69.70000000000001705 ) ) ;
#142 = AXIS2_PLACEMENT_3D ( 'NONE', #214, #236, #239 ) ;
#143 = DIRECTION ( 'NONE',  ( -3.491481338843133355E-15, 1.224646799147353207E-16, -1.000000000000000000 ) ) ;
#144 = DIRECTION ( 'NONE',  ( 4.275831445896958607E-31, 1.000000000000000000, 1.224646799147353454E-16 ) ) ;
#145 = APPLICATION_CONTEXT ( 'configuration controlled 3d designs of mechanical parts and assemblies' ) ;
#146 = DIRECTION ( 'NONE',  ( 0.0000000000000000000, 1.000000000000000000, 0.0000000000000000000 ) ) ;
#147 = EDGE_CURVE ( 'NONE', #52, #52, #270, .T. ) ;
#148 = CONICAL_SURFACE ( 'NONE', #97, 1.574999999999999956, 0.5235987755982998149 ) ;
#149 = APPROVAL_PERSON_ORGANIZATION ( #140, #215, #58 ) ;
#150 = VERTEX_POINT ( 'NONE', #171 ) ;
#151 = CARTESIAN_POINT ( 'NONE',  ( 2.433562493173664138E-13, 1.499999999999992673, 69.70000000000001705 ) ) ;
#152 = FACE_OUTER_BOUND ( 'NONE', #225, .T. ) ;
#153 = CONICAL_SURFACE ( 'NONE', #175, 1.200000000000001510, 0.7853981633974566057 ) ;
#154 = VERTEX_POINT ( 'NONE', #33 ) ;
#155 = COORDINATED_UNIVERSAL_TIME_OFFSET ( 1, 0, .AHEAD. ) ;
#156 = DIRECTION ( 'NONE',  ( -3.491481338843133355E-15, 1.224646799147353207E-16, -1.000000000000000000 ) ) ;
#157 = EDGE_LOOP ( 'NONE', ( #137 ) ) ;
#158 = DATE_AND_TIME ( #240, #40 ) ;
#159 = AXIS2_PLACEMENT_3D ( 'NONE', #49, #202, #5 ) ;
#160 = EDGE_LOOP ( 'NONE', ( #130 ) ) ;
#161 = APPROVAL ( #17, 'UNSPECIFIED' ) ;
#162 = APPROVAL_DATE_TIME ( #196, #215 ) ;
#163 = CIRCLE ( 'NONE', #114, 1.499999999999992895 ) ;
#164 = EDGE_LOOP ( 'NONE', ( #199 ) ) ;
#165 = DIRECTION ( 'NONE',  ( 4.275831445896958607E-31, 1.000000000000000000, 1.224646799147353207E-16 ) ) ;
#166 = EDGE_CURVE ( 'NONE', #191, #191, #87, .T. ) ;
#167 = CARTESIAN_POINT ( 'NONE',  ( -5.665476665813466782E-31, 1.987181712026960236E-32, -1.622657008870241995E-16 ) ) ;
#168 = DIRECTION ( 'NONE',  ( 0.0000000000000000000, 1.000000000000000000, 0.0000000000000000000 ) ) ;
#169 = ADVANCED_FACE ( 'NONE', ( #116, #170 ), #148, .T. ) ;
#170 = FACE_OUTER_BOUND ( 'NONE', #160, .T. ) ;
#171 = CARTESIAN_POINT ( 'NONE',  ( 2.433562493173664138E-13, 1.499999999999992673, 69.70000000000001705 ) ) ;
#172 = AXIS2_PLACEMENT_3D ( 'NONE', #26, #74, #95 ) ;
#173 = DIRECTION ( 'NONE',  ( 0.0000000000000000000, 1.000000000000000000, 0.0000000000000000000 ) ) ;
#174 = DIRECTION ( 'NONE',  ( -3.491481338843133355E-15, 1.224646799147353207E-16, -1.000000000000000000 ) ) ;
#175 = AXIS2_PLACEMENT_3D ( 'NONE', #272, #24, #113 ) ;
#176 = FACE_BOUND ( 'NONE', #80, .T. ) ;
#177 = DATE_TIME_ROLE ( 'creation_date' ) ;
#178 = ADVANCED_BREP_SHAPE_REPRESENTATION ( '321541', ( #2, #96, #81 ), #121 ) ;
#179 = FACE_OUTER_BOUND ( 'NONE', #157, .T. ) ;
#180 = APPROVAL_ROLE ( '' ) ;
#181 = AXIS2_PLACEMENT_3D ( 'NONE', #77, #213, #173 ) ;
#182 = EDGE_LOOP ( 'NONE', ( #82 ) ) ;
#183 = EDGE_CURVE ( 'NONE', #154, #154, #192, .T. ) ;
#184 = ADVANCED_FACE ( 'NONE', ( #203, #207 ), #153, .T. ) ;
#185 = FACE_OUTER_BOUND ( 'NONE', #267, .T. ) ;
#186 = DIRECTION ( 'NONE',  ( 3.491481338843133355E-15, -1.224646799147353207E-16, 1.000000000000000000 ) ) ;
#187 = DIRECTION ( 'NONE',  ( -4.275831445896959482E-31, -1.000000000000000000, -1.224646799147353207E-16 ) ) ;
#188 = CARTESIAN_POINT ( 'NONE',  ( 3.491481338843133355E-14, -1.224646799147353256E-15, 10.00000000000000000 ) ) ;
#189 = PRODUCT_DEFINITION ( 'UNKNOWN', '', #79, #233 ) ;
#190 = DIRECTION ( 'NONE',  ( 4.275831445896958607E-31, 1.000000000000000000, 1.224646799147353454E-16 ) ) ;
#191 = VERTEX_POINT ( 'NONE', #123 ) ;
#192 = CIRCLE ( 'NONE', #281, 1.574999999999999956 ) ;
#193 = CARTESIAN_POINT ( 'NONE',  ( -5.665476665813466782E-31, 1.987181712026960236E-32, -1.622657008870241995E-16 ) ) ;
#194 = CIRCLE ( 'NONE', #247, 1.200000000000001510 ) ;
#195 = ORIENTED_EDGE ( 'NONE', *, *, #91, .F. ) ;
#196 = DATE_AND_TIME ( #44, #14 ) ;
#197 = EDGE_LOOP ( 'NONE', ( #246 ) ) ;
#198 = AXIS2_PLACEMENT_3D ( 'NONE', #1, #229, #46 ) ;
#199 = ORIENTED_EDGE ( 'NONE', *, *, #256, .T. ) ;
#200 = ADVANCED_FACE ( 'NONE', ( #152, #176 ), #59, .T. ) ;
#201 = CONICAL_SURFACE ( 'NONE', #142, 1.574999999999999956, 0.5235987755982998149 ) ;
#202 = DIRECTION ( 'NONE',  ( -3.491481338843133355E-15, 1.224646799147353207E-16, -1.000000000000000000 ) ) ;
#203 = FACE_OUTER_BOUND ( 'NONE', #20, .T. ) ;
#204 = DIRECTION ( 'NONE',  ( 0.0000000000000000000, 1.000000000000000000, 0.0000000000000000000 ) ) ;
#205 = APPROVAL ( #289, 'UNSPECIFIED' ) ;
#206 = DIRECTION ( 'NONE',  ( 0.0000000000000000000, 1.000000000000000000, 0.0000000000000000000 ) ) ;
#207 = FACE_BOUND ( 'NONE', #296, .T. ) ;
#208 = ADVANCED_FACE ( 'NONE', ( #280 ), #238, .F. ) ;
#209 = VERTEX_POINT ( 'NONE', #11 ) ;
#210 = DIRECTION ( 'NONE',  ( 4.275831445896958607E-31, 1.000000000000000000, 1.224646799147353207E-16 ) ) ;
#211 = CLOSED_SHELL ( 'NONE', ( #169, #126, #60, #119, #85, #200, #134 ) ) ;
#212 = ORGANIZATION ( 'UNSPECIFIED', 'UNSPECIFIED', '' ) ;
#213 = DIRECTION ( 'NONE',  ( -3.491481338843133355E-15, 1.224646799147353207E-16, -1.000000000000000000 ) ) ;
#214 = CARTESIAN_POINT ( 'NONE',  ( 3.491481338843133355E-14, -1.224646799147353256E-15, 10.00000000000000000 ) ) ;
#215 = APPROVAL ( #83, 'UNSPECIFIED' ) ;
#216 = VERTEX_POINT ( 'NONE', #7 ) ;
#217 = AXIS2_PLACEMENT_3D ( 'NONE', #92, #232, #206 ) ;
#218 = PERSON_AND_ORGANIZATION_ROLE ( 'design_owner' ) ;
#219 = PERSON_AND_ORGANIZATION ( #237, #212 ) ;
#220 = ADVANCED_FACE ( 'NONE', ( #55 ), #76, .F. ) ;
#221 = EDGE_LOOP ( 'NONE', ( #18 ) ) ;
#222 = PERSON_AND_ORGANIZATION ( #237, #212 ) ;
#223 = DATE_AND_TIME ( #133, #109 ) ;
#224 = ORIENTED_EDGE ( 'NONE', *, *, #260, .T. ) ;
#225 = EDGE_LOOP ( 'NONE', ( #195 ) ) ;
#226 = PERSON_AND_ORGANIZATION ( #237, #212 ) ;
#227 = FACE_OUTER_BOUND ( 'NONE', #21, .T. ) ;
#228 = APPROVAL_DATE_TIME ( #223, #205 ) ;
#229 = DIRECTION ( 'NONE',  ( -3.491481338843133355E-15, 1.224646799147353207E-16, -1.000000000000000000 ) ) ;
#230 = ADVANCED_FACE ( 'NONE', ( #34, #125 ), #201, .T. ) ;
#231 = FACE_OUTER_BOUND ( 'NONE', #164, .T. ) ;
#232 = DIRECTION ( 'NONE',  ( -3.491481338843133355E-15, 1.224646799147353207E-16, -1.000000000000000000 ) ) ;
#233 = DESIGN_CONTEXT ( 'detailed design', #145, 'design' ) ;
#234 = FACE_OUTER_BOUND ( 'NONE', #41, .T. ) ;
#235 = SECURITY_CLASSIFICATION ( '', '', #135 ) ;
#236 = DIRECTION ( 'NONE',  ( -3.491481338843133355E-15, 1.224646799147353207E-16, -1.000000000000000000 ) ) ;
#237 = PERSON ( 'UNSPECIFIED', 'UNSPECIFIED', 'UNSPECIFIED', ('UNSPECIFIED'), ('UNSPECIFIED'), ('UNSPECIFIED') ) ;
#238 = PLANE ( 'NONE',  #265 ) ;
#239 = DIRECTION ( 'NONE',  ( 0.0000000000000000000, 1.000000000000000000, 0.0000000000000000000 ) ) ;
#240 = CALENDAR_DATE ( 2021, 2, 12 ) ;
#241 = VERTEX_POINT ( 'NONE', #50 ) ;
#242 = DIRECTION ( 'NONE',  ( 1.000000000000000000, 0.0000000000000000000, 0.0000000000000000000 ) ) ;
#243 = ORIENTED_EDGE ( 'NONE', *, *, #91, .T. ) ;
#244 = CYLINDRICAL_SURFACE ( 'NONE', #301, 1.499999999999996891 ) ;
#245 = DIRECTION ( 'NONE',  ( -3.491481338843133355E-15, 1.224646799147353207E-16, -1.000000000000000000 ) ) ;
#246 = ORIENTED_EDGE ( 'NONE', *, *, #147, .T. ) ;
#247 = AXIS2_PLACEMENT_3D ( 'NONE', #303, #28, #122 ) ;
#248 = APPROVAL_PERSON_ORGANIZATION ( #219, #161, #32 ) ;
#249 = CARTESIAN_POINT ( 'NONE',  ( 2.433562493173664138E-13, -8.535788190057053710E-15, 69.70000000000001705 ) ) ;
#250 = DIRECTION ( 'NONE',  ( -3.491481338843133355E-15, 1.224646799147353207E-16, -1.000000000000000000 ) ) ;
#251 = AXIS2_PLACEMENT_3D ( 'NONE', #167, #186, #187 ) ;
#252 = APPROVAL_PERSON_ORGANIZATION ( #102, #205, #180 ) ;
#253 = CYLINDRICAL_SURFACE ( 'NONE', #198, 1.574999999999999956 ) ;
#254 = FACE_BOUND ( 'NONE', #182, .T. ) ;
#255 = CARTESIAN_POINT ( 'NONE',  ( 3.536837011887299076E-14, -1.240555427728228328E-15, 10.12990381056767752 ) ) ;
#256 = EDGE_CURVE ( 'NONE', #10, #10, #293, .T. ) ;
#257 = VERTEX_POINT ( 'NONE', #35 ) ;
#258 = DIRECTION ( 'NONE',  ( 4.275831445896959482E-31, 1.000000000000000000, 1.224646799147353207E-16 ) ) ;
#259 = CARTESIAN_POINT ( 'NONE',  ( 2.444036937190193601E-13, 8.998558695971026591E-33, 70.00000000000000000 ) ) ;
#260 = EDGE_CURVE ( 'NONE', #216, #216, #262, .T. ) ;
#261 = CARTESIAN_POINT ( 'NONE',  ( 8.728703347107827472E-16, -3.061616997868381169E-17, 0.2499999999999998335 ) ) ;
#262 = CIRCLE ( 'NONE', #4, 1.574999999999999956 ) ;
#263 = DIRECTION ( 'NONE',  ( 3.491481338843133355E-15, -1.224646799147353207E-16, 1.000000000000000000 ) ) ;
#264 = CC_DESIGN_PERSON_AND_ORGANIZATION_ASSIGNMENT ( #226, #291, ( #79 ) ) ;
#265 = AXIS2_PLACEMENT_3D ( 'NONE', #53, #263, #279 ) ;
#266 = CARTESIAN_POINT ( 'NONE',  ( 0.0000000000000000000, 0.0000000000000000000, 0.0000000000000000000 ) ) ;
#267 = EDGE_LOOP ( 'NONE', ( #37 ) ) ;
#268 = DATE_AND_TIME ( #25, #100 ) ;
#269 = ORIENTED_EDGE ( 'NONE', *, *, #47, .F. ) ;
#270 = CIRCLE ( 'NONE', #217, 1.499999999999992895 ) ;
#271 = CONICAL_SURFACE ( 'NONE', #251, 1.324999999999999067, 0.7853981633974500554 ) ;
#272 = CARTESIAN_POINT ( 'NONE',  ( 2.444036937190193601E-13, -8.572527594031472993E-15, 70.00000000000000000 ) ) ;
#273 = DIRECTION ( 'NONE',  ( -3.491481338843133355E-15, 1.224646799147353207E-16, -1.000000000000000000 ) ) ;
#274 = UNCERTAINTY_MEASURE_WITH_UNIT (LENGTH_MEASURE( 1.000000000000000082E-05 ), #9, 'distance_accuracy_value', 'NONE');
#275 = DIRECTION ( 'NONE',  ( 0.0000000000000000000, 1.000000000000000000, 0.0000000000000000000 ) ) ;
#276 = CLOSED_SHELL ( 'NONE', ( #208, #230, #29, #184, #220 ) ) ;
#277 = AXIS2_PLACEMENT_3D ( 'NONE', #193, #174, #258 ) ;
#278 = FACE_OUTER_BOUND ( 'NONE', #294, .T. ) ;
#279 = DIRECTION ( 'NONE',  ( -4.275831445896958607E-31, -1.000000000000000000, -1.224646799147353207E-16 ) ) ;
#280 = FACE_OUTER_BOUND ( 'NONE', #64, .T. ) ;
#281 = AXIS2_PLACEMENT_3D ( 'NONE', #188, #94, #30 ) ;
#282 = APPLICATION_PROTOCOL_DEFINITION ( 'international standard', 'config_control_design', 1994, #42 ) ;
#283 = COORDINATED_UNIVERSAL_TIME_OFFSET ( 1, 0, .AHEAD. ) ;
#284 = CC_DESIGN_DATE_AND_TIME_ASSIGNMENT ( #158, #177, ( #189 ) ) ;
#285 =( NAMED_UNIT ( * ) SI_UNIT ( $, .STERADIAN. ) SOLID_ANGLE_UNIT ( ) );
#286 = DIRECTION ( 'NONE',  ( -3.491481338843133355E-15, 1.224646799147353207E-16, -1.000000000000000000 ) ) ;
#287 = LOCAL_TIME ( 10, 35, 20.00000000000000000, #283 ) ;
#288 = ORIENTED_EDGE ( 'NONE', *, *, #183, .T. ) ;
#289 = APPROVAL_STATUS ( 'not_yet_approved' ) ;
#290 = ORIENTED_EDGE ( 'NONE', *, *, #183, .F. ) ;
#291 = PERSON_AND_ORGANIZATION_ROLE ( 'design_supplier' ) ;
#292 = AXIS2_PLACEMENT_3D ( 'NONE', #249, #139, #204 ) ;
#293 = CIRCLE ( 'NONE', #277, 1.324999999999999067 ) ;
#294 = EDGE_LOOP ( 'NONE', ( #269 ) ) ;
#295 = DATE_TIME_ROLE ( 'classification_date' ) ;
#296 = EDGE_LOOP ( 'NONE', ( #61 ) ) ;
#297 = CALENDAR_DATE ( 2021, 2, 12 ) ;
#298 = EDGE_LOOP ( 'NONE', ( #243 ) ) ;
#299 = COORDINATED_UNIVERSAL_TIME_OFFSET ( 1, 0, .AHEAD. ) ;
#300 = PRODUCT ( '321541', '321541', '', ( #63 ) ) ;
#301 = AXIS2_PLACEMENT_3D ( 'NONE', #266, #245, #144 ) ;
#302 = DIRECTION ( 'NONE',  ( -3.491481338843133355E-15, 1.224646799147353207E-16, -1.000000000000000000 ) ) ;
#303 = CARTESIAN_POINT ( 'NONE',  ( 2.444036937190193601E-13, -8.572527594031472993E-15, 70.00000000000000000 ) ) ;
ENDSEC;
END-ISO-10303-21;
