ISO-10303-21;
HEADER;
FILE_DESCRIPTION (( 'STEP AP203' ),
    '1' );
FILE_NAME ('321540.step',
    '2021-12-02T09:35:19',
    ( '' ),
    ( '' ),
    'SwSTEP 2.0',
    'SolidWorks 2019',
    '' );
FILE_SCHEMA (( 'CONFIG_CONTROL_DESIGN' ));
ENDSEC;

DATA;
#1 = DIRECTION ( 'NONE',  ( -3.491481338843133355E-15, 1.224646799147353207E-16, -1.000000000000000000 ) ) ;
#2 = CIRCLE ( 'NONE', #211, 1.500000000000001110 ) ;
#3 = AXIS2_PLACEMENT_3D ( 'NONE', #171, #50, #29 ) ;
#4 = FACE_OUTER_BOUND ( 'NONE', #110, .T. ) ;
#5 = EDGE_CURVE ( 'NONE', #240, #240, #79, .T. ) ;
#6 = CYLINDRICAL_SURFACE ( 'NONE', #216, 1.570000000000000062 ) ;
#7 = CARTESIAN_POINT ( 'NONE',  ( 2.433562493173664138E-13, 1.499999999999992673, 69.70000000000001705 ) ) ;
#8 = ADVANCED_FACE ( 'NONE', ( #46 ), #183, .F. ) ;
#9 = DIRECTION ( 'NONE',  ( 0.0000000000000000000, 1.000000000000000000, 0.0000000000000000000 ) ) ;
#10 = PLANE ( 'NONE',  #235 ) ;
#11 = VERTEX_POINT ( 'NONE', #76 ) ;
#12 = CIRCLE ( 'NONE', #270, 1.499999999999992895 ) ;
#13 = LOCAL_TIME ( 10, 35, 19.00000000000000000, #22 ) ;
#14 = MECHANICAL_CONTEXT ( 'NONE', #54, 'mechanical' ) ;
#15 = COORDINATED_UNIVERSAL_TIME_OFFSET ( 1, 0, .AHEAD. ) ;
#16 = EDGE_LOOP ( 'NONE', ( #130 ) ) ;
#17 = EDGE_LOOP ( 'NONE', ( #268 ) ) ;
#18 = APPROVAL ( #174, 'UNSPECIFIED' ) ;
#19 = APPROVAL_PERSON_ORGANIZATION ( #31, #18, #51 ) ;
#20 = ORIENTED_EDGE ( 'NONE', *, *, #156, .T. ) ;
#21 = SECURITY_CLASSIFICATION_LEVEL ( 'unclassified' ) ;
#22 = COORDINATED_UNIVERSAL_TIME_OFFSET ( 1, 0, .AHEAD. ) ;
#23 = ADVANCED_FACE ( 'NONE', ( #139 ), #255, .F. ) ;
#24 = DIRECTION ( 'NONE',  ( 0.0000000000000000000, 1.000000000000000000, 0.0000000000000000000 ) ) ;
#25 = DIRECTION ( 'NONE',  ( 4.275831445896957731E-31, 1.000000000000000000, 1.224646799147353207E-16 ) ) ;
#26 = FACE_OUTER_BOUND ( 'NONE', #107, .T. ) ;
#27 = DIRECTION ( 'NONE',  ( -3.491481338843133355E-15, 1.224646799147353207E-16, -1.000000000000000000 ) ) ;
#28 = CARTESIAN_POINT ( 'NONE',  ( 2.444036937190193601E-13, -8.572527594031472993E-15, 70.00000000000000000 ) ) ;
#29 = DIRECTION ( 'NONE',  ( 0.0000000000000000000, 1.000000000000000000, 0.0000000000000000000 ) ) ;
#30 =( NAMED_UNIT ( * ) PLANE_ANGLE_UNIT ( ) SI_UNIT ( $, .RADIAN. ) );
#31 = PERSON_AND_ORGANIZATION ( #116, #89 ) ;
#32 = CARTESIAN_POINT ( 'NONE',  ( 3.491481338843133355E-14, 1.569999999999998730, 10.00000000000000000 ) ) ;
#33 = DIRECTION ( 'NONE',  ( 4.275831445896958607E-31, 1.000000000000000000, 1.224646799147353207E-16 ) ) ;
#34 = CARTESIAN_POINT ( 'NONE',  ( 3.491481338843133355E-14, -1.224646799147353256E-15, 10.00000000000000000 ) ) ;
#35 = ORIENTED_EDGE ( 'NONE', *, *, #149, .T. ) ;
#36 = EDGE_CURVE ( 'NONE', #170, #170, #199, .T. ) ;
#37 = EDGE_LOOP ( 'NONE', ( #223 ) ) ;
#38 = EDGE_LOOP ( 'NONE', ( #81 ) ) ;
#39 = EDGE_CURVE ( 'NONE', #101, #101, #2, .T. ) ;
#40 = DIRECTION ( 'NONE',  ( -3.491481338843133355E-15, 1.224646799147353207E-16, -1.000000000000000000 ) ) ;
#41 = COORDINATED_UNIVERSAL_TIME_OFFSET ( 1, 0, .AHEAD. ) ;
#42 = DIRECTION ( 'NONE',  ( 0.0000000000000000000, 1.000000000000000000, 0.0000000000000000000 ) ) ;
#43 = ORIENTED_EDGE ( 'NONE', *, *, #156, .F. ) ;
#44 = EDGE_CURVE ( 'NONE', #148, #148, #247, .T. ) ;
#45 = CARTESIAN_POINT ( 'NONE',  ( 2.433562493173664138E-13, -8.535788190057053710E-15, 69.70000000000001705 ) ) ;
#46 = FACE_OUTER_BOUND ( 'NONE', #201, .T. ) ;
#47 = DIRECTION ( 'NONE',  ( -3.491481338843133355E-15, 1.224646799147353207E-16, -1.000000000000000000 ) ) ;
#48 = VERTEX_POINT ( 'NONE', #188 ) ;
#49 =( NAMED_UNIT ( * ) SI_UNIT ( $, .STERADIAN. ) SOLID_ANGLE_UNIT ( ) );
#50 = DIRECTION ( 'NONE',  ( -3.491481338843133355E-15, 1.224646799147353207E-16, -1.000000000000000000 ) ) ;
#51 = APPROVAL_ROLE ( '' ) ;
#52 = PLANE ( 'NONE',  #277 ) ;
#53 = ADVANCED_FACE ( 'NONE', ( #144, #4 ), #145, .T. ) ;
#54 = APPLICATION_CONTEXT ( 'configuration controlled 3d designs of mechanical parts and assemblies' ) ;
#55 = EDGE_LOOP ( 'NONE', ( #43 ) ) ;
#56 = CALENDAR_DATE ( 2021, 2, 12 ) ;
#57 = ORIENTED_EDGE ( 'NONE', *, *, #189, .T. ) ;
#58 = CALENDAR_DATE ( 2021, 2, 12 ) ;
#59 = AXIS2_PLACEMENT_3D ( 'NONE', #108, #197, #132 ) ;
#60 = COORDINATED_UNIVERSAL_TIME_OFFSET ( 1, 0, .AHEAD. ) ;
#61 = PERSON_AND_ORGANIZATION_ROLE ( 'design_owner' ) ;
#62 = PERSON_AND_ORGANIZATION ( #116, #89 ) ;
#63 = PRODUCT_DEFINITION_SHAPE ( 'NONE', 'NONE',  #203 ) ;
#64 = AXIS2_PLACEMENT_3D ( 'NONE', #173, #77, #264 ) ;
#65 = ORIENTED_EDGE ( 'NONE', *, *, #36, .F. ) ;
#66 = DATE_TIME_ROLE ( 'creation_date' ) ;
#67 = CARTESIAN_POINT ( 'NONE',  ( 8.728703347107827472E-16, -3.061616997868381169E-17, 0.2499999999999998335 ) ) ;
#68 = FACE_OUTER_BOUND ( 'NONE', #179, .T. ) ;
#69 = ADVANCED_FACE ( 'NONE', ( #26, #164 ), #105, .T. ) ;
#70 = DIRECTION ( 'NONE',  ( -4.275831445896958607E-31, -1.000000000000000000, -1.224646799147353207E-16 ) ) ;
#71 = CARTESIAN_POINT ( 'NONE',  ( 3.491481338843133355E-14, -1.224646799147353256E-15, 10.00000000000000000 ) ) ;
#72 = APPLICATION_CONTEXT ( 'configuration controlled 3d designs of mechanical parts and assemblies' ) ;
#73 = CARTESIAN_POINT ( 'NONE',  ( 2.444036937190193601E-13, -8.572527594031472993E-15, 70.00000000000000000 ) ) ;
#74 = CC_DESIGN_PERSON_AND_ORGANIZATION_ASSIGNMENT ( #246, #225, ( #99 ) ) ;
#75 = DIRECTION ( 'NONE',  ( -3.491481338843133355E-15, 1.224646799147353207E-16, -1.000000000000000000 ) ) ;
#76 = CARTESIAN_POINT ( 'NONE',  ( -8.552847072295026068E-47, 1.319999999999999174, 0.0000000000000000000 ) ) ;
#77 = DIRECTION ( 'NONE',  ( -3.491481338843133355E-15, 1.224646799147353207E-16, -1.000000000000000000 ) ) ;
#78 = CARTESIAN_POINT ( 'NONE',  ( 2.433562493173664138E-13, 1.499999999999992673, 69.70000000000001705 ) ) ;
#79 = CIRCLE ( 'NONE', #253, 1.200000000000001510 ) ;
#80 = AXIS2_PLACEMENT_3D ( 'NONE', #192, #124, #190 ) ;
#81 = ORIENTED_EDGE ( 'NONE', *, *, #44, .T. ) ;
#82 = ADVANCED_FACE ( 'NONE', ( #279, #68 ), #273, .T. ) ;
#83 = CALENDAR_DATE ( 2021, 2, 12 ) ;
#84 = AXIS2_PLACEMENT_3D ( 'NONE', #232, #27, #186 ) ;
#85 = CONICAL_SURFACE ( 'NONE', #293, 1.319999999999999174, 0.7853981633974500554 ) ;
#86 = APPROVAL_DATE_TIME ( #224, #236 ) ;
#87 = ORIENTED_EDGE ( 'NONE', *, *, #39, .T. ) ;
#88 = AXIS2_PLACEMENT_3D ( 'NONE', #122, #257, #256 ) ;
#89 = ORGANIZATION ( 'UNSPECIFIED', 'UNSPECIFIED', '' ) ;
#90 = DIRECTION ( 'NONE',  ( 0.0000000000000000000, 1.000000000000000000, 0.0000000000000000000 ) ) ;
#91 = DIRECTION ( 'NONE',  ( -3.491481338843133355E-15, 1.224646799147353207E-16, -1.000000000000000000 ) ) ;
#92 = DIRECTION ( 'NONE',  ( 0.0000000000000000000, 1.000000000000000000, 0.0000000000000000000 ) ) ;
#93 = LOCAL_TIME ( 10, 35, 19.00000000000000000, #153 ) ;
#94 = DIRECTION ( 'NONE',  ( -3.491481338843133355E-15, 1.224646799147353207E-16, -1.000000000000000000 ) ) ;
#95 = MANIFOLD_SOLID_BREP ( 'Corps-Déplacer/Copier1[1]', #301 ) ;
#96 = ADVANCED_FACE ( 'NONE', ( #251, #234 ), #6, .T. ) ;
#97 = CARTESIAN_POINT ( 'NONE',  ( 0.0000000000000000000, 0.0000000000000000000, 0.0000000000000000000 ) ) ;
#98 = CARTESIAN_POINT ( 'NONE',  ( 8.728703347107833388E-16, 1.570000000000000062, 0.2500000000000000555 ) ) ;
#99 = SECURITY_CLASSIFICATION ( '', '', #21 ) ;
#100 = FACE_OUTER_BOUND ( 'NONE', #272, .T. ) ;
#101 = VERTEX_POINT ( 'NONE', #78 ) ;
#102 = EDGE_CURVE ( 'NONE', #286, #286, #118, .T. ) ;
#103 = CYLINDRICAL_SURFACE ( 'NONE', #80, 1.499999999999996891 ) ;
#104 = AXIS2_PLACEMENT_3D ( 'NONE', #121, #1, #92 ) ;
#105 = CONICAL_SURFACE ( 'NONE', #274, 1.200000000000001510, 0.7853981633974566057 ) ;
#106 = AXIS2_PLACEMENT_3D ( 'NONE', #303, #91, #9 ) ;
#107 = EDGE_LOOP ( 'NONE', ( #112 ) ) ;
#108 = CARTESIAN_POINT ( 'NONE',  ( 0.0000000000000000000, 0.0000000000000000000, 0.0000000000000000000 ) ) ;
#109 = EDGE_LOOP ( 'NONE', ( #35 ) ) ;
#110 = EDGE_LOOP ( 'NONE', ( #87 ) ) ;
#111 = LOCAL_TIME ( 10, 35, 19.00000000000000000, #15 ) ;
#112 = ORIENTED_EDGE ( 'NONE', *, *, #258, .F. ) ;
#113 = APPROVAL_STATUS ( 'not_yet_approved' ) ;
#114 = ORIENTED_EDGE ( 'NONE', *, *, #39, .F. ) ;
#115 = DATE_AND_TIME ( #158, #245 ) ;
#116 = PERSON ( 'UNSPECIFIED', 'UNSPECIFIED', 'UNSPECIFIED', ('UNSPECIFIED'), ('UNSPECIFIED'), ('UNSPECIFIED') ) ;
#117 = DIRECTION ( 'NONE',  ( 3.680120912841851720E-31, 1.000000000000000000, 1.381149264312744334E-16 ) ) ;
#118 = CIRCLE ( 'NONE', #168, 1.570000000000000062 ) ;
#119 = FACE_OUTER_BOUND ( 'NONE', #243, .T. ) ;
#120 = DIRECTION ( 'NONE',  ( -3.491481338843133355E-15, 1.224646799147353207E-16, -1.000000000000000000 ) ) ;
#121 = CARTESIAN_POINT ( 'NONE',  ( 2.444036937190193601E-13, -8.572527594031472993E-15, 70.00000000000000000 ) ) ;
#122 = CARTESIAN_POINT ( 'NONE',  ( 3.491481338843133355E-14, -1.224646799147353256E-15, 10.00000000000000000 ) ) ;
#123 = CARTESIAN_POINT ( 'NONE',  ( 3.533813300351021571E-14, 1.499999999999991562, 10.12124355652983354 ) ) ;
#124 = DIRECTION ( 'NONE',  ( -3.491481338843133355E-15, 1.224646799147353207E-16, -1.000000000000000000 ) ) ;
#125 = CC_DESIGN_DATE_AND_TIME_ASSIGNMENT ( #135, #66, ( #203 ) ) ;
#126 = FACE_OUTER_BOUND ( 'NONE', #37, .T. ) ;
#127 = FACE_BOUND ( 'NONE', #55, .T. ) ;
#128 = CC_DESIGN_PERSON_AND_ORGANIZATION_ASSIGNMENT ( #271, #138, ( #265 ) ) ;
#129 =( GEOMETRIC_REPRESENTATION_CONTEXT ( 3 ) GLOBAL_UNCERTAINTY_ASSIGNED_CONTEXT ( ( #233 ) ) GLOBAL_UNIT_ASSIGNED_CONTEXT ( ( #262, #30, #49 ) ) REPRESENTATION_CONTEXT ( 'NONE', 'WORKASPACE' ) );
#130 = ORIENTED_EDGE ( 'NONE', *, *, #141, .F. ) ;
#131 = EDGE_LOOP ( 'NONE', ( #175 ) ) ;
#132 = DIRECTION ( 'NONE',  ( 1.000000000000000000, 0.0000000000000000000, 0.0000000000000000000 ) ) ;
#133 = EDGE_LOOP ( 'NONE', ( #20 ) ) ;
#134 = CC_DESIGN_PERSON_AND_ORGANIZATION_ASSIGNMENT ( #162, #195, ( #265 ) ) ;
#135 = DATE_AND_TIME ( #58, #93 ) ;
#136 = LOCAL_TIME ( 10, 35, 19.00000000000000000, #41 ) ;
#137 = EDGE_LOOP ( 'NONE', ( #249 ) ) ;
#138 = PERSON_AND_ORGANIZATION_ROLE ( 'design_supplier' ) ;
#139 = FACE_OUTER_BOUND ( 'NONE', #220, .T. ) ;
#140 = APPROVAL_ROLE ( '' ) ;
#141 = EDGE_CURVE ( 'NONE', #152, #152, #154, .T. ) ;
#142 = CARTESIAN_POINT ( 'NONE',  ( -5.644097508583982068E-31, 1.979682913113650893E-32, -1.616533774874505366E-16 ) ) ;
#143 = CARTESIAN_POINT ( 'NONE',  ( 2.444036937190193601E-13, 8.998558695971026591E-33, 70.00000000000000000 ) ) ;
#144 = FACE_OUTER_BOUND ( 'NONE', #294, .T. ) ;
#145 = CYLINDRICAL_SURFACE ( 'NONE', #84, 1.499999999999996891 ) ;
#146 = CIRCLE ( 'NONE', #3, 1.500000000000001110 ) ;
#147 = CIRCLE ( 'NONE', #64, 1.570000000000000062 ) ;
#148 = VERTEX_POINT ( 'NONE', #259 ) ;
#149 = EDGE_CURVE ( 'NONE', #261, #261, #12, .T. ) ;
#150 = DIRECTION ( 'NONE',  ( -4.275831445896958607E-31, -1.000000000000000000, -1.224646799147353207E-16 ) ) ;
#151 = DATE_AND_TIME ( #56, #111 ) ;
#152 = VERTEX_POINT ( 'NONE', #123 ) ;
#153 = COORDINATED_UNIVERSAL_TIME_OFFSET ( 1, 0, .AHEAD. ) ;
#154 = CIRCLE ( 'NONE', #292, 1.499999999999992895 ) ;
#155 = EDGE_LOOP ( 'NONE', ( #297 ) ) ;
#156 = EDGE_CURVE ( 'NONE', #11, #11, #217, .T. ) ;
#157 = EDGE_LOOP ( 'NONE', ( #160 ) ) ;
#158 = CALENDAR_DATE ( 2021, 2, 12 ) ;
#159 = AXIS2_PLACEMENT_3D ( 'NONE', #184, #278, #70 ) ;
#160 = ORIENTED_EDGE ( 'NONE', *, *, #189, .F. ) ;
#161 = DIRECTION ( 'NONE',  ( 0.0000000000000000000, 1.000000000000000000, 0.0000000000000000000 ) ) ;
#162 = PERSON_AND_ORGANIZATION ( #116, #89 ) ;
#163 = DIRECTION ( 'NONE',  ( -3.491481338843133355E-15, 1.224646799147353207E-16, -1.000000000000000000 ) ) ;
#164 = FACE_BOUND ( 'NONE', #137, .T. ) ;
#165 = ADVANCED_FACE ( 'NONE', ( #119, #206 ), #212, .T. ) ;
#166 = DIRECTION ( 'NONE',  ( 0.0000000000000000000, 1.000000000000000000, 0.0000000000000000000 ) ) ;
#167 = CARTESIAN_POINT ( 'NONE',  ( 2.444036937190193601E-13, 1.199999999999992628, 70.00000000000000000 ) ) ;
#168 = AXIS2_PLACEMENT_3D ( 'NONE', #67, #226, #117 ) ;
#169 = DIRECTION ( 'NONE',  ( 4.275831445896958607E-31, 1.000000000000000000, 1.224646799147353207E-16 ) ) ;
#170 = VERTEX_POINT ( 'NONE', #32 ) ;
#171 = CARTESIAN_POINT ( 'NONE',  ( 2.433562493173664138E-13, -8.535788190057053710E-15, 69.70000000000001705 ) ) ;
#172 = CC_DESIGN_DATE_AND_TIME_ASSIGNMENT ( #295, #298, ( #99 ) ) ;
#173 = CARTESIAN_POINT ( 'NONE',  ( 3.491481338843133355E-14, -1.224646799147353256E-15, 10.00000000000000000 ) ) ;
#174 = APPROVAL_STATUS ( 'not_yet_approved' ) ;
#175 = ORIENTED_EDGE ( 'NONE', *, *, #102, .F. ) ;
#176 = PERSON_AND_ORGANIZATION ( #116, #89 ) ;
#177 = AXIS2_PLACEMENT_3D ( 'NONE', #142, #229, #25 ) ;
#178 = ADVANCED_FACE ( 'NONE', ( #213, #266 ), #254, .T. ) ;
#179 = EDGE_LOOP ( 'NONE', ( #65 ) ) ;
#180 = ADVANCED_FACE ( 'NONE', ( #100 ), #52, .F. ) ;
#181 = ORIENTED_EDGE ( 'NONE', *, *, #36, .T. ) ;
#182 = DIRECTION ( 'NONE',  ( 4.275831445896958607E-31, 1.000000000000000000, 1.224646799147353207E-16 ) ) ;
#183 = PLANE ( 'NONE',  #194 ) ;
#184 = CARTESIAN_POINT ( 'NONE',  ( 3.491481338843133355E-14, 1.177311429389556279E-32, 10.00000000000000000 ) ) ;
#185 = CC_DESIGN_APPROVAL ( #18, ( #203 ) ) ;
#186 = DIRECTION ( 'NONE',  ( 4.275831445896958607E-31, 1.000000000000000000, 1.224646799147353454E-16 ) ) ;
#187 = DESIGN_CONTEXT ( 'detailed design', #72, 'design' ) ;
#188 = CARTESIAN_POINT ( 'NONE',  ( 3.491481338843133355E-14, 1.569999999999998730, 10.00000000000000000 ) ) ;
#189 = EDGE_CURVE ( 'NONE', #48, #48, #147, .T. ) ;
#190 = DIRECTION ( 'NONE',  ( 4.275831445896958607E-31, 1.000000000000000000, 1.224646799147353454E-16 ) ) ;
#191 = CARTESIAN_POINT ( 'NONE',  ( -2.822048754291991034E-31, 9.898414565568254464E-33, -8.082668874372526829E-17 ) ) ;
#192 = CARTESIAN_POINT ( 'NONE',  ( 0.0000000000000000000, 0.0000000000000000000, 0.0000000000000000000 ) ) ;
#193 = ADVANCED_BREP_SHAPE_REPRESENTATION ( '321540', ( #95, #196, #59 ), #129 ) ;
#194 = AXIS2_PLACEMENT_3D ( 'NONE', #143, #120, #252 ) ;
#195 = PERSON_AND_ORGANIZATION_ROLE ( 'creator' ) ;
#196 = MANIFOLD_SOLID_BREP ( 'Corps-Déplacer/Copier1[2]', #290 ) ;
#197 = DIRECTION ( 'NONE',  ( 0.0000000000000000000, 0.0000000000000000000, 1.000000000000000000 ) ) ;
#198 = EDGE_LOOP ( 'NONE', ( #181 ) ) ;
#199 = CIRCLE ( 'NONE', #88, 1.570000000000000062 ) ;
#200 = ORIENTED_EDGE ( 'NONE', *, *, #149, .F. ) ;
#201 = EDGE_LOOP ( 'NONE', ( #222 ) ) ;
#202 = CALENDAR_DATE ( 2021, 2, 12 ) ;
#203 = PRODUCT_DEFINITION ( 'UNKNOWN', '', #265, #187 ) ;
#204 = APPROVAL_PERSON_ORGANIZATION ( #62, #267, #140 ) ;
#205 = CARTESIAN_POINT ( 'NONE',  ( 3.533813300351021571E-14, -1.239494852489503481E-15, 10.12124355652983354 ) ) ;
#206 = FACE_BOUND ( 'NONE', #38, .T. ) ;
#207 = DIRECTION ( 'NONE',  ( 0.0000000000000000000, 1.000000000000000000, 0.0000000000000000000 ) ) ;
#208 = CARTESIAN_POINT ( 'NONE',  ( 2.444036937190193601E-13, -8.572527594031472993E-15, 70.00000000000000000 ) ) ;
#209 = DIRECTION ( 'NONE',  ( -3.491481338843133355E-15, 1.224646799147353207E-16, -1.000000000000000000 ) ) ;
#210 = VERTEX_POINT ( 'NONE', #7 ) ;
#211 = AXIS2_PLACEMENT_3D ( 'NONE', #45, #231, #166 ) ;
#212 = CONICAL_SURFACE ( 'NONE', #106, 1.200000000000001510, 0.7853981633974566057 ) ;
#213 = FACE_BOUND ( 'NONE', #109, .T. ) ;
#214 = FACE_OUTER_BOUND ( 'NONE', #133, .T. ) ;
#215 = CARTESIAN_POINT ( 'NONE',  ( 3.533813300351021571E-14, 1.499999999999991562, 10.12124355652983354 ) ) ;
#216 = AXIS2_PLACEMENT_3D ( 'NONE', #97, #40, #182 ) ;
#217 = CIRCLE ( 'NONE', #177, 1.319999999999999174 ) ;
#218 = APPLICATION_PROTOCOL_DEFINITION ( 'international standard', 'config_control_design', 1994, #54 ) ;
#219 = PERSON_AND_ORGANIZATION_ROLE ( 'creator' ) ;
#220 = EDGE_LOOP ( 'NONE', ( #57 ) ) ;
#221 = APPROVAL_STATUS ( 'not_yet_approved' ) ;
#222 = ORIENTED_EDGE ( 'NONE', *, *, #44, .F. ) ;
#223 = ORIENTED_EDGE ( 'NONE', *, *, #102, .T. ) ;
#224 = DATE_AND_TIME ( #83, #136 ) ;
#225 = PERSON_AND_ORGANIZATION_ROLE ( 'classification_officer' ) ;
#226 = DIRECTION ( 'NONE',  ( -3.491481338843133355E-15, 1.224646799147353207E-16, -1.000000000000000000 ) ) ;
#227 = SHAPE_DEFINITION_REPRESENTATION ( #63, #193 ) ;
#228 = APPLICATION_PROTOCOL_DEFINITION ( 'international standard', 'config_control_design', 1994, #72 ) ;
#229 = DIRECTION ( 'NONE',  ( -3.491481338843133355E-15, 1.224646799147353207E-16, -1.000000000000000000 ) ) ;
#230 = ADVANCED_FACE ( 'NONE', ( #214 ), #10, .T. ) ;
#231 = DIRECTION ( 'NONE',  ( -3.491481338843133355E-15, 1.224646799147353207E-16, -1.000000000000000000 ) ) ;
#232 = CARTESIAN_POINT ( 'NONE',  ( 0.0000000000000000000, 0.0000000000000000000, 0.0000000000000000000 ) ) ;
#233 = UNCERTAINTY_MEASURE_WITH_UNIT (LENGTH_MEASURE( 1.000000000000000082E-05 ), #262, 'distance_accuracy_value', 'NONE');
#234 = FACE_OUTER_BOUND ( 'NONE', #131, .T. ) ;
#235 = AXIS2_PLACEMENT_3D ( 'NONE', #191, #285, #33 ) ;
#236 = APPROVAL ( #221, 'UNSPECIFIED' ) ;
#237 = DIRECTION ( 'NONE',  ( 3.491481338843133355E-15, -1.224646799147353207E-16, 1.000000000000000000 ) ) ;
#238 = FACE_OUTER_BOUND ( 'NONE', #155, .T. ) ;
#239 = AXIS2_PLACEMENT_3D ( 'NONE', #34, #75, #281 ) ;
#240 = VERTEX_POINT ( 'NONE', #167 ) ;
#241 = PERSON_AND_ORGANIZATION ( #116, #89 ) ;
#242 = CARTESIAN_POINT ( 'NONE',  ( -5.644097508583982068E-31, 1.979682913113650893E-32, -1.616533774874505366E-16 ) ) ;
#243 = EDGE_LOOP ( 'NONE', ( #114 ) ) ;
#244 = AXIS2_PLACEMENT_3D ( 'NONE', #71, #209, #24 ) ;
#245 = LOCAL_TIME ( 10, 35, 19.00000000000000000, #60 ) ;
#246 = PERSON_AND_ORGANIZATION ( #116, #89 ) ;
#247 = CIRCLE ( 'NONE', #104, 1.200000000000001510 ) ;
#248 = CC_DESIGN_APPROVAL ( #236, ( #265 ) ) ;
#249 = ORIENTED_EDGE ( 'NONE', *, *, #5, .T. ) ;
#250 = CC_DESIGN_PERSON_AND_ORGANIZATION_ASSIGNMENT ( #241, #219, ( #203 ) ) ;
#251 = FACE_OUTER_BOUND ( 'NONE', #198, .T. ) ;
#252 = DIRECTION ( 'NONE',  ( 4.275831445896958607E-31, 1.000000000000000000, 1.224646799147353207E-16 ) ) ;
#253 = AXIS2_PLACEMENT_3D ( 'NONE', #208, #94, #207 ) ;
#254 = CONICAL_SURFACE ( 'NONE', #239, 1.570000000000000062, 0.5235987755983027014 ) ;
#255 = PLANE ( 'NONE',  #159 ) ;
#256 = DIRECTION ( 'NONE',  ( 0.0000000000000000000, 1.000000000000000000, 0.0000000000000000000 ) ) ;
#257 = DIRECTION ( 'NONE',  ( -3.491481338843133355E-15, 1.224646799147353207E-16, -1.000000000000000000 ) ) ;
#258 = EDGE_CURVE ( 'NONE', #210, #210, #146, .T. ) ;
#259 = CARTESIAN_POINT ( 'NONE',  ( 2.444036937190193601E-13, 1.199999999999992628, 70.00000000000000000 ) ) ;
#260 = APPROVAL_PERSON_ORGANIZATION ( #289, #236, #269 ) ;
#261 = VERTEX_POINT ( 'NONE', #215 ) ;
#262 =( LENGTH_UNIT ( ) NAMED_UNIT ( * ) SI_UNIT ( .MILLI., .METRE. ) );
#263 = PRODUCT_RELATED_PRODUCT_CATEGORY ( 'detail', '', ( #300 ) ) ;
#264 = DIRECTION ( 'NONE',  ( 0.0000000000000000000, 1.000000000000000000, 0.0000000000000000000 ) ) ;
#265 = PRODUCT_DEFINITION_FORMATION_WITH_SPECIFIED_SOURCE ( 'ANY', '', #300, .NOT_KNOWN. ) ;
#266 = FACE_OUTER_BOUND ( 'NONE', #157, .T. ) ;
#267 = APPROVAL ( #113, 'UNSPECIFIED' ) ;
#268 = ORIENTED_EDGE ( 'NONE', *, *, #141, .T. ) ;
#269 = APPROVAL_ROLE ( '' ) ;
#270 = AXIS2_PLACEMENT_3D ( 'NONE', #275, #163, #42 ) ;
#271 = PERSON_AND_ORGANIZATION ( #116, #89 ) ;
#272 = EDGE_LOOP ( 'NONE', ( #291 ) ) ;
#273 = CONICAL_SURFACE ( 'NONE', #244, 1.570000000000000062, 0.5235987755983027014 ) ;
#274 = AXIS2_PLACEMENT_3D ( 'NONE', #28, #276, #161 ) ;
#275 = CARTESIAN_POINT ( 'NONE',  ( 3.533813300351021571E-14, -1.239494852489503481E-15, 10.12124355652983354 ) ) ;
#276 = DIRECTION ( 'NONE',  ( -3.491481338843133355E-15, 1.224646799147353207E-16, -1.000000000000000000 ) ) ;
#277 = AXIS2_PLACEMENT_3D ( 'NONE', #73, #47, #169 ) ;
#278 = DIRECTION ( 'NONE',  ( 3.491481338843133355E-15, -1.224646799147353207E-16, 1.000000000000000000 ) ) ;
#279 = FACE_BOUND ( 'NONE', #17, .T. ) ;
#280 = FACE_OUTER_BOUND ( 'NONE', #16, .T. ) ;
#281 = DIRECTION ( 'NONE',  ( 0.0000000000000000000, 1.000000000000000000, 0.0000000000000000000 ) ) ;
#282 = CC_DESIGN_SECURITY_CLASSIFICATION ( #99, ( #265 ) ) ;
#283 = APPROVAL_DATE_TIME ( #151, #18 ) ;
#284 = CC_DESIGN_PERSON_AND_ORGANIZATION_ASSIGNMENT ( #176, #61, ( #300 ) ) ;
#285 = DIRECTION ( 'NONE',  ( -3.491481338843133355E-15, 1.224646799147353207E-16, -1.000000000000000000 ) ) ;
#286 = VERTEX_POINT ( 'NONE', #98 ) ;
#287 = CC_DESIGN_APPROVAL ( #267, ( #99 ) ) ;
#288 = ADVANCED_FACE ( 'NONE', ( #126, #127 ), #85, .T. ) ;
#289 = PERSON_AND_ORGANIZATION ( #116, #89 ) ;
#290 = CLOSED_SHELL ( 'NONE', ( #82, #96, #288, #230, #180, #69, #296 ) ) ;
#291 = ORIENTED_EDGE ( 'NONE', *, *, #5, .F. ) ;
#292 = AXIS2_PLACEMENT_3D ( 'NONE', #205, #302, #90 ) ;
#293 = AXIS2_PLACEMENT_3D ( 'NONE', #242, #237, #150 ) ;
#294 = EDGE_LOOP ( 'NONE', ( #200 ) ) ;
#295 = DATE_AND_TIME ( #202, #13 ) ;
#296 = ADVANCED_FACE ( 'NONE', ( #280, #238 ), #103, .T. ) ;
#297 = ORIENTED_EDGE ( 'NONE', *, *, #258, .T. ) ;
#298 = DATE_TIME_ROLE ( 'classification_date' ) ;
#299 = APPROVAL_DATE_TIME ( #115, #267 ) ;
#300 = PRODUCT ( '321540', '321540', '', ( #14 ) ) ;
#301 = CLOSED_SHELL ( 'NONE', ( #23, #178, #53, #165, #8 ) ) ;
#302 = DIRECTION ( 'NONE',  ( -3.491481338843133355E-15, 1.224646799147353207E-16, -1.000000000000000000 ) ) ;
#303 = CARTESIAN_POINT ( 'NONE',  ( 2.444036937190193601E-13, -8.572527594031472993E-15, 70.00000000000000000 ) ) ;
ENDSEC;
END-ISO-10303-21;
