ISO-10303-21;
HEADER;
FILE_DESCRIPTION (( 'STEP AP203' ),
    '1' );
FILE_NAME ('321539.step',
    '2021-12-02T09:35:18',
    ( '' ),
    ( '' ),
    'SwSTEP 2.0',
    'SolidWorks 2019',
    '' );
FILE_SCHEMA (( 'CONFIG_CONTROL_DESIGN' ));
ENDSEC;

DATA;
#1 = CARTESIAN_POINT ( 'NONE',  ( 0.0000000000000000000, 0.0000000000000000000, 0.0000000000000000000 ) ) ;
#2 = AXIS2_PLACEMENT_3D ( 'NONE', #150, #152, #171 ) ;
#3 = DIRECTION ( 'NONE',  ( -3.491481338843133355E-15, 1.224646799147353207E-16, -1.000000000000000000 ) ) ;
#4 = ADVANCED_FACE ( 'NONE', ( #224 ), #19, .T. ) ;
#5 = DIRECTION ( 'NONE',  ( -3.491481338843133355E-15, 1.224646799147353207E-16, -1.000000000000000000 ) ) ;
#6 = MECHANICAL_CONTEXT ( 'NONE', #216, 'mechanical' ) ;
#7 = DIRECTION ( 'NONE',  ( -3.491481338843133355E-15, 1.224646799147353207E-16, -1.000000000000000000 ) ) ;
#8 = CARTESIAN_POINT ( 'NONE',  ( 3.530789588814744698E-14, 1.499999999999991562, 10.11258330249198956 ) ) ;
#9 = DIRECTION ( 'NONE',  ( -3.491481338843133355E-15, 1.224646799147353207E-16, -1.000000000000000000 ) ) ;
#10 = AXIS2_PLACEMENT_3D ( 'NONE', #236, #68, #207 ) ;
#11 = CONICAL_SURFACE ( 'NONE', #286, 1.564999999999999947, 0.5235987755982992597 ) ;
#12 = CC_DESIGN_APPROVAL ( #210, ( #153 ) ) ;
#13 = COORDINATED_UNIVERSAL_TIME_OFFSET ( 1, 0, .AHEAD. ) ;
#14 = SECURITY_CLASSIFICATION_LEVEL ( 'unclassified' ) ;
#15 = EDGE_LOOP ( 'NONE', ( #164 ) ) ;
#16 = PERSON_AND_ORGANIZATION_ROLE ( 'classification_officer' ) ;
#17 = ORIENTED_EDGE ( 'NONE', *, *, #70, .F. ) ;
#18 = AXIS2_PLACEMENT_3D ( 'NONE', #28, #26, #137 ) ;
#19 = PLANE ( 'NONE',  #118 ) ;
#20 = PERSON_AND_ORGANIZATION ( #230, #281 ) ;
#21 = ORIENTED_EDGE ( 'NONE', *, *, #259, .F. ) ;
#22 = CALENDAR_DATE ( 2021, 2, 12 ) ;
#23 = PRODUCT_DEFINITION ( 'UNKNOWN', '', #153, #278 ) ;
#24 = FACE_BOUND ( 'NONE', #15, .T. ) ;
#25 = COORDINATED_UNIVERSAL_TIME_OFFSET ( 1, 0, .AHEAD. ) ;
#26 = DIRECTION ( 'NONE',  ( -3.491481338843133355E-15, 1.224646799147353207E-16, -1.000000000000000000 ) ) ;
#27 = FACE_OUTER_BOUND ( 'NONE', #246, .T. ) ;
#28 = CARTESIAN_POINT ( 'NONE',  ( -5.622718351354496478E-31, 1.972184114200341276E-32, -1.610410540878768243E-16 ) ) ;
#29 = ADVANCED_FACE ( 'NONE', ( #177, #298 ), #250, .T. ) ;
#30 = CARTESIAN_POINT ( 'NONE',  ( -5.622718351354496478E-31, 1.972184114200341276E-32, -1.610410540878768243E-16 ) ) ;
#31 = CARTESIAN_POINT ( 'NONE',  ( 2.444036937190193601E-13, 1.199999999999992628, 70.00000000000000000 ) ) ;
#32 = PERSON_AND_ORGANIZATION_ROLE ( 'design_supplier' ) ;
#33 = CARTESIAN_POINT ( 'NONE',  ( 3.491481338843133355E-14, 1.564999999999998614, 10.00000000000000000 ) ) ;
#34 = CARTESIAN_POINT ( 'NONE',  ( 0.0000000000000000000, 0.0000000000000000000, 0.0000000000000000000 ) ) ;
#35 = DIRECTION ( 'NONE',  ( 0.0000000000000000000, 1.000000000000000000, 0.0000000000000000000 ) ) ;
#36 = EDGE_CURVE ( 'NONE', #69, #69, #163, .T. ) ;
#37 = PRODUCT_DEFINITION_SHAPE ( 'NONE', 'NONE',  #23 ) ;
#38 = EDGE_LOOP ( 'NONE', ( #21 ) ) ;
#39 = ORIENTED_EDGE ( 'NONE', *, *, #259, .T. ) ;
#40 = ADVANCED_FACE ( 'NONE', ( #143, #168 ), #48, .T. ) ;
#41 = ORIENTED_EDGE ( 'NONE', *, *, #173, .F. ) ;
#42 = DATE_TIME_ROLE ( 'classification_date' ) ;
#43 = CIRCLE ( 'NONE', #18, 1.314999999999999059 ) ;
#44 = ORIENTED_EDGE ( 'NONE', *, *, #183, .T. ) ;
#45 = DIRECTION ( 'NONE',  ( -3.491481338843133355E-15, 1.224646799147353207E-16, -1.000000000000000000 ) ) ;
#46 = FACE_BOUND ( 'NONE', #57, .T. ) ;
#47 = FACE_BOUND ( 'NONE', #157, .T. ) ;
#48 = CYLINDRICAL_SURFACE ( 'NONE', #253, 1.564999999999999947 ) ;
#49 = DIRECTION ( 'NONE',  ( 0.0000000000000000000, 1.000000000000000000, 0.0000000000000000000 ) ) ;
#50 = VERTEX_POINT ( 'NONE', #242 ) ;
#51 = DATE_AND_TIME ( #176, #188 ) ;
#52 = DIRECTION ( 'NONE',  ( -4.275831445896958607E-31, -1.000000000000000000, -1.224646799147353207E-16 ) ) ;
#53 = ADVANCED_FACE ( 'NONE', ( #114, #46 ), #98, .T. ) ;
#54 = PERSON_AND_ORGANIZATION ( #230, #281 ) ;
#55 = CIRCLE ( 'NONE', #135, 1.564999999999999947 ) ;
#56 = DATE_TIME_ROLE ( 'creation_date' ) ;
#57 = EDGE_LOOP ( 'NONE', ( #132 ) ) ;
#58 = PERSON_AND_ORGANIZATION ( #230, #281 ) ;
#59 = ADVANCED_FACE ( 'NONE', ( #144, #84 ), #159, .T. ) ;
#60 = CLOSED_SHELL ( 'NONE', ( #223, #192, #29, #59, #248 ) ) ;
#61 = CIRCLE ( 'NONE', #193, 1.564999999999999947 ) ;
#62 = CARTESIAN_POINT ( 'NONE',  ( 2.444036937190193601E-13, -8.572527594031472993E-15, 70.00000000000000000 ) ) ;
#63 = APPROVAL_DATE_TIME ( #273, #255 ) ;
#64 = CARTESIAN_POINT ( 'NONE',  ( 2.444036937190193601E-13, -8.572527594031472993E-15, 70.00000000000000000 ) ) ;
#65 = CYLINDRICAL_SURFACE ( 'NONE', #260, 1.499999999999996891 ) ;
#66 = CC_DESIGN_PERSON_AND_ORGANIZATION_ASSIGNMENT ( #54, #158, ( #153 ) ) ;
#67 = DIRECTION ( 'NONE',  ( 0.0000000000000000000, 1.000000000000000000, 0.0000000000000000000 ) ) ;
#68 = DIRECTION ( 'NONE',  ( -3.491481338843133355E-15, 1.224646799147353207E-16, -1.000000000000000000 ) ) ;
#69 = VERTEX_POINT ( 'NONE', #33 ) ;
#70 = EDGE_CURVE ( 'NONE', #73, #73, #275, .T. ) ;
#71 = PLANE ( 'NONE',  #107 ) ;
#72 = FACE_OUTER_BOUND ( 'NONE', #296, .T. ) ;
#73 = VERTEX_POINT ( 'NONE', #217 ) ;
#74 = AXIS2_PLACEMENT_3D ( 'NONE', #170, #120, #302 ) ;
#75 = AXIS2_PLACEMENT_3D ( 'NONE', #30, #234, #186 ) ;
#76 = ORIENTED_EDGE ( 'NONE', *, *, #36, .F. ) ;
#77 = CC_DESIGN_SECURITY_CLASSIFICATION ( #89, ( #153 ) ) ;
#78 = ORIENTED_EDGE ( 'NONE', *, *, #146, .T. ) ;
#79 = ORIENTED_EDGE ( 'NONE', *, *, #139, .F. ) ;
#80 = ADVANCED_FACE ( 'NONE', ( #279, #165 ), #65, .T. ) ;
#81 = EDGE_LOOP ( 'NONE', ( #203 ) ) ;
#82 = AXIS2_PLACEMENT_3D ( 'NONE', #90, #206, #67 ) ;
#83 = LOCAL_TIME ( 10, 35, 18.00000000000000000, #138 ) ;
#84 = FACE_BOUND ( 'NONE', #182, .T. ) ;
#85 = DIRECTION ( 'NONE',  ( -3.491481338843133355E-15, 1.224646799147353207E-16, -1.000000000000000000 ) ) ;
#86 = CC_DESIGN_PERSON_AND_ORGANIZATION_ASSIGNMENT ( #222, #32, ( #153 ) ) ;
#87 = APPLICATION_CONTEXT ( 'configuration controlled 3d designs of mechanical parts and assemblies' ) ;
#88 = CARTESIAN_POINT ( 'NONE',  ( 3.530789588814744698E-14, -1.238434277250778437E-15, 10.11258330249198956 ) ) ;
#89 = SECURITY_CLASSIFICATION ( '', '', #14 ) ;
#90 = CARTESIAN_POINT ( 'NONE',  ( 2.433562493173664138E-13, -8.535788190057053710E-15, 69.70000000000001705 ) ) ;
#91 = CARTESIAN_POINT ( 'NONE',  ( 8.728703347107827472E-16, -3.061616997868381169E-17, 0.2499999999999998335 ) ) ;
#92 =( LENGTH_UNIT ( ) NAMED_UNIT ( * ) SI_UNIT ( .MILLI., .METRE. ) );
#93 = MANIFOLD_SOLID_BREP ( 'Corps-Déplacer/Copier1[2]', #280 ) ;
#94 = LOCAL_TIME ( 10, 35, 18.00000000000000000, #13 ) ;
#95 = VERTEX_POINT ( 'NONE', #213 ) ;
#96 = APPLICATION_PROTOCOL_DEFINITION ( 'international standard', 'config_control_design', 1994, #216 ) ;
#97 = DIRECTION ( 'NONE',  ( -3.491481338843133355E-15, 1.224646799147353207E-16, -1.000000000000000000 ) ) ;
#98 = CONICAL_SURFACE ( 'NONE', #75, 1.314999999999999059, 0.7853981633974500554 ) ;
#99 = CONICAL_SURFACE ( 'NONE', #233, 1.564999999999999947, 0.5235987755982992597 ) ;
#100 = ADVANCED_FACE ( 'NONE', ( #27, #190 ), #122, .T. ) ;
#101 = DATE_AND_TIME ( #220, #94 ) ;
#102 = CARTESIAN_POINT ( 'NONE',  ( -2.811359175677248239E-31, 9.860920571001706382E-33, -8.052052704393841217E-17 ) ) ;
#103 = PERSON_AND_ORGANIZATION_ROLE ( 'creator' ) ;
#104 = EDGE_LOOP ( 'NONE', ( #76 ) ) ;
#105 = DATE_AND_TIME ( #178, #291 ) ;
#106 = EDGE_LOOP ( 'NONE', ( #110 ) ) ;
#107 = AXIS2_PLACEMENT_3D ( 'NONE', #266, #284, #52 ) ;
#108 = DIRECTION ( 'NONE',  ( 4.275831445896958607E-31, 1.000000000000000000, 1.224646799147353207E-16 ) ) ;
#109 = EDGE_CURVE ( 'NONE', #156, #156, #247, .T. ) ;
#110 = ORIENTED_EDGE ( 'NONE', *, *, #183, .F. ) ;
#111 = FACE_OUTER_BOUND ( 'NONE', #104, .T. ) ;
#112 = AXIS2_PLACEMENT_3D ( 'NONE', #169, #187, #282 ) ;
#113 = CC_DESIGN_PERSON_AND_ORGANIZATION_ASSIGNMENT ( #251, #16, ( #89 ) ) ;
#114 = FACE_OUTER_BOUND ( 'NONE', #272, .T. ) ;
#115 = DIRECTION ( 'NONE',  ( 0.0000000000000000000, 1.000000000000000000, 0.0000000000000000000 ) ) ;
#116 = DIRECTION ( 'NONE',  ( 3.691878487643263799E-31, 1.000000000000000000, 1.385561881770612682E-16 ) ) ;
#117 = EDGE_CURVE ( 'NONE', #264, #264, #218, .T. ) ;
#118 = AXIS2_PLACEMENT_3D ( 'NONE', #102, #292, #108 ) ;
#119 = APPROVAL_PERSON_ORGANIZATION ( #293, #200, #226 ) ;
#120 = DIRECTION ( 'NONE',  ( -3.491481338843133355E-15, 1.224646799147353207E-16, -1.000000000000000000 ) ) ;
#121 = PERSON_AND_ORGANIZATION_ROLE ( 'design_owner' ) ;
#122 = CONICAL_SURFACE ( 'NONE', #294, 1.200000000000001510, 0.7853981633974566057 ) ;
#123 =( NAMED_UNIT ( * ) PLANE_ANGLE_UNIT ( ) SI_UNIT ( $, .RADIAN. ) );
#124 = CC_DESIGN_PERSON_AND_ORGANIZATION_ASSIGNMENT ( #125, #121, ( #141 ) ) ;
#125 = PERSON_AND_ORGANIZATION ( #230, #281 ) ;
#126 = CARTESIAN_POINT ( 'NONE',  ( 8.728703347107833388E-16, 1.564999999999999947, 0.2500000000000000555 ) ) ;
#127 = ADVANCED_FACE ( 'NONE', ( #238 ), #140, .F. ) ;
#128 = EDGE_LOOP ( 'NONE', ( #198 ) ) ;
#129 = APPROVAL_DATE_TIME ( #101, #200 ) ;
#130 = ORIENTED_EDGE ( 'NONE', *, *, #36, .T. ) ;
#131 = APPROVAL_STATUS ( 'not_yet_approved' ) ;
#132 = ORIENTED_EDGE ( 'NONE', *, *, #146, .F. ) ;
#133 = PERSON_AND_ORGANIZATION ( #230, #281 ) ;
#134 = EDGE_LOOP ( 'NONE', ( #39 ) ) ;
#135 = AXIS2_PLACEMENT_3D ( 'NONE', #91, #276, #116 ) ;
#136 = EDGE_LOOP ( 'NONE', ( #299 ) ) ;
#137 = DIRECTION ( 'NONE',  ( 4.275831445896959482E-31, 1.000000000000000000, 1.224646799147353207E-16 ) ) ;
#138 = COORDINATED_UNIVERSAL_TIME_OFFSET ( 1, 0, .AHEAD. ) ;
#139 = EDGE_CURVE ( 'NONE', #194, #194, #265, .T. ) ;
#140 = PLANE ( 'NONE',  #112 ) ;
#141 = PRODUCT ( '321539', '321539', '', ( #6 ) ) ;
#142 = CC_DESIGN_APPROVAL ( #200, ( #23 ) ) ;
#143 = FACE_OUTER_BOUND ( 'NONE', #270, .T. ) ;
#144 = FACE_OUTER_BOUND ( 'NONE', #229, .T. ) ;
#145 = DIRECTION ( 'NONE',  ( 0.0000000000000000000, 1.000000000000000000, 0.0000000000000000000 ) ) ;
#146 = EDGE_CURVE ( 'NONE', #95, #95, #43, .T. ) ;
#147 = LOCAL_TIME ( 10, 35, 18.00000000000000000, #25 ) ;
#148 = APPROVAL_PERSON_ORGANIZATION ( #133, #210, #288 ) ;
#149 = CARTESIAN_POINT ( 'NONE',  ( 2.444036937190193601E-13, 1.199999999999992628, 70.00000000000000000 ) ) ;
#150 = CARTESIAN_POINT ( 'NONE',  ( 3.530789588814744698E-14, -1.238434277250778437E-15, 10.11258330249198956 ) ) ;
#151 = PRODUCT_RELATED_PRODUCT_CATEGORY ( 'detail', '', ( #141 ) ) ;
#152 = DIRECTION ( 'NONE',  ( -3.491481338843133355E-15, 1.224646799147353207E-16, -1.000000000000000000 ) ) ;
#153 = PRODUCT_DEFINITION_FORMATION_WITH_SPECIFIED_SOURCE ( 'ANY', '', #141, .NOT_KNOWN. ) ;
#154 = CARTESIAN_POINT ( 'NONE',  ( 2.444036937190193601E-13, -8.572527594031472993E-15, 70.00000000000000000 ) ) ;
#155 = APPROVAL_DATE_TIME ( #51, #210 ) ;
#156 = VERTEX_POINT ( 'NONE', #149 ) ;
#157 = EDGE_LOOP ( 'NONE', ( #227 ) ) ;
#158 = PERSON_AND_ORGANIZATION_ROLE ( 'creator' ) ;
#159 = CONICAL_SURFACE ( 'NONE', #196, 1.200000000000001510, 0.7853981633974566057 ) ;
#160 = EDGE_LOOP ( 'NONE', ( #78 ) ) ;
#161 = ORIENTED_EDGE ( 'NONE', *, *, #215, .F. ) ;
#162 = CALENDAR_DATE ( 2021, 2, 12 ) ;
#163 = CIRCLE ( 'NONE', #239, 1.564999999999999947 ) ;
#164 = ORIENTED_EDGE ( 'NONE', *, *, #117, .T. ) ;
#165 = FACE_OUTER_BOUND ( 'NONE', #136, .T. ) ;
#166 = APPROVAL_ROLE ( '' ) ;
#167 = CC_DESIGN_DATE_AND_TIME_ASSIGNMENT ( #228, #42, ( #89 ) ) ;
#168 = FACE_OUTER_BOUND ( 'NONE', #106, .T. ) ;
#169 = CARTESIAN_POINT ( 'NONE',  ( 2.444036937190193601E-13, -8.572527594031472993E-15, 70.00000000000000000 ) ) ;
#170 = CARTESIAN_POINT ( 'NONE',  ( 2.433562493173664138E-13, -8.535788190057053710E-15, 69.70000000000001705 ) ) ;
#171 = DIRECTION ( 'NONE',  ( 0.0000000000000000000, 1.000000000000000000, 0.0000000000000000000 ) ) ;
#172 = CC_DESIGN_APPROVAL ( #255, ( #89 ) ) ;
#173 = EDGE_CURVE ( 'NONE', #50, #50, #61, .T. ) ;
#174 = CARTESIAN_POINT ( 'NONE',  ( 2.444036937190193601E-13, 8.998558695971026591E-33, 70.00000000000000000 ) ) ;
#175 = DIRECTION ( 'NONE',  ( 0.0000000000000000000, 1.000000000000000000, 0.0000000000000000000 ) ) ;
#176 = CALENDAR_DATE ( 2021, 2, 12 ) ;
#177 = FACE_OUTER_BOUND ( 'NONE', #81, .T. ) ;
#178 = CALENDAR_DATE ( 2021, 2, 12 ) ;
#179 = AXIS2_PLACEMENT_3D ( 'NONE', #174, #7, #240 ) ;
#180 = CARTESIAN_POINT ( 'NONE',  ( 3.491481338843133355E-14, -1.224646799147353256E-15, 10.00000000000000000 ) ) ;
#181 = ORIENTED_EDGE ( 'NONE', *, *, #173, .T. ) ;
#182 = EDGE_LOOP ( 'NONE', ( #268 ) ) ;
#183 = EDGE_CURVE ( 'NONE', #287, #287, #55, .T. ) ;
#184 = EDGE_LOOP ( 'NONE', ( #252 ) ) ;
#185 = CARTESIAN_POINT ( 'NONE',  ( 0.0000000000000000000, 0.0000000000000000000, 0.0000000000000000000 ) ) ;
#186 = DIRECTION ( 'NONE',  ( -4.275831445896959482E-31, -1.000000000000000000, -1.224646799147353207E-16 ) ) ;
#187 = DIRECTION ( 'NONE',  ( -3.491481338843133355E-15, 1.224646799147353207E-16, -1.000000000000000000 ) ) ;
#188 = LOCAL_TIME ( 10, 35, 18.00000000000000000, #243 ) ;
#189 = ADVANCED_FACE ( 'NONE', ( #47, #208 ), #11, .T. ) ;
#190 = FACE_BOUND ( 'NONE', #134, .T. ) ;
#191 = PLANE ( 'NONE',  #179 ) ;
#192 = ADVANCED_FACE ( 'NONE', ( #24, #111 ), #99, .T. ) ;
#193 = AXIS2_PLACEMENT_3D ( 'NONE', #209, #5, #261 ) ;
#194 = VERTEX_POINT ( 'NONE', #241 ) ;
#195 = VERTEX_POINT ( 'NONE', #31 ) ;
#196 = AXIS2_PLACEMENT_3D ( 'NONE', #62, #85, #257 ) ;
#197 = CC_DESIGN_DATE_AND_TIME_ASSIGNMENT ( #105, #56, ( #23 ) ) ;
#198 = ORIENTED_EDGE ( 'NONE', *, *, #70, .T. ) ;
#199 = COORDINATED_UNIVERSAL_TIME_OFFSET ( 1, 0, .AHEAD. ) ;
#200 = APPROVAL ( #131, 'UNSPECIFIED' ) ;
#201 = CARTESIAN_POINT ( 'NONE',  ( 0.0000000000000000000, 0.0000000000000000000, 0.0000000000000000000 ) ) ;
#202 = AXIS2_PLACEMENT_3D ( 'NONE', #201, #274, #256 ) ;
#203 = ORIENTED_EDGE ( 'NONE', *, *, #117, .F. ) ;
#204 = EDGE_LOOP ( 'NONE', ( #41 ) ) ;
#205 = CARTESIAN_POINT ( 'NONE',  ( 3.491481338843133355E-14, -1.224646799147353256E-15, 10.00000000000000000 ) ) ;
#206 = DIRECTION ( 'NONE',  ( -3.491481338843133355E-15, 1.224646799147353207E-16, -1.000000000000000000 ) ) ;
#207 = DIRECTION ( 'NONE',  ( 0.0000000000000000000, 1.000000000000000000, 0.0000000000000000000 ) ) ;
#208 = FACE_OUTER_BOUND ( 'NONE', #204, .T. ) ;
#209 = CARTESIAN_POINT ( 'NONE',  ( 3.491481338843133355E-14, -1.224646799147353256E-15, 10.00000000000000000 ) ) ;
#210 = APPROVAL ( #232, 'UNSPECIFIED' ) ;
#211 = DIRECTION ( 'NONE',  ( 0.0000000000000000000, 0.0000000000000000000, 1.000000000000000000 ) ) ;
#212 = APPROVAL_PERSON_ORGANIZATION ( #20, #255, #166 ) ;
#213 = CARTESIAN_POINT ( 'NONE',  ( 8.552847072295026068E-47, 1.314999999999999059, 0.0000000000000000000 ) ) ;
#214 = VERTEX_POINT ( 'NONE', #8 ) ;
#215 = EDGE_CURVE ( 'NONE', #214, #214, #295, .T. ) ;
#216 = APPLICATION_CONTEXT ( 'configuration controlled 3d designs of mechanical parts and assemblies' ) ;
#217 = CARTESIAN_POINT ( 'NONE',  ( 2.433562493173664138E-13, 1.499999999999992673, 69.70000000000001705 ) ) ;
#218 = CIRCLE ( 'NONE', #300, 1.499999999999992895 ) ;
#219 =( GEOMETRIC_REPRESENTATION_CONTEXT ( 3 ) GLOBAL_UNCERTAINTY_ASSIGNED_CONTEXT ( ( #237 ) ) GLOBAL_UNIT_ASSIGNED_CONTEXT ( ( #92, #123, #285 ) ) REPRESENTATION_CONTEXT ( 'NONE', 'WORKASPACE' ) );
#220 = CALENDAR_DATE ( 2021, 2, 12 ) ;
#221 = EDGE_LOOP ( 'NONE', ( #161 ) ) ;
#222 = PERSON_AND_ORGANIZATION ( #230, #281 ) ;
#223 = ADVANCED_FACE ( 'NONE', ( #72 ), #71, .F. ) ;
#224 = FACE_OUTER_BOUND ( 'NONE', #160, .T. ) ;
#225 = APPROVAL_STATUS ( 'not_yet_approved' ) ;
#226 = APPROVAL_ROLE ( '' ) ;
#227 = ORIENTED_EDGE ( 'NONE', *, *, #215, .T. ) ;
#228 = DATE_AND_TIME ( #162, #147 ) ;
#229 = EDGE_LOOP ( 'NONE', ( #17 ) ) ;
#230 = PERSON ( 'UNSPECIFIED', 'UNSPECIFIED', 'UNSPECIFIED', ('UNSPECIFIED'), ('UNSPECIFIED'), ('UNSPECIFIED') ) ;
#231 = DIRECTION ( 'NONE',  ( 0.0000000000000000000, 1.000000000000000000, 0.0000000000000000000 ) ) ;
#232 = APPROVAL_STATUS ( 'not_yet_approved' ) ;
#233 = AXIS2_PLACEMENT_3D ( 'NONE', #301, #9, #175 ) ;
#234 = DIRECTION ( 'NONE',  ( 3.491481338843133355E-15, -1.224646799147353207E-16, 1.000000000000000000 ) ) ;
#235 = DIRECTION ( 'NONE',  ( 4.275831445896958607E-31, 1.000000000000000000, 1.224646799147353454E-16 ) ) ;
#236 = CARTESIAN_POINT ( 'NONE',  ( 2.444036937190193601E-13, -8.572527594031472993E-15, 70.00000000000000000 ) ) ;
#237 = UNCERTAINTY_MEASURE_WITH_UNIT (LENGTH_MEASURE( 1.000000000000000082E-05 ), #92, 'distance_accuracy_value', 'NONE');
#238 = FACE_OUTER_BOUND ( 'NONE', #38, .T. ) ;
#239 = AXIS2_PLACEMENT_3D ( 'NONE', #180, #3, #115 ) ;
#240 = DIRECTION ( 'NONE',  ( 4.275831445896958607E-31, 1.000000000000000000, 1.224646799147353207E-16 ) ) ;
#241 = CARTESIAN_POINT ( 'NONE',  ( 2.433562493173664138E-13, 1.499999999999992673, 69.70000000000001705 ) ) ;
#242 = CARTESIAN_POINT ( 'NONE',  ( 3.491481338843133355E-14, 1.564999999999998614, 10.00000000000000000 ) ) ;
#243 = COORDINATED_UNIVERSAL_TIME_OFFSET ( 1, 0, .AHEAD. ) ;
#244 = CARTESIAN_POINT ( 'NONE',  ( 3.530789588814744698E-14, 1.499999999999991562, 10.11258330249198956 ) ) ;
#245 = APPLICATION_PROTOCOL_DEFINITION ( 'international standard', 'config_control_design', 1994, #87 ) ;
#246 = EDGE_LOOP ( 'NONE', ( #79 ) ) ;
#247 = CIRCLE ( 'NONE', #10, 1.200000000000001510 ) ;
#248 = ADVANCED_FACE ( 'NONE', ( #290 ), #191, .F. ) ;
#249 = AXIS2_PLACEMENT_3D ( 'NONE', #154, #97, #35 ) ;
#250 = CYLINDRICAL_SURFACE ( 'NONE', #202, 1.499999999999996891 ) ;
#251 = PERSON_AND_ORGANIZATION ( #230, #281 ) ;
#252 = ORIENTED_EDGE ( 'NONE', *, *, #109, .F. ) ;
#253 = AXIS2_PLACEMENT_3D ( 'NONE', #185, #277, #262 ) ;
#254 = AXIS2_PLACEMENT_3D ( 'NONE', #34, #211, #289 ) ;
#255 = APPROVAL ( #225, 'UNSPECIFIED' ) ;
#256 = DIRECTION ( 'NONE',  ( 4.275831445896958607E-31, 1.000000000000000000, 1.224646799147353454E-16 ) ) ;
#257 = DIRECTION ( 'NONE',  ( 0.0000000000000000000, 1.000000000000000000, 0.0000000000000000000 ) ) ;
#258 = DIRECTION ( 'NONE',  ( -3.491481338843133355E-15, 1.224646799147353207E-16, -1.000000000000000000 ) ) ;
#259 = EDGE_CURVE ( 'NONE', #195, #195, #269, .T. ) ;
#260 = AXIS2_PLACEMENT_3D ( 'NONE', #1, #283, #235 ) ;
#261 = DIRECTION ( 'NONE',  ( 0.0000000000000000000, 1.000000000000000000, 0.0000000000000000000 ) ) ;
#262 = DIRECTION ( 'NONE',  ( 4.275831445896958607E-31, 1.000000000000000000, 1.224646799147353207E-16 ) ) ;
#263 = DIRECTION ( 'NONE',  ( -3.491481338843133355E-15, 1.224646799147353207E-16, -1.000000000000000000 ) ) ;
#264 = VERTEX_POINT ( 'NONE', #244 ) ;
#265 = CIRCLE ( 'NONE', #74, 1.500000000000001110 ) ;
#266 = CARTESIAN_POINT ( 'NONE',  ( 3.491481338843133355E-14, 1.173562029932901608E-32, 10.00000000000000000 ) ) ;
#267 = CC_DESIGN_PERSON_AND_ORGANIZATION_ASSIGNMENT ( #58, #103, ( #23 ) ) ;
#268 = ORIENTED_EDGE ( 'NONE', *, *, #109, .T. ) ;
#269 = CIRCLE ( 'NONE', #249, 1.200000000000001510 ) ;
#270 = EDGE_LOOP ( 'NONE', ( #181 ) ) ;
#271 = ADVANCED_BREP_SHAPE_REPRESENTATION ( '321539', ( #303, #93, #254 ), #219 ) ;
#272 = EDGE_LOOP ( 'NONE', ( #44 ) ) ;
#273 = DATE_AND_TIME ( #22, #83 ) ;
#274 = DIRECTION ( 'NONE',  ( -3.491481338843133355E-15, 1.224646799147353207E-16, -1.000000000000000000 ) ) ;
#275 = CIRCLE ( 'NONE', #82, 1.500000000000001110 ) ;
#276 = DIRECTION ( 'NONE',  ( -3.491481338843133355E-15, 1.224646799147353207E-16, -1.000000000000000000 ) ) ;
#277 = DIRECTION ( 'NONE',  ( -3.491481338843133355E-15, 1.224646799147353207E-16, -1.000000000000000000 ) ) ;
#278 = DESIGN_CONTEXT ( 'detailed design', #87, 'design' ) ;
#279 = FACE_OUTER_BOUND ( 'NONE', #221, .T. ) ;
#280 = CLOSED_SHELL ( 'NONE', ( #189, #40, #53, #4, #127, #100, #80 ) ) ;
#281 = ORGANIZATION ( 'UNSPECIFIED', 'UNSPECIFIED', '' ) ;
#282 = DIRECTION ( 'NONE',  ( 4.275831445896958607E-31, 1.000000000000000000, 1.224646799147353207E-16 ) ) ;
#283 = DIRECTION ( 'NONE',  ( -3.491481338843133355E-15, 1.224646799147353207E-16, -1.000000000000000000 ) ) ;
#284 = DIRECTION ( 'NONE',  ( 3.491481338843133355E-15, -1.224646799147353207E-16, 1.000000000000000000 ) ) ;
#285 =( NAMED_UNIT ( * ) SI_UNIT ( $, .STERADIAN. ) SOLID_ANGLE_UNIT ( ) );
#286 = AXIS2_PLACEMENT_3D ( 'NONE', #205, #263, #231 ) ;
#287 = VERTEX_POINT ( 'NONE', #126 ) ;
#288 = APPROVAL_ROLE ( '' ) ;
#289 = DIRECTION ( 'NONE',  ( 1.000000000000000000, 0.0000000000000000000, 0.0000000000000000000 ) ) ;
#290 = FACE_OUTER_BOUND ( 'NONE', #184, .T. ) ;
#291 = LOCAL_TIME ( 10, 35, 18.00000000000000000, #199 ) ;
#292 = DIRECTION ( 'NONE',  ( -3.491481338843133355E-15, 1.224646799147353207E-16, -1.000000000000000000 ) ) ;
#293 = PERSON_AND_ORGANIZATION ( #230, #281 ) ;
#294 = AXIS2_PLACEMENT_3D ( 'NONE', #64, #258, #49 ) ;
#295 = CIRCLE ( 'NONE', #2, 1.499999999999992895 ) ;
#296 = EDGE_LOOP ( 'NONE', ( #130 ) ) ;
#297 = SHAPE_DEFINITION_REPRESENTATION ( #37, #271 ) ;
#298 = FACE_OUTER_BOUND ( 'NONE', #128, .T. ) ;
#299 = ORIENTED_EDGE ( 'NONE', *, *, #139, .T. ) ;
#300 = AXIS2_PLACEMENT_3D ( 'NONE', #88, #45, #145 ) ;
#301 = CARTESIAN_POINT ( 'NONE',  ( 3.491481338843133355E-14, -1.224646799147353256E-15, 10.00000000000000000 ) ) ;
#302 = DIRECTION ( 'NONE',  ( 0.0000000000000000000, 1.000000000000000000, 0.0000000000000000000 ) ) ;
#303 = MANIFOLD_SOLID_BREP ( 'Corps-Déplacer/Copier1[1]', #60 ) ;
ENDSEC;
END-ISO-10303-21;
