ISO-10303-21;
HEADER;
FILE_DESCRIPTION (( 'STEP AP203' ),
    '1' );
FILE_NAME ('321538.step',
    '2021-12-02T09:35:18',
    ( '' ),
    ( '' ),
    'SwSTEP 2.0',
    'SolidWorks 2019',
    '' );
FILE_SCHEMA (( 'CONFIG_CONTROL_DESIGN' ));
ENDSEC;

DATA;
#1 = DIRECTION ( 'NONE',  ( -3.491481338843133355E-15, 1.224646799147353207E-16, -1.000000000000000000 ) ) ;
#2 = CC_DESIGN_PERSON_AND_ORGANIZATION_ASSIGNMENT ( #197, #79, ( #288 ) ) ;
#3 = CC_DESIGN_APPROVAL ( #239, ( #200 ) ) ;
#4 = DIRECTION ( 'NONE',  ( -3.491481338843133355E-15, 1.224646799147353207E-16, -1.000000000000000000 ) ) ;
#5 = CARTESIAN_POINT ( 'NONE',  ( 2.444036937190193601E-13, 8.998558695971026591E-33, 70.00000000000000000 ) ) ;
#6 = FACE_OUTER_BOUND ( 'NONE', #201, .T. ) ;
#7 = VERTEX_POINT ( 'NONE', #193 ) ;
#8 = VERTEX_POINT ( 'NONE', #212 ) ;
#9 = FACE_OUTER_BOUND ( 'NONE', #84, .T. ) ;
#10 = CC_DESIGN_SECURITY_CLASSIFICATION ( #288, ( #38 ) ) ;
#11 = APPLICATION_PROTOCOL_DEFINITION ( 'international standard', 'config_control_design', 1994, #40 ) ;
#12 = EDGE_LOOP ( 'NONE', ( #57 ) ) ;
#13 = CALENDAR_DATE ( 2021, 2, 12 ) ;
#14 = ADVANCED_FACE ( 'NONE', ( #254 ), #92, .F. ) ;
#15 = EDGE_LOOP ( 'NONE', ( #114 ) ) ;
#16 = SHAPE_DEFINITION_REPRESENTATION ( #80, #225 ) ;
#17 = ORIENTED_EDGE ( 'NONE', *, *, #68, .F. ) ;
#18 = CIRCLE ( 'NONE', #137, 1.500000000000001110 ) ;
#19 = PERSON_AND_ORGANIZATION ( #62, #181 ) ;
#20 = ORIENTED_EDGE ( 'NONE', *, *, #68, .T. ) ;
#21 = CALENDAR_DATE ( 2021, 2, 12 ) ;
#22 = FACE_OUTER_BOUND ( 'NONE', #112, .T. ) ;
#23 = DIRECTION ( 'NONE',  ( 0.0000000000000000000, 1.000000000000000000, 0.0000000000000000000 ) ) ;
#24 = CARTESIAN_POINT ( 'NONE',  ( 2.444036937190193601E-13, -8.572527594031472993E-15, 70.00000000000000000 ) ) ;
#25 = DIRECTION ( 'NONE',  ( 3.703711431513915136E-31, 1.000000000000000000, 1.390002785237826128E-16 ) ) ;
#26 = DIRECTION ( 'NONE',  ( -3.491481338843133355E-15, 1.224646799147353207E-16, -1.000000000000000000 ) ) ;
#27 = CC_DESIGN_DATE_AND_TIME_ASSIGNMENT ( #164, #115, ( #288 ) ) ;
#28 = CARTESIAN_POINT ( 'NONE',  ( 2.444036937190193601E-13, -8.572527594031472993E-15, 70.00000000000000000 ) ) ;
#29 = VERTEX_POINT ( 'NONE', #195 ) ;
#30 = COORDINATED_UNIVERSAL_TIME_OFFSET ( 1, 0, .AHEAD. ) ;
#31 = FACE_OUTER_BOUND ( 'NONE', #55, .T. ) ;
#32 = DIRECTION ( 'NONE',  ( -3.491481338843133355E-15, 1.224646799147353207E-16, -1.000000000000000000 ) ) ;
#33 = EDGE_CURVE ( 'NONE', #34, #34, #256, .T. ) ;
#34 = VERTEX_POINT ( 'NONE', #285 ) ;
#35 = ORIENTED_EDGE ( 'NONE', *, *, #194, .T. ) ;
#36 = PERSON_AND_ORGANIZATION ( #62, #181 ) ;
#37 = EDGE_LOOP ( 'NONE', ( #179 ) ) ;
#38 = PRODUCT_DEFINITION_FORMATION_WITH_SPECIFIED_SOURCE ( 'ANY', '', #299, .NOT_KNOWN. ) ;
#39 = EDGE_LOOP ( 'NONE', ( #132 ) ) ;
#40 = APPLICATION_CONTEXT ( 'configuration controlled 3d designs of mechanical parts and assemblies' ) ;
#41 = DIRECTION ( 'NONE',  ( 4.275831445896958607E-31, 1.000000000000000000, 1.224646799147353207E-16 ) ) ;
#42 = APPROVAL_STATUS ( 'not_yet_approved' ) ;
#43 = FACE_OUTER_BOUND ( 'NONE', #15, .T. ) ;
#44 = CC_DESIGN_PERSON_AND_ORGANIZATION_ASSIGNMENT ( #155, #243, ( #200 ) ) ;
#45 = FACE_BOUND ( 'NONE', #130, .T. ) ;
#46 = CARTESIAN_POINT ( 'NONE',  ( 8.728703347107827472E-16, -3.061616997868381169E-17, 0.2499999999999998335 ) ) ;
#47 = CARTESIAN_POINT ( 'NONE',  ( -5.601339194125011763E-31, 1.964685315287032207E-32, -1.604287306883031614E-16 ) ) ;
#48 = EDGE_CURVE ( 'NONE', #8, #8, #215, .T. ) ;
#49 = VERTEX_POINT ( 'NONE', #169 ) ;
#50 = FACE_OUTER_BOUND ( 'NONE', #37, .T. ) ;
#51 = CYLINDRICAL_SURFACE ( 'NONE', #229, 1.499999999999996891 ) ;
#52 = CYLINDRICAL_SURFACE ( 'NONE', #202, 1.499999999999996891 ) ;
#53 = CALENDAR_DATE ( 2021, 2, 12 ) ;
#54 = DIRECTION ( 'NONE',  ( -3.491481338843133355E-15, 1.224646799147353207E-16, -1.000000000000000000 ) ) ;
#55 = EDGE_LOOP ( 'NONE', ( #158 ) ) ;
#56 = DATE_AND_TIME ( #53, #295 ) ;
#57 = ORIENTED_EDGE ( 'NONE', *, *, #48, .T. ) ;
#58 = ORIENTED_EDGE ( 'NONE', *, *, #267, .F. ) ;
#59 = SECURITY_CLASSIFICATION_LEVEL ( 'unclassified' ) ;
#60 = EDGE_LOOP ( 'NONE', ( #209 ) ) ;
#61 = DATE_AND_TIME ( #13, #175 ) ;
#62 = PERSON ( 'UNSPECIFIED', 'UNSPECIFIED', 'UNSPECIFIED', ('UNSPECIFIED'), ('UNSPECIFIED'), ('UNSPECIFIED') ) ;
#63 = CONICAL_SURFACE ( 'NONE', #235, 1.560000000000000053, 0.5235987755983025904 ) ;
#64 = AXIS2_PLACEMENT_3D ( 'NONE', #47, #26, #123 ) ;
#65 = DIRECTION ( 'NONE',  ( -3.491481338843133355E-15, 1.224646799147353207E-16, -1.000000000000000000 ) ) ;
#66 = APPROVAL_DATE_TIME ( #224, #152 ) ;
#67 = DIRECTION ( 'NONE',  ( 3.491481338843133355E-15, -1.224646799147353207E-16, 1.000000000000000000 ) ) ;
#68 = EDGE_CURVE ( 'NONE', #29, #29, #160, .T. ) ;
#69 = DIRECTION ( 'NONE',  ( -4.275831445896958607E-31, -1.000000000000000000, -1.224646799147353207E-16 ) ) ;
#70 = DIRECTION ( 'NONE',  ( 0.0000000000000000000, 1.000000000000000000, 0.0000000000000000000 ) ) ;
#71 = DIRECTION ( 'NONE',  ( -3.491481338843133355E-15, 1.224646799147353207E-16, -1.000000000000000000 ) ) ;
#72 = CARTESIAN_POINT ( 'NONE',  ( 2.444036937190193601E-13, 1.199999999999992628, 70.00000000000000000 ) ) ;
#73 = DIRECTION ( 'NONE',  ( -3.491481338843133355E-15, 1.224646799147353207E-16, -1.000000000000000000 ) ) ;
#74 = VERTEX_POINT ( 'NONE', #214 ) ;
#75 = FACE_OUTER_BOUND ( 'NONE', #60, .T. ) ;
#76 = DIRECTION ( 'NONE',  ( -3.491481338843133355E-15, 1.224646799147353207E-16, -1.000000000000000000 ) ) ;
#77 = AXIS2_PLACEMENT_3D ( 'NONE', #96, #119, #258 ) ;
#78 = ORIENTED_EDGE ( 'NONE', *, *, #284, .T. ) ;
#79 = PERSON_AND_ORGANIZATION_ROLE ( 'classification_officer' ) ;
#80 = PRODUCT_DEFINITION_SHAPE ( 'NONE', 'NONE',  #200 ) ;
#81 = AXIS2_PLACEMENT_3D ( 'NONE', #5, #186, #41 ) ;
#82 = ORIENTED_EDGE ( 'NONE', *, *, #176, .T. ) ;
#83 = AXIS2_PLACEMENT_3D ( 'NONE', #28, #32, #173 ) ;
#84 = EDGE_LOOP ( 'NONE', ( #289 ) ) ;
#85 = PERSON_AND_ORGANIZATION_ROLE ( 'design_supplier' ) ;
#86 = ADVANCED_FACE ( 'NONE', ( #187, #279 ), #63, .T. ) ;
#87 = EDGE_LOOP ( 'NONE', ( #108 ) ) ;
#88 = AXIS2_PLACEMENT_3D ( 'NONE', #90, #65, #234 ) ;
#89 = AXIS2_PLACEMENT_3D ( 'NONE', #168, #1, #261 ) ;
#90 = CARTESIAN_POINT ( 'NONE',  ( 2.444036937190193601E-13, -8.572527594031472993E-15, 70.00000000000000000 ) ) ;
#91 = DIRECTION ( 'NONE',  ( 0.0000000000000000000, 1.000000000000000000, 0.0000000000000000000 ) ) ;
#92 = PLANE ( 'NONE',  #81 ) ;
#93 = CC_DESIGN_PERSON_AND_ORGANIZATION_ASSIGNMENT ( #292, #85, ( #38 ) ) ;
#94 = AXIS2_PLACEMENT_3D ( 'NONE', #116, #203, #301 ) ;
#95 = CARTESIAN_POINT ( 'NONE',  ( -5.601339194125011763E-31, 1.964685315287032207E-32, -1.604287306883031614E-16 ) ) ;
#96 = CARTESIAN_POINT ( 'NONE',  ( 3.527765877278467194E-14, -1.237373702012053393E-15, 10.10392304845414380 ) ) ;
#97 = MANIFOLD_SOLID_BREP ( 'Corps-Déplacer/Copier1[1]', #277 ) ;
#98 = CARTESIAN_POINT ( 'NONE',  ( -2.800669597062505882E-31, 9.823426576435161036E-33, -8.021436534415158071E-17 ) ) ;
#99 = VERTEX_POINT ( 'NONE', #262 ) ;
#100 = ADVANCED_FACE ( 'NONE', ( #145 ), #204, .F. ) ;
#101 =( NAMED_UNIT ( * ) SI_UNIT ( $, .STERADIAN. ) SOLID_ANGLE_UNIT ( ) );
#102 = DIRECTION ( 'NONE',  ( 0.0000000000000000000, 1.000000000000000000, 0.0000000000000000000 ) ) ;
#103 = CIRCLE ( 'NONE', #117, 1.560000000000000053 ) ;
#104 = AXIS2_PLACEMENT_3D ( 'NONE', #260, #189, #120 ) ;
#105 = APPROVAL_PERSON_ORGANIZATION ( #159, #217, #249 ) ;
#106 = MECHANICAL_CONTEXT ( 'NONE', #40, 'mechanical' ) ;
#107 = DIRECTION ( 'NONE',  ( 0.0000000000000000000, 0.0000000000000000000, 1.000000000000000000 ) ) ;
#108 = ORIENTED_EDGE ( 'NONE', *, *, #284, .F. ) ;
#109 = APPLICATION_PROTOCOL_DEFINITION ( 'international standard', 'config_control_design', 1994, #126 ) ;
#110 = EDGE_LOOP ( 'NONE', ( #198 ) ) ;
#111 = CONICAL_SURFACE ( 'NONE', #241, 1.560000000000000053, 0.5235987755983025904 ) ;
#112 = EDGE_LOOP ( 'NONE', ( #17 ) ) ;
#113 = APPROVAL_STATUS ( 'not_yet_approved' ) ;
#114 = ORIENTED_EDGE ( 'NONE', *, *, #245, .T. ) ;
#115 = DATE_TIME_ROLE ( 'classification_date' ) ;
#116 = CARTESIAN_POINT ( 'NONE',  ( 0.0000000000000000000, 0.0000000000000000000, 0.0000000000000000000 ) ) ;
#117 = AXIS2_PLACEMENT_3D ( 'NONE', #143, #140, #23 ) ;
#118 = FACE_BOUND ( 'NONE', #12, .T. ) ;
#119 = DIRECTION ( 'NONE',  ( -3.491481338843133355E-15, 1.224646799147353207E-16, -1.000000000000000000 ) ) ;
#120 = DIRECTION ( 'NONE',  ( 0.0000000000000000000, 1.000000000000000000, 0.0000000000000000000 ) ) ;
#121 = AXIS2_PLACEMENT_3D ( 'NONE', #46, #207, #25 ) ;
#122 = CC_DESIGN_APPROVAL ( #152, ( #38 ) ) ;
#123 = DIRECTION ( 'NONE',  ( 4.275831445896958607E-31, 1.000000000000000000, 1.224646799147353207E-16 ) ) ;
#124 =( LENGTH_UNIT ( ) NAMED_UNIT ( * ) SI_UNIT ( .MILLI., .METRE. ) );
#125 = VERTEX_POINT ( 'NONE', #72 ) ;
#126 = APPLICATION_CONTEXT ( 'configuration controlled 3d designs of mechanical parts and assemblies' ) ;
#127 = DIRECTION ( 'NONE',  ( 4.275831445896958607E-31, 1.000000000000000000, 1.224646799147353207E-16 ) ) ;
#128 = CARTESIAN_POINT ( 'NONE',  ( 3.491481338843133355E-14, 1.559999999999998721, 10.00000000000000000 ) ) ;
#129 = CONICAL_SURFACE ( 'NONE', #216, 1.200000000000001510, 0.7853981633974566057 ) ;
#130 = EDGE_LOOP ( 'NONE', ( #196 ) ) ;
#131 = PERSON_AND_ORGANIZATION ( #62, #181 ) ;
#132 = ORIENTED_EDGE ( 'NONE', *, *, #48, .F. ) ;
#133 = DIRECTION ( 'NONE',  ( 1.000000000000000000, 0.0000000000000000000, 0.0000000000000000000 ) ) ;
#134 = ADVANCED_FACE ( 'NONE', ( #273 ), #166, .F. ) ;
#135 = EDGE_LOOP ( 'NONE', ( #82 ) ) ;
#136 = PERSON_AND_ORGANIZATION_ROLE ( 'creator' ) ;
#137 = AXIS2_PLACEMENT_3D ( 'NONE', #238, #213, #282 ) ;
#138 = CALENDAR_DATE ( 2021, 2, 12 ) ;
#139 = EDGE_CURVE ( 'NONE', #125, #125, #300, .T. ) ;
#140 = DIRECTION ( 'NONE',  ( -3.491481338843133355E-15, 1.224646799147353207E-16, -1.000000000000000000 ) ) ;
#141 = CALENDAR_DATE ( 2021, 2, 12 ) ;
#142 = DIRECTION ( 'NONE',  ( 0.0000000000000000000, 1.000000000000000000, 0.0000000000000000000 ) ) ;
#143 = CARTESIAN_POINT ( 'NONE',  ( 3.491481338843133355E-14, -1.224646799147353256E-15, 10.00000000000000000 ) ) ;
#144 = DIRECTION ( 'NONE',  ( 0.0000000000000000000, 1.000000000000000000, 0.0000000000000000000 ) ) ;
#145 = FACE_OUTER_BOUND ( 'NONE', #251, .T. ) ;
#146 = CC_DESIGN_APPROVAL ( #217, ( #288 ) ) ;
#147 = LOCAL_TIME ( 10, 35, 18.00000000000000000, #219 ) ;
#148 = ADVANCED_FACE ( 'NONE', ( #275, #45 ), #171, .T. ) ;
#149 = DIRECTION ( 'NONE',  ( -3.491481338843133355E-15, 1.224646799147353207E-16, -1.000000000000000000 ) ) ;
#150 = CONICAL_SURFACE ( 'NONE', #83, 1.200000000000001510, 0.7853981633974566057 ) ;
#151 = PLANE ( 'NONE',  #248 ) ;
#152 = APPROVAL ( #42, 'UNSPECIFIED' ) ;
#153 = APPROVAL_DATE_TIME ( #56, #239 ) ;
#154 = FACE_BOUND ( 'NONE', #270, .T. ) ;
#155 = PERSON_AND_ORGANIZATION ( #62, #181 ) ;
#156 = CIRCLE ( 'NONE', #271, 1.560000000000000053 ) ;
#157 = ORIENTED_EDGE ( 'NONE', *, *, #139, .F. ) ;
#158 = ORIENTED_EDGE ( 'NONE', *, *, #33, .F. ) ;
#159 = PERSON_AND_ORGANIZATION ( #62, #181 ) ;
#160 = CIRCLE ( 'NONE', #121, 1.560000000000000053 ) ;
#161 = EDGE_LOOP ( 'NONE', ( #184 ) ) ;
#162 = CC_DESIGN_PERSON_AND_ORGANIZATION_ASSIGNMENT ( #19, #136, ( #38 ) ) ;
#163 = FACE_OUTER_BOUND ( 'NONE', #135, .T. ) ;
#164 = DATE_AND_TIME ( #141, #236 ) ;
#165 = CARTESIAN_POINT ( 'NONE',  ( 3.491481338843133355E-14, -1.224646799147353256E-15, 10.00000000000000000 ) ) ;
#166 = PLANE ( 'NONE',  #88 ) ;
#167 = APPROVAL_PERSON_ORGANIZATION ( #36, #152, #290 ) ;
#168 = CARTESIAN_POINT ( 'NONE',  ( 2.433562493173664138E-13, -8.535788190057053710E-15, 69.70000000000001705 ) ) ;
#169 = CARTESIAN_POINT ( 'NONE',  ( 0.0000000000000000000, 1.309999999999999165, 0.0000000000000000000 ) ) ;
#170 = PRODUCT_RELATED_PRODUCT_CATEGORY ( 'detail', '', ( #299 ) ) ;
#171 = CONICAL_SURFACE ( 'NONE', #272, 1.309999999999999165, 0.7853981633974500554 ) ;
#172 = CIRCLE ( 'NONE', #278, 1.499999999999992895 ) ;
#173 = DIRECTION ( 'NONE',  ( 0.0000000000000000000, 1.000000000000000000, 0.0000000000000000000 ) ) ;
#174 = DIRECTION ( 'NONE',  ( -3.491481338843133355E-15, 1.224646799147353207E-16, -1.000000000000000000 ) ) ;
#175 = LOCAL_TIME ( 10, 35, 18.00000000000000000, #218 ) ;
#176 = EDGE_CURVE ( 'NONE', #99, #99, #103, .T. ) ;
#177 = CARTESIAN_POINT ( 'NONE',  ( 0.0000000000000000000, 0.0000000000000000000, 0.0000000000000000000 ) ) ;
#178 = APPROVAL_STATUS ( 'not_yet_approved' ) ;
#179 = ORIENTED_EDGE ( 'NONE', *, *, #228, .F. ) ;
#180 = PERSON_AND_ORGANIZATION_ROLE ( 'design_owner' ) ;
#181 = ORGANIZATION ( 'UNSPECIFIED', 'UNSPECIFIED', '' ) ;
#182 = EDGE_LOOP ( 'NONE', ( #78 ) ) ;
#183 = EDGE_LOOP ( 'NONE', ( #157 ) ) ;
#184 = ORIENTED_EDGE ( 'NONE', *, *, #267, .T. ) ;
#185 = DIRECTION ( 'NONE',  ( 3.491481338843133355E-15, -1.224646799147353207E-16, 1.000000000000000000 ) ) ;
#186 = DIRECTION ( 'NONE',  ( -3.491481338843133355E-15, 1.224646799147353207E-16, -1.000000000000000000 ) ) ;
#187 = FACE_BOUND ( 'NONE', #110, .T. ) ;
#188 =( GEOMETRIC_REPRESENTATION_CONTEXT ( 3 ) GLOBAL_UNCERTAINTY_ASSIGNED_CONTEXT ( ( #233 ) ) GLOBAL_UNIT_ASSIGNED_CONTEXT ( ( #124, #240, #101 ) ) REPRESENTATION_CONTEXT ( 'NONE', 'WORKASPACE' ) );
#189 = DIRECTION ( 'NONE',  ( -3.491481338843133355E-15, 1.224646799147353207E-16, -1.000000000000000000 ) ) ;
#190 = DESIGN_CONTEXT ( 'detailed design', #126, 'design' ) ;
#191 = CARTESIAN_POINT ( 'NONE',  ( 0.0000000000000000000, 0.0000000000000000000, 0.0000000000000000000 ) ) ;
#192 = CARTESIAN_POINT ( 'NONE',  ( 3.491481338843133355E-14, -1.224646799147353256E-15, 10.00000000000000000 ) ) ;
#193 = CARTESIAN_POINT ( 'NONE',  ( 2.433562493173664138E-13, 1.499999999999992673, 69.70000000000001705 ) ) ;
#194 = EDGE_CURVE ( 'NONE', #287, #287, #156, .T. ) ;
#195 = CARTESIAN_POINT ( 'NONE',  ( 8.728703347107833388E-16, 1.560000000000000053, 0.2500000000000000555 ) ) ;
#196 = ORIENTED_EDGE ( 'NONE', *, *, #245, .F. ) ;
#197 = PERSON_AND_ORGANIZATION ( #62, #181 ) ;
#198 = ORIENTED_EDGE ( 'NONE', *, *, #33, .T. ) ;
#199 = CLOSED_SHELL ( 'NONE', ( #86, #250, #148, #259, #134, #205, #293 ) ) ;
#200 = PRODUCT_DEFINITION ( 'UNKNOWN', '', #38, #190 ) ;
#201 = EDGE_LOOP ( 'NONE', ( #58 ) ) ;
#202 = AXIS2_PLACEMENT_3D ( 'NONE', #177, #149, #266 ) ;
#203 = DIRECTION ( 'NONE',  ( -3.491481338843133355E-15, 1.224646799147353207E-16, -1.000000000000000000 ) ) ;
#204 = PLANE ( 'NONE',  #247 ) ;
#205 = ADVANCED_FACE ( 'NONE', ( #281, #118 ), #129, .T. ) ;
#206 = DIRECTION ( 'NONE',  ( -3.491481338843133355E-15, 1.224646799147353207E-16, -1.000000000000000000 ) ) ;
#207 = DIRECTION ( 'NONE',  ( -3.491481338843133355E-15, 1.224646799147353207E-16, -1.000000000000000000 ) ) ;
#208 = CC_DESIGN_DATE_AND_TIME_ASSIGNMENT ( #61, #296, ( #200 ) ) ;
#209 = ORIENTED_EDGE ( 'NONE', *, *, #194, .F. ) ;
#210 = VERTEX_POINT ( 'NONE', #211 ) ;
#211 = CARTESIAN_POINT ( 'NONE',  ( 3.527765877278467194E-14, 1.499999999999991562, 10.10392304845414380 ) ) ;
#212 = CARTESIAN_POINT ( 'NONE',  ( 2.444036937190193601E-13, 1.199999999999992628, 70.00000000000000000 ) ) ;
#213 = DIRECTION ( 'NONE',  ( -3.491481338843133355E-15, 1.224646799147353207E-16, -1.000000000000000000 ) ) ;
#214 = CARTESIAN_POINT ( 'NONE',  ( 2.433562493173664138E-13, 1.499999999999992673, 69.70000000000001705 ) ) ;
#215 = CIRCLE ( 'NONE', #252, 1.200000000000001510 ) ;
#216 = AXIS2_PLACEMENT_3D ( 'NONE', #24, #71, #91 ) ;
#217 = APPROVAL ( #113, 'UNSPECIFIED' ) ;
#218 = COORDINATED_UNIVERSAL_TIME_OFFSET ( 1, 0, .AHEAD. ) ;
#219 = COORDINATED_UNIVERSAL_TIME_OFFSET ( 1, 0, .AHEAD. ) ;
#220 = COORDINATED_UNIVERSAL_TIME_OFFSET ( 1, 0, .AHEAD. ) ;
#221 = EDGE_LOOP ( 'NONE', ( #20 ) ) ;
#222 = CC_DESIGN_PERSON_AND_ORGANIZATION_ASSIGNMENT ( #131, #180, ( #299 ) ) ;
#223 = ORIENTED_EDGE ( 'NONE', *, *, #176, .F. ) ;
#224 = DATE_AND_TIME ( #138, #253 ) ;
#225 = ADVANCED_BREP_SHAPE_REPRESENTATION ( '321538', ( #97, #303, #268 ), #188 ) ;
#226 = DATE_AND_TIME ( #21, #147 ) ;
#227 = PERSON_AND_ORGANIZATION ( #62, #181 ) ;
#228 = EDGE_CURVE ( 'NONE', #74, #74, #294, .T. ) ;
#229 = AXIS2_PLACEMENT_3D ( 'NONE', #191, #54, #263 ) ;
#230 = CARTESIAN_POINT ( 'NONE',  ( 3.491481338843133355E-14, 1.169812630476246936E-32, 10.00000000000000000 ) ) ;
#231 = DIRECTION ( 'NONE',  ( -4.275831445896958607E-31, -1.000000000000000000, -1.224646799147353207E-16 ) ) ;
#232 = CARTESIAN_POINT ( 'NONE',  ( 2.444036937190193601E-13, -8.572527594031472993E-15, 70.00000000000000000 ) ) ;
#233 = UNCERTAINTY_MEASURE_WITH_UNIT (LENGTH_MEASURE( 1.000000000000000082E-05 ), #124, 'distance_accuracy_value', 'NONE');
#234 = DIRECTION ( 'NONE',  ( 4.275831445896958607E-31, 1.000000000000000000, 1.224646799147353207E-16 ) ) ;
#235 = AXIS2_PLACEMENT_3D ( 'NONE', #276, #4, #70 ) ;
#236 = LOCAL_TIME ( 10, 35, 18.00000000000000000, #269 ) ;
#237 = CARTESIAN_POINT ( 'NONE',  ( 3.527765877278467194E-14, -1.237373702012053393E-15, 10.10392304845414380 ) ) ;
#238 = CARTESIAN_POINT ( 'NONE',  ( 2.433562493173664138E-13, -8.535788190057053710E-15, 69.70000000000001705 ) ) ;
#239 = APPROVAL ( #178, 'UNSPECIFIED' ) ;
#240 =( NAMED_UNIT ( * ) PLANE_ANGLE_UNIT ( ) SI_UNIT ( $, .RADIAN. ) );
#241 = AXIS2_PLACEMENT_3D ( 'NONE', #192, #76, #283 ) ;
#242 = FACE_BOUND ( 'NONE', #161, .T. ) ;
#243 = PERSON_AND_ORGANIZATION_ROLE ( 'creator' ) ;
#244 = FACE_OUTER_BOUND ( 'NONE', #182, .T. ) ;
#245 = EDGE_CURVE ( 'NONE', #49, #49, #265, .T. ) ;
#246 = CARTESIAN_POINT ( 'NONE',  ( 0.0000000000000000000, 0.0000000000000000000, 0.0000000000000000000 ) ) ;
#247 = AXIS2_PLACEMENT_3D ( 'NONE', #230, #185, #69 ) ;
#248 = AXIS2_PLACEMENT_3D ( 'NONE', #98, #73, #127 ) ;
#249 = APPROVAL_ROLE ( '' ) ;
#250 = ADVANCED_FACE ( 'NONE', ( #163, #22 ), #255, .T. ) ;
#251 = EDGE_LOOP ( 'NONE', ( #35 ) ) ;
#252 = AXIS2_PLACEMENT_3D ( 'NONE', #232, #302, #142 ) ;
#253 = LOCAL_TIME ( 10, 35, 18.00000000000000000, #220 ) ;
#254 = FACE_OUTER_BOUND ( 'NONE', #183, .T. ) ;
#255 = CYLINDRICAL_SURFACE ( 'NONE', #94, 1.560000000000000053 ) ;
#256 = CIRCLE ( 'NONE', #77, 1.499999999999992895 ) ;
#257 = APPROVAL_PERSON_ORGANIZATION ( #227, #239, #286 ) ;
#258 = DIRECTION ( 'NONE',  ( 0.0000000000000000000, 1.000000000000000000, 0.0000000000000000000 ) ) ;
#259 = ADVANCED_FACE ( 'NONE', ( #43 ), #151, .T. ) ;
#260 = CARTESIAN_POINT ( 'NONE',  ( 2.444036937190193601E-13, -8.572527594031472993E-15, 70.00000000000000000 ) ) ;
#261 = DIRECTION ( 'NONE',  ( 0.0000000000000000000, 1.000000000000000000, 0.0000000000000000000 ) ) ;
#262 = CARTESIAN_POINT ( 'NONE',  ( 3.491481338843133355E-14, 1.559999999999998721, 10.00000000000000000 ) ) ;
#263 = DIRECTION ( 'NONE',  ( 4.275831445896958607E-31, 1.000000000000000000, 1.224646799147353454E-16 ) ) ;
#264 = ADVANCED_FACE ( 'NONE', ( #242, #75 ), #111, .T. ) ;
#265 = CIRCLE ( 'NONE', #64, 1.309999999999999165 ) ;
#266 = DIRECTION ( 'NONE',  ( 4.275831445896958607E-31, 1.000000000000000000, 1.224646799147353454E-16 ) ) ;
#267 = EDGE_CURVE ( 'NONE', #210, #210, #172, .T. ) ;
#268 = AXIS2_PLACEMENT_3D ( 'NONE', #246, #107, #133 ) ;
#269 = COORDINATED_UNIVERSAL_TIME_OFFSET ( 1, 0, .AHEAD. ) ;
#270 = EDGE_LOOP ( 'NONE', ( #297 ) ) ;
#271 = AXIS2_PLACEMENT_3D ( 'NONE', #165, #206, #144 ) ;
#272 = AXIS2_PLACEMENT_3D ( 'NONE', #95, #67, #231 ) ;
#273 = FACE_OUTER_BOUND ( 'NONE', #39, .T. ) ;
#274 = ADVANCED_FACE ( 'NONE', ( #50, #154 ), #150, .T. ) ;
#275 = FACE_OUTER_BOUND ( 'NONE', #221, .T. ) ;
#276 = CARTESIAN_POINT ( 'NONE',  ( 3.491481338843133355E-14, -1.224646799147353256E-15, 10.00000000000000000 ) ) ;
#277 = CLOSED_SHELL ( 'NONE', ( #100, #264, #280, #274, #14 ) ) ;
#278 = AXIS2_PLACEMENT_3D ( 'NONE', #237, #174, #102 ) ;
#279 = FACE_OUTER_BOUND ( 'NONE', #291, .T. ) ;
#280 = ADVANCED_FACE ( 'NONE', ( #6, #9 ), #52, .T. ) ;
#281 = FACE_OUTER_BOUND ( 'NONE', #87, .T. ) ;
#282 = DIRECTION ( 'NONE',  ( 0.0000000000000000000, 1.000000000000000000, 0.0000000000000000000 ) ) ;
#283 = DIRECTION ( 'NONE',  ( 0.0000000000000000000, 1.000000000000000000, 0.0000000000000000000 ) ) ;
#284 = EDGE_CURVE ( 'NONE', #7, #7, #18, .T. ) ;
#285 = CARTESIAN_POINT ( 'NONE',  ( 3.527765877278467194E-14, 1.499999999999991562, 10.10392304845414380 ) ) ;
#286 = APPROVAL_ROLE ( '' ) ;
#287 = VERTEX_POINT ( 'NONE', #128 ) ;
#288 = SECURITY_CLASSIFICATION ( '', '', #59 ) ;
#289 = ORIENTED_EDGE ( 'NONE', *, *, #228, .T. ) ;
#290 = APPROVAL_ROLE ( '' ) ;
#291 = EDGE_LOOP ( 'NONE', ( #223 ) ) ;
#292 = PERSON_AND_ORGANIZATION ( #62, #181 ) ;
#293 = ADVANCED_FACE ( 'NONE', ( #31, #244 ), #51, .T. ) ;
#294 = CIRCLE ( 'NONE', #89, 1.500000000000001110 ) ;
#295 = LOCAL_TIME ( 10, 35, 18.00000000000000000, #30 ) ;
#296 = DATE_TIME_ROLE ( 'creation_date' ) ;
#297 = ORIENTED_EDGE ( 'NONE', *, *, #139, .T. ) ;
#298 = APPROVAL_DATE_TIME ( #226, #217 ) ;
#299 = PRODUCT ( '321538', '321538', '', ( #106 ) ) ;
#300 = CIRCLE ( 'NONE', #104, 1.200000000000001510 ) ;
#301 = DIRECTION ( 'NONE',  ( 4.275831445896958607E-31, 1.000000000000000000, 1.224646799147353207E-16 ) ) ;
#302 = DIRECTION ( 'NONE',  ( -3.491481338843133355E-15, 1.224646799147353207E-16, -1.000000000000000000 ) ) ;
#303 = MANIFOLD_SOLID_BREP ( 'Corps-Déplacer/Copier1[2]', #199 ) ;
ENDSEC;
END-ISO-10303-21;
