ISO-10303-21;
HEADER;
FILE_DESCRIPTION (( 'STEP AP203' ),
    '1' );
FILE_NAME ('321537.step',
    '2021-12-02T09:35:17',
    ( '' ),
    ( '' ),
    'SwSTEP 2.0',
    'SolidWorks 2019',
    '' );
FILE_SCHEMA (( 'CONFIG_CONTROL_DESIGN' ));
ENDSEC;

DATA;
#1 = CARTESIAN_POINT ( 'NONE',  ( 2.444036937190193601E-13, 1.199999999999992628, 70.00000000000000000 ) ) ;
#2 = AXIS2_PLACEMENT_3D ( 'NONE', #203, #183, #62 ) ;
#3 = DATE_TIME_ROLE ( 'creation_date' ) ;
#4 = EDGE_CURVE ( 'NONE', #208, #208, #199, .T. ) ;
#5 = ORIENTED_EDGE ( 'NONE', *, *, #243, .T. ) ;
#6 = DATE_AND_TIME ( #267, #120 ) ;
#7 = DIRECTION ( 'NONE',  ( 4.275831445896958607E-31, 1.000000000000000000, 1.224646799147353207E-16 ) ) ;
#8 = AXIS2_PLACEMENT_3D ( 'NONE', #106, #290, #56 ) ;
#9 = DIRECTION ( 'NONE',  ( 0.0000000000000000000, 1.000000000000000000, 0.0000000000000000000 ) ) ;
#10 = APPROVAL_DATE_TIME ( #6, #282 ) ;
#11 = ORIENTED_EDGE ( 'NONE', *, *, #172, .T. ) ;
#12 = APPROVAL_ROLE ( '' ) ;
#13 = CARTESIAN_POINT ( 'NONE',  ( 3.524742165742189689E-14, -1.236313126773328743E-15, 10.09526279441630159 ) ) ;
#14 = DIRECTION ( 'NONE',  ( 0.0000000000000000000, 1.000000000000000000, 0.0000000000000000000 ) ) ;
#15 = FACE_OUTER_BOUND ( 'NONE', #213, .T. ) ;
#16 = FACE_BOUND ( 'NONE', #263, .T. ) ;
#17 = AXIS2_PLACEMENT_3D ( 'NONE', #29, #244, #9 ) ;
#18 = DIRECTION ( 'NONE',  ( 0.0000000000000000000, 1.000000000000000000, 0.0000000000000000000 ) ) ;
#19 = DIRECTION ( 'NONE',  ( -3.491481338843133355E-15, 1.224646799147353207E-16, -1.000000000000000000 ) ) ;
#20 =( LENGTH_UNIT ( ) NAMED_UNIT ( * ) SI_UNIT ( .MILLI., .METRE. ) );
#21 = AXIS2_PLACEMENT_3D ( 'NONE', #158, #300, #116 ) ;
#22 = EDGE_CURVE ( 'NONE', #296, #296, #35, .T. ) ;
#23 = SECURITY_CLASSIFICATION_LEVEL ( 'unclassified' ) ;
#24 = APPLICATION_CONTEXT ( 'configuration controlled 3d designs of mechanical parts and assemblies' ) ;
#25 = ADVANCED_BREP_SHAPE_REPRESENTATION ( '321537', ( #295, #99, #138 ), #156 ) ;
#26 =( NAMED_UNIT ( * ) PLANE_ANGLE_UNIT ( ) SI_UNIT ( $, .RADIAN. ) );
#27 = VERTEX_POINT ( 'NONE', #143 ) ;
#28 = EDGE_LOOP ( 'NONE', ( #264 ) ) ;
#29 = CARTESIAN_POINT ( 'NONE',  ( 3.524742165742189689E-14, -1.236313126773328743E-15, 10.09526279441630159 ) ) ;
#30 = CIRCLE ( 'NONE', #40, 1.554999999999999938 ) ;
#31 = APPROVAL ( #278, 'UNSPECIFIED' ) ;
#32 = DIRECTION ( 'NONE',  ( -3.491481338843133355E-15, 1.224646799147353207E-16, -1.000000000000000000 ) ) ;
#33 = FACE_OUTER_BOUND ( 'NONE', #123, .T. ) ;
#34 = CYLINDRICAL_SURFACE ( 'NONE', #231, 1.499999999999996891 ) ;
#35 = CIRCLE ( 'NONE', #189, 1.304999999999999050 ) ;
#36 = FACE_BOUND ( 'NONE', #85, .T. ) ;
#37 = DIRECTION ( 'NONE',  ( -3.491481338843133355E-15, 1.224646799147353207E-16, -1.000000000000000000 ) ) ;
#38 = DIRECTION ( 'NONE',  ( -3.491481338843133355E-15, 1.224646799147353207E-16, -1.000000000000000000 ) ) ;
#39 = FACE_OUTER_BOUND ( 'NONE', #198, .T. ) ;
#40 = AXIS2_PLACEMENT_3D ( 'NONE', #58, #249, #95 ) ;
#41 = DIRECTION ( 'NONE',  ( 3.491481338843133355E-15, -1.224646799147353207E-16, 1.000000000000000000 ) ) ;
#42 = DIRECTION ( 'NONE',  ( 1.000000000000000000, 0.0000000000000000000, 0.0000000000000000000 ) ) ;
#43 = PERSON_AND_ORGANIZATION ( #166, #218 ) ;
#44 = AXIS2_PLACEMENT_3D ( 'NONE', #91, #179, #204 ) ;
#45 = CARTESIAN_POINT ( 'NONE',  ( 8.728703347107833388E-16, 1.554999999999999938, 0.2500000000000000555 ) ) ;
#46 = CALENDAR_DATE ( 2021, 2, 12 ) ;
#47 = CARTESIAN_POINT ( 'NONE',  ( 0.0000000000000000000, 0.0000000000000000000, 0.0000000000000000000 ) ) ;
#48 = ORIENTED_EDGE ( 'NONE', *, *, #176, .F. ) ;
#49 = CC_DESIGN_APPROVAL ( #31, ( #134 ) ) ;
#50 = PRODUCT ( '321537', '321537', '', ( #212 ) ) ;
#51 = CALENDAR_DATE ( 2021, 2, 12 ) ;
#52 = ORIENTED_EDGE ( 'NONE', *, *, #22, .T. ) ;
#53 = EDGE_CURVE ( 'NONE', #90, #90, #108, .T. ) ;
#54 = ORIENTED_EDGE ( 'NONE', *, *, #154, .F. ) ;
#55 = DIRECTION ( 'NONE',  ( -3.491481338843133355E-15, 1.224646799147353207E-16, -1.000000000000000000 ) ) ;
#56 = DIRECTION ( 'NONE',  ( 4.275831445896958607E-31, 1.000000000000000000, 1.224646799147353207E-16 ) ) ;
#57 = ADVANCED_FACE ( 'NONE', ( #105 ), #288, .F. ) ;
#58 = CARTESIAN_POINT ( 'NONE',  ( 3.491481338843133355E-14, -1.224646799147353256E-15, 10.00000000000000000 ) ) ;
#59 = AXIS2_PLACEMENT_3D ( 'NONE', #87, #55, #79 ) ;
#60 = FACE_BOUND ( 'NONE', #132, .T. ) ;
#61 = DIRECTION ( 'NONE',  ( -3.491481338843133355E-15, 1.224646799147353207E-16, -1.000000000000000000 ) ) ;
#62 = DIRECTION ( 'NONE',  ( 0.0000000000000000000, 1.000000000000000000, 0.0000000000000000000 ) ) ;
#63 = CARTESIAN_POINT ( 'NONE',  ( 3.524742165742189689E-14, 1.499999999999991562, 10.09526279441630159 ) ) ;
#64 = CONICAL_SURFACE ( 'NONE', #155, 1.554999999999999938, 0.5235987755982985936 ) ;
#65 = AXIS2_PLACEMENT_3D ( 'NONE', #226, #250, #92 ) ;
#66 = COORDINATED_UNIVERSAL_TIME_OFFSET ( 1, 0, .AHEAD. ) ;
#67 = ADVANCED_FACE ( 'NONE', ( #202, #148 ), #82, .T. ) ;
#68 = CARTESIAN_POINT ( 'NONE',  ( 2.444036937190193601E-13, 1.199999999999992628, 70.00000000000000000 ) ) ;
#69 =( NAMED_UNIT ( * ) SI_UNIT ( $, .STERADIAN. ) SOLID_ANGLE_UNIT ( ) );
#70 = ORIENTED_EDGE ( 'NONE', *, *, #142, .F. ) ;
#71 = AXIS2_PLACEMENT_3D ( 'NONE', #112, #136, #115 ) ;
#72 = APPROVAL_PERSON_ORGANIZATION ( #173, #282, #12 ) ;
#73 = PERSON_AND_ORGANIZATION ( #166, #218 ) ;
#74 = CALENDAR_DATE ( 2021, 2, 12 ) ;
#75 = ORIENTED_EDGE ( 'NONE', *, *, #256, .F. ) ;
#76 = LOCAL_TIME ( 10, 35, 17.00000000000000000, #193 ) ;
#77 = PERSON_AND_ORGANIZATION_ROLE ( 'classification_officer' ) ;
#78 = CC_DESIGN_DATE_AND_TIME_ASSIGNMENT ( #130, #169, ( #110 ) ) ;
#79 = DIRECTION ( 'NONE',  ( 4.275831445896958607E-31, 1.000000000000000000, 1.224646799147353207E-16 ) ) ;
#80 = CC_DESIGN_PERSON_AND_ORGANIZATION_ASSIGNMENT ( #281, #284, ( #134 ) ) ;
#81 = DIRECTION ( 'NONE',  ( 4.275831445896958607E-31, 1.000000000000000000, 1.224646799147353454E-16 ) ) ;
#82 = CYLINDRICAL_SURFACE ( 'NONE', #297, 1.499999999999996891 ) ;
#83 = CIRCLE ( 'NONE', #200, 1.554999999999999938 ) ;
#84 = LOCAL_TIME ( 10, 35, 17.00000000000000000, #184 ) ;
#85 = EDGE_LOOP ( 'NONE', ( #285 ) ) ;
#86 = APPLICATION_CONTEXT ( 'configuration controlled 3d designs of mechanical parts and assemblies' ) ;
#87 = CARTESIAN_POINT ( 'NONE',  ( 2.444036937190193601E-13, 8.998558695971026591E-33, 70.00000000000000000 ) ) ;
#88 = DIRECTION ( 'NONE',  ( -3.491481338843133355E-15, 1.224646799147353207E-16, -1.000000000000000000 ) ) ;
#89 = PRODUCT_DEFINITION_FORMATION_WITH_SPECIFIED_SOURCE ( 'ANY', '', #50, .NOT_KNOWN. ) ;
#90 = VERTEX_POINT ( 'NONE', #63 ) ;
#91 = CARTESIAN_POINT ( 'NONE',  ( 2.444036937190193601E-13, -8.572527594031472993E-15, 70.00000000000000000 ) ) ;
#92 = DIRECTION ( 'NONE',  ( -4.275831445896958607E-31, -1.000000000000000000, -1.224646799147353207E-16 ) ) ;
#93 = ADVANCED_FACE ( 'NONE', ( #33 ), #129, .F. ) ;
#94 = ADVANCED_FACE ( 'NONE', ( #217, #131 ), #195, .T. ) ;
#95 = DIRECTION ( 'NONE',  ( 0.0000000000000000000, 1.000000000000000000, 0.0000000000000000000 ) ) ;
#96 = CIRCLE ( 'NONE', #44, 1.200000000000001510 ) ;
#97 = DATE_AND_TIME ( #303, #298 ) ;
#98 = PRODUCT_DEFINITION_SHAPE ( 'NONE', 'NONE',  #134 ) ;
#99 = MANIFOLD_SOLID_BREP ( 'Corps-Déplacer/Copier1[2]', #127 ) ;
#100 = VERTEX_POINT ( 'NONE', #235 ) ;
#101 = ORIENTED_EDGE ( 'NONE', *, *, #142, .T. ) ;
#102 = EDGE_LOOP ( 'NONE', ( #70 ) ) ;
#103 = EDGE_LOOP ( 'NONE', ( #101 ) ) ;
#104 = CIRCLE ( 'NONE', #71, 1.500000000000001110 ) ;
#105 = FACE_OUTER_BOUND ( 'NONE', #270, .T. ) ;
#106 = CARTESIAN_POINT ( 'NONE',  ( 2.444036937190193601E-13, -8.572527594031472993E-15, 70.00000000000000000 ) ) ;
#107 = ORIENTED_EDGE ( 'NONE', *, *, #53, .T. ) ;
#108 = CIRCLE ( 'NONE', #205, 1.499999999999992895 ) ;
#109 = CIRCLE ( 'NONE', #209, 1.554999999999999938 ) ;
#110 = SECURITY_CLASSIFICATION ( '', '', #23 ) ;
#111 = FACE_BOUND ( 'NONE', #190, .T. ) ;
#112 = CARTESIAN_POINT ( 'NONE',  ( 2.433562493173664138E-13, -8.535788190057053710E-15, 69.70000000000001705 ) ) ;
#113 = DIRECTION ( 'NONE',  ( -3.491481338843133355E-15, 1.224646799147353207E-16, -1.000000000000000000 ) ) ;
#114 = ADVANCED_FACE ( 'NONE', ( #289, #170 ), #34, .T. ) ;
#115 = DIRECTION ( 'NONE',  ( 0.0000000000000000000, 1.000000000000000000, 0.0000000000000000000 ) ) ;
#116 = DIRECTION ( 'NONE',  ( 0.0000000000000000000, 1.000000000000000000, 0.0000000000000000000 ) ) ;
#117 = ADVANCED_FACE ( 'NONE', ( #111, #177 ), #64, .T. ) ;
#118 = CARTESIAN_POINT ( 'NONE',  ( -2.789980018447763525E-31, 9.785932581868614323E-33, -7.990820364436473693E-17 ) ) ;
#119 = CLOSED_SHELL ( 'NONE', ( #287, #117, #67, #178, #93 ) ) ;
#120 = LOCAL_TIME ( 10, 35, 17.00000000000000000, #196 ) ;
#121 = APPLICATION_PROTOCOL_DEFINITION ( 'international standard', 'config_control_design', 1994, #86 ) ;
#122 = PERSON_AND_ORGANIZATION ( #166, #218 ) ;
#123 = EDGE_LOOP ( 'NONE', ( #75 ) ) ;
#124 = DATE_AND_TIME ( #46, #84 ) ;
#125 = ORIENTED_EDGE ( 'NONE', *, *, #172, .F. ) ;
#126 = DIRECTION ( 'NONE',  ( -3.491481338843133355E-15, 1.224646799147353207E-16, -1.000000000000000000 ) ) ;
#127 = CLOSED_SHELL ( 'NONE', ( #294, #94, #265, #185, #57, #228, #114 ) ) ;
#128 = CC_DESIGN_APPROVAL ( #282, ( #110 ) ) ;
#129 = PLANE ( 'NONE',  #59 ) ;
#130 = DATE_AND_TIME ( #51, #76 ) ;
#131 = FACE_OUTER_BOUND ( 'NONE', #261, .T. ) ;
#132 = EDGE_LOOP ( 'NONE', ( #174 ) ) ;
#133 = FACE_OUTER_BOUND ( 'NONE', #102, .T. ) ;
#134 = PRODUCT_DEFINITION ( 'UNKNOWN', '', #89, #280 ) ;
#135 = FACE_BOUND ( 'NONE', #240, .T. ) ;
#136 = DIRECTION ( 'NONE',  ( -3.491481338843133355E-15, 1.224646799147353207E-16, -1.000000000000000000 ) ) ;
#137 = AXIS2_PLACEMENT_3D ( 'NONE', #221, #220, #7 ) ;
#138 = AXIS2_PLACEMENT_3D ( 'NONE', #47, #234, #42 ) ;
#139 = CARTESIAN_POINT ( 'NONE',  ( 3.491481338843133355E-14, -1.224646799147353256E-15, 10.00000000000000000 ) ) ;
#140 = VERTEX_POINT ( 'NONE', #227 ) ;
#141 = PERSON_AND_ORGANIZATION ( #166, #218 ) ;
#142 = EDGE_CURVE ( 'NONE', #255, #255, #104, .T. ) ;
#143 = CARTESIAN_POINT ( 'NONE',  ( 3.491481338843133355E-14, 1.554999999999998606, 10.00000000000000000 ) ) ;
#144 = APPROVAL_ROLE ( '' ) ;
#145 = COORDINATED_UNIVERSAL_TIME_OFFSET ( 1, 0, .AHEAD. ) ;
#146 = PRODUCT_RELATED_PRODUCT_CATEGORY ( 'detail', '', ( #50 ) ) ;
#147 = CARTESIAN_POINT ( 'NONE',  ( 3.491481338843133355E-14, -1.224646799147353256E-15, 10.00000000000000000 ) ) ;
#148 = FACE_OUTER_BOUND ( 'NONE', #28, .T. ) ;
#149 = DIRECTION ( 'NONE',  ( 4.275831445896958607E-31, 1.000000000000000000, 1.224646799147353207E-16 ) ) ;
#150 = AXIS2_PLACEMENT_3D ( 'NONE', #299, #41, #207 ) ;
#151 = ORIENTED_EDGE ( 'NONE', *, *, #286, .T. ) ;
#152 = CARTESIAN_POINT ( 'NONE',  ( 0.0000000000000000000, 0.0000000000000000000, 0.0000000000000000000 ) ) ;
#153 = FACE_OUTER_BOUND ( 'NONE', #165, .T. ) ;
#154 = EDGE_CURVE ( 'NONE', #140, #140, #245, .T. ) ;
#155 = AXIS2_PLACEMENT_3D ( 'NONE', #147, #242, #301 ) ;
#156 =( GEOMETRIC_REPRESENTATION_CONTEXT ( 3 ) GLOBAL_UNCERTAINTY_ASSIGNED_CONTEXT ( ( #214 ) ) GLOBAL_UNIT_ASSIGNED_CONTEXT ( ( #20, #26, #69 ) ) REPRESENTATION_CONTEXT ( 'NONE', 'WORKASPACE' ) );
#157 = DIRECTION ( 'NONE',  ( 3.715620471486628888E-31, 1.000000000000000000, 1.394472247569780710E-16 ) ) ;
#158 = CARTESIAN_POINT ( 'NONE',  ( 2.444036937190193601E-13, -8.572527594031472993E-15, 70.00000000000000000 ) ) ;
#159 = DIRECTION ( 'NONE',  ( 0.0000000000000000000, 1.000000000000000000, 0.0000000000000000000 ) ) ;
#160 = VERTEX_POINT ( 'NONE', #68 ) ;
#161 = VERTEX_POINT ( 'NONE', #1 ) ;
#162 = EDGE_LOOP ( 'NONE', ( #151 ) ) ;
#163 = DATE_AND_TIME ( #74, #222 ) ;
#164 = CC_DESIGN_PERSON_AND_ORGANIZATION_ASSIGNMENT ( #141, #233, ( #89 ) ) ;
#165 = EDGE_LOOP ( 'NONE', ( #54 ) ) ;
#166 = PERSON ( 'UNSPECIFIED', 'UNSPECIFIED', 'UNSPECIFIED', ('UNSPECIFIED'), ('UNSPECIFIED'), ('UNSPECIFIED') ) ;
#167 = ORIENTED_EDGE ( 'NONE', *, *, #4, .F. ) ;
#168 = CC_DESIGN_SECURITY_CLASSIFICATION ( #110, ( #89 ) ) ;
#169 = DATE_TIME_ROLE ( 'classification_date' ) ;
#170 = FACE_OUTER_BOUND ( 'NONE', #103, .T. ) ;
#171 = ORIENTED_EDGE ( 'NONE', *, *, #53, .F. ) ;
#172 = EDGE_CURVE ( 'NONE', #27, #27, #30, .T. ) ;
#173 = PERSON_AND_ORGANIZATION ( #166, #218 ) ;
#174 = ORIENTED_EDGE ( 'NONE', *, *, #22, .F. ) ;
#175 = DIRECTION ( 'NONE',  ( 0.0000000000000000000, 1.000000000000000000, 0.0000000000000000000 ) ) ;
#176 = EDGE_CURVE ( 'NONE', #160, #160, #272, .T. ) ;
#177 = FACE_OUTER_BOUND ( 'NONE', #219, .T. ) ;
#178 = ADVANCED_FACE ( 'NONE', ( #153, #36 ), #236, .T. ) ;
#179 = DIRECTION ( 'NONE',  ( -3.491481338843133355E-15, 1.224646799147353207E-16, -1.000000000000000000 ) ) ;
#180 = CARTESIAN_POINT ( 'NONE',  ( 2.433562493173664138E-13, 1.499999999999992673, 69.70000000000001705 ) ) ;
#181 = DIRECTION ( 'NONE',  ( 0.0000000000000000000, 1.000000000000000000, 0.0000000000000000000 ) ) ;
#182 = CARTESIAN_POINT ( 'NONE',  ( 3.524742165742189689E-14, 1.499999999999991562, 10.09526279441630159 ) ) ;
#183 = DIRECTION ( 'NONE',  ( -3.491481338843133355E-15, 1.224646799147353207E-16, -1.000000000000000000 ) ) ;
#184 = COORDINATED_UNIVERSAL_TIME_OFFSET ( 1, 0, .AHEAD. ) ;
#185 = ADVANCED_FACE ( 'NONE', ( #253 ), #273, .T. ) ;
#186 = APPROVAL ( #257, 'UNSPECIFIED' ) ;
#187 = EDGE_LOOP ( 'NONE', ( #171 ) ) ;
#188 = APPROVAL_ROLE ( '' ) ;
#189 = AXIS2_PLACEMENT_3D ( 'NONE', #194, #291, #149 ) ;
#190 = EDGE_LOOP ( 'NONE', ( #230 ) ) ;
#191 = PERSON_AND_ORGANIZATION_ROLE ( 'design_owner' ) ;
#192 = ORIENTED_EDGE ( 'NONE', *, *, #243, .F. ) ;
#193 = COORDINATED_UNIVERSAL_TIME_OFFSET ( 1, 0, .AHEAD. ) ;
#194 = CARTESIAN_POINT ( 'NONE',  ( -5.579960036895527049E-31, 1.957186516373722865E-32, -1.598164072887294739E-16 ) ) ;
#195 = CYLINDRICAL_SURFACE ( 'NONE', #137, 1.554999999999999938 ) ;
#196 = COORDINATED_UNIVERSAL_TIME_OFFSET ( 1, 0, .AHEAD. ) ;
#197 = ORIENTED_EDGE ( 'NONE', *, *, #286, .F. ) ;
#198 = EDGE_LOOP ( 'NONE', ( #11 ) ) ;
#199 = CIRCLE ( 'NONE', #17, 1.499999999999992895 ) ;
#200 = AXIS2_PLACEMENT_3D ( 'NONE', #225, #88, #159 ) ;
#201 = CC_DESIGN_DATE_AND_TIME_ASSIGNMENT ( #124, #3, ( #134 ) ) ;
#202 = FACE_OUTER_BOUND ( 'NONE', #292, .T. ) ;
#203 = CARTESIAN_POINT ( 'NONE',  ( 2.433562493173664138E-13, -8.535788190057053710E-15, 69.70000000000001705 ) ) ;
#204 = DIRECTION ( 'NONE',  ( 0.0000000000000000000, 1.000000000000000000, 0.0000000000000000000 ) ) ;
#205 = AXIS2_PLACEMENT_3D ( 'NONE', #13, #32, #175 ) ;
#206 = APPROVAL_PERSON_ORGANIZATION ( #258, #186, #144 ) ;
#207 = DIRECTION ( 'NONE',  ( -4.275831445896958607E-31, -1.000000000000000000, -1.224646799147353207E-16 ) ) ;
#208 = VERTEX_POINT ( 'NONE', #182 ) ;
#209 = AXIS2_PLACEMENT_3D ( 'NONE', #224, #37, #157 ) ;
#210 = CC_DESIGN_PERSON_AND_ORGANIZATION_ASSIGNMENT ( #122, #191, ( #50 ) ) ;
#211 = PERSON_AND_ORGANIZATION ( #166, #218 ) ;
#212 = MECHANICAL_CONTEXT ( 'NONE', #24, 'mechanical' ) ;
#213 = EDGE_LOOP ( 'NONE', ( #192 ) ) ;
#214 = UNCERTAINTY_MEASURE_WITH_UNIT (LENGTH_MEASURE( 1.000000000000000082E-05 ), #20, 'distance_accuracy_value', 'NONE');
#215 = AXIS2_PLACEMENT_3D ( 'NONE', #118, #61, #293 ) ;
#216 = APPROVAL_DATE_TIME ( #163, #186 ) ;
#217 = FACE_OUTER_BOUND ( 'NONE', #248, .T. ) ;
#218 = ORGANIZATION ( 'UNSPECIFIED', 'UNSPECIFIED', '' ) ;
#219 = EDGE_LOOP ( 'NONE', ( #125 ) ) ;
#220 = DIRECTION ( 'NONE',  ( -3.491481338843133355E-15, 1.224646799147353207E-16, -1.000000000000000000 ) ) ;
#221 = CARTESIAN_POINT ( 'NONE',  ( 0.0000000000000000000, 0.0000000000000000000, 0.0000000000000000000 ) ) ;
#222 = LOCAL_TIME ( 10, 35, 17.00000000000000000, #145 ) ;
#223 = CARTESIAN_POINT ( 'NONE',  ( 2.444036937190193601E-13, -8.572527594031472993E-15, 70.00000000000000000 ) ) ;
#224 = CARTESIAN_POINT ( 'NONE',  ( 8.728703347107827472E-16, -3.061616997868381169E-17, 0.2499999999999998335 ) ) ;
#225 = CARTESIAN_POINT ( 'NONE',  ( 3.491481338843133355E-14, -1.224646799147353256E-15, 10.00000000000000000 ) ) ;
#226 = CARTESIAN_POINT ( 'NONE',  ( 3.491481338843133355E-14, 1.166063231019592265E-32, 10.00000000000000000 ) ) ;
#227 = CARTESIAN_POINT ( 'NONE',  ( 2.433562493173664138E-13, 1.499999999999992673, 69.70000000000001705 ) ) ;
#228 = ADVANCED_FACE ( 'NONE', ( #133, #16 ), #254, .T. ) ;
#229 = CC_DESIGN_PERSON_AND_ORGANIZATION_ASSIGNMENT ( #43, #237, ( #89 ) ) ;
#230 = ORIENTED_EDGE ( 'NONE', *, *, #4, .T. ) ;
#231 = AXIS2_PLACEMENT_3D ( 'NONE', #152, #126, #81 ) ;
#232 = AXIS2_PLACEMENT_3D ( 'NONE', #223, #19, #14 ) ;
#233 = PERSON_AND_ORGANIZATION_ROLE ( 'design_supplier' ) ;
#234 = DIRECTION ( 'NONE',  ( 0.0000000000000000000, 0.0000000000000000000, 1.000000000000000000 ) ) ;
#235 = CARTESIAN_POINT ( 'NONE',  ( 3.491481338843133355E-14, 1.554999999999998606, 10.00000000000000000 ) ) ;
#236 = CONICAL_SURFACE ( 'NONE', #21, 1.200000000000001510, 0.7853981633974566057 ) ;
#237 = PERSON_AND_ORGANIZATION_ROLE ( 'creator' ) ;
#238 = AXIS2_PLACEMENT_3D ( 'NONE', #252, #38, #181 ) ;
#239 = CONICAL_SURFACE ( 'NONE', #276, 1.554999999999999938, 0.5235987755982985936 ) ;
#240 = EDGE_LOOP ( 'NONE', ( #107 ) ) ;
#241 = APPROVAL_STATUS ( 'not_yet_approved' ) ;
#242 = DIRECTION ( 'NONE',  ( -3.491481338843133355E-15, 1.224646799147353207E-16, -1.000000000000000000 ) ) ;
#243 = EDGE_CURVE ( 'NONE', #100, #100, #83, .T. ) ;
#244 = DIRECTION ( 'NONE',  ( -3.491481338843133355E-15, 1.224646799147353207E-16, -1.000000000000000000 ) ) ;
#245 = CIRCLE ( 'NONE', #2, 1.500000000000001110 ) ;
#246 = ORIENTED_EDGE ( 'NONE', *, *, #176, .T. ) ;
#247 = DIRECTION ( 'NONE',  ( 4.275831445896958607E-31, 1.000000000000000000, 1.224646799147353454E-16 ) ) ;
#248 = EDGE_LOOP ( 'NONE', ( #5 ) ) ;
#249 = DIRECTION ( 'NONE',  ( -3.491481338843133355E-15, 1.224646799147353207E-16, -1.000000000000000000 ) ) ;
#250 = DIRECTION ( 'NONE',  ( 3.491481338843133355E-15, -1.224646799147353207E-16, 1.000000000000000000 ) ) ;
#251 = CC_DESIGN_PERSON_AND_ORGANIZATION_ASSIGNMENT ( #211, #77, ( #110 ) ) ;
#252 = CARTESIAN_POINT ( 'NONE',  ( 2.444036937190193601E-13, -8.572527594031472993E-15, 70.00000000000000000 ) ) ;
#253 = FACE_OUTER_BOUND ( 'NONE', #283, .T. ) ;
#254 = CONICAL_SURFACE ( 'NONE', #232, 1.200000000000001510, 0.7853981633974566057 ) ;
#255 = VERTEX_POINT ( 'NONE', #180 ) ;
#256 = EDGE_CURVE ( 'NONE', #161, #161, #96, .T. ) ;
#257 = APPROVAL_STATUS ( 'not_yet_approved' ) ;
#258 = PERSON_AND_ORGANIZATION ( #166, #218 ) ;
#259 = CC_DESIGN_APPROVAL ( #186, ( #89 ) ) ;
#260 = APPROVAL_DATE_TIME ( #97, #31 ) ;
#261 = EDGE_LOOP ( 'NONE', ( #197 ) ) ;
#262 = VERTEX_POINT ( 'NONE', #45 ) ;
#263 = EDGE_LOOP ( 'NONE', ( #246 ) ) ;
#264 = ORIENTED_EDGE ( 'NONE', *, *, #154, .T. ) ;
#265 = ADVANCED_FACE ( 'NONE', ( #271, #60 ), #277, .T. ) ;
#266 = CARTESIAN_POINT ( 'NONE',  ( 0.0000000000000000000, 0.0000000000000000000, 0.0000000000000000000 ) ) ;
#267 = CALENDAR_DATE ( 2021, 2, 12 ) ;
#268 = DIRECTION ( 'NONE',  ( -3.491481338843133355E-15, 1.224646799147353207E-16, -1.000000000000000000 ) ) ;
#269 = SHAPE_DEFINITION_REPRESENTATION ( #98, #25 ) ;
#270 = EDGE_LOOP ( 'NONE', ( #48 ) ) ;
#271 = FACE_OUTER_BOUND ( 'NONE', #162, .T. ) ;
#272 = CIRCLE ( 'NONE', #238, 1.200000000000001510 ) ;
#273 = PLANE ( 'NONE',  #215 ) ;
#274 = PLANE ( 'NONE',  #65 ) ;
#275 = CARTESIAN_POINT ( 'NONE',  ( 0.0000000000000000000, 1.304999999999999050, 0.0000000000000000000 ) ) ;
#276 = AXIS2_PLACEMENT_3D ( 'NONE', #139, #113, #18 ) ;
#277 = CONICAL_SURFACE ( 'NONE', #150, 1.304999999999999050, 0.7853981633974500554 ) ;
#278 = APPROVAL_STATUS ( 'not_yet_approved' ) ;
#279 = APPLICATION_PROTOCOL_DEFINITION ( 'international standard', 'config_control_design', 1994, #24 ) ;
#280 = DESIGN_CONTEXT ( 'detailed design', #86, 'design' ) ;
#281 = PERSON_AND_ORGANIZATION ( #166, #218 ) ;
#282 = APPROVAL ( #241, 'UNSPECIFIED' ) ;
#283 = EDGE_LOOP ( 'NONE', ( #52 ) ) ;
#284 = PERSON_AND_ORGANIZATION_ROLE ( 'creator' ) ;
#285 = ORIENTED_EDGE ( 'NONE', *, *, #256, .T. ) ;
#286 = EDGE_CURVE ( 'NONE', #262, #262, #109, .T. ) ;
#287 = ADVANCED_FACE ( 'NONE', ( #39 ), #274, .F. ) ;
#288 = PLANE ( 'NONE',  #8 ) ;
#289 = FACE_OUTER_BOUND ( 'NONE', #187, .T. ) ;
#290 = DIRECTION ( 'NONE',  ( -3.491481338843133355E-15, 1.224646799147353207E-16, -1.000000000000000000 ) ) ;
#291 = DIRECTION ( 'NONE',  ( -3.491481338843133355E-15, 1.224646799147353207E-16, -1.000000000000000000 ) ) ;
#292 = EDGE_LOOP ( 'NONE', ( #167 ) ) ;
#293 = DIRECTION ( 'NONE',  ( 4.275831445896958607E-31, 1.000000000000000000, 1.224646799147353207E-16 ) ) ;
#294 = ADVANCED_FACE ( 'NONE', ( #135, #15 ), #239, .T. ) ;
#295 = MANIFOLD_SOLID_BREP ( 'Corps-Déplacer/Copier1[1]', #119 ) ;
#296 = VERTEX_POINT ( 'NONE', #275 ) ;
#297 = AXIS2_PLACEMENT_3D ( 'NONE', #266, #268, #247 ) ;
#298 = LOCAL_TIME ( 10, 35, 17.00000000000000000, #66 ) ;
#299 = CARTESIAN_POINT ( 'NONE',  ( -5.579960036895527049E-31, 1.957186516373722865E-32, -1.598164072887294739E-16 ) ) ;
#300 = DIRECTION ( 'NONE',  ( -3.491481338843133355E-15, 1.224646799147353207E-16, -1.000000000000000000 ) ) ;
#301 = DIRECTION ( 'NONE',  ( 0.0000000000000000000, 1.000000000000000000, 0.0000000000000000000 ) ) ;
#302 = APPROVAL_PERSON_ORGANIZATION ( #73, #31, #188 ) ;
#303 = CALENDAR_DATE ( 2021, 2, 12 ) ;
ENDSEC;
END-ISO-10303-21;
