ISO-10303-21;
HEADER;
FILE_DESCRIPTION (( 'STEP AP203' ),
    '1' );
FILE_NAME ('321536.step',
    '2021-12-02T09:35:16',
    ( '' ),
    ( '' ),
    'SwSTEP 2.0',
    'SolidWorks 2019',
    '' );
FILE_SCHEMA (( 'CONFIG_CONTROL_DESIGN' ));
ENDSEC;

DATA;
#1 = ORIENTED_EDGE ( 'NONE', *, *, #14, .F. ) ;
#2 = FACE_BOUND ( 'NONE', #130, .T. ) ;
#3 = APPROVAL ( #200, 'UNSPECIFIED' ) ;
#4 = DIRECTION ( 'NONE',  ( 4.275831445896958607E-31, 1.000000000000000000, 1.224646799147353207E-16 ) ) ;
#5 = DIRECTION ( 'NONE',  ( -3.491481338843133355E-15, 1.224646799147353207E-16, -1.000000000000000000 ) ) ;
#6 = CARTESIAN_POINT ( 'NONE',  ( 2.433562493173664138E-13, 1.499999999999992673, 69.70000000000001705 ) ) ;
#7 = AXIS2_PLACEMENT_3D ( 'NONE', #63, #210, #296 ) ;
#8 = CONICAL_SURFACE ( 'NONE', #111, 1.299999999999999156, 0.7853981633974501664 ) ;
#9 = VERTEX_POINT ( 'NONE', #178 ) ;
#10 = ADVANCED_FACE ( 'NONE', ( #46 ), #274, .T. ) ;
#11 = CARTESIAN_POINT ( 'NONE',  ( 0.0000000000000000000, 0.0000000000000000000, 0.0000000000000000000 ) ) ;
#12 = CALENDAR_DATE ( 2021, 2, 12 ) ;
#13 = DIRECTION ( 'NONE',  ( -3.491481338843133355E-15, 1.224646799147353207E-16, -1.000000000000000000 ) ) ;
#14 = EDGE_CURVE ( 'NONE', #265, #265, #149, .T. ) ;
#15 = EDGE_LOOP ( 'NONE', ( #272 ) ) ;
#16 = PERSON_AND_ORGANIZATION ( #279, #33 ) ;
#17 = AXIS2_PLACEMENT_3D ( 'NONE', #123, #118, #162 ) ;
#18 = LOCAL_TIME ( 10, 35, 16.00000000000000000, #88 ) ;
#19 = EDGE_LOOP ( 'NONE', ( #77 ) ) ;
#20 = EDGE_LOOP ( 'NONE', ( #89 ) ) ;
#21 = EDGE_CURVE ( 'NONE', #223, #223, #262, .T. ) ;
#22 = DIRECTION ( 'NONE',  ( 3.491481338843133355E-15, -1.224646799147353207E-16, 1.000000000000000000 ) ) ;
#23 = LOCAL_TIME ( 10, 35, 16.00000000000000000, #60 ) ;
#24 = ORIENTED_EDGE ( 'NONE', *, *, #301, .T. ) ;
#25 = DIRECTION ( 'NONE',  ( 0.0000000000000000000, 1.000000000000000000, 0.0000000000000000000 ) ) ;
#26 = DIRECTION ( 'NONE',  ( 4.275831445896958607E-31, 1.000000000000000000, 1.224646799147353207E-16 ) ) ;
#27 = FACE_OUTER_BOUND ( 'NONE', #217, .T. ) ;
#28 = CARTESIAN_POINT ( 'NONE',  ( 2.444036937190193601E-13, -8.572527594031472993E-15, 70.00000000000000000 ) ) ;
#29 = MECHANICAL_CONTEXT ( 'NONE', #134, 'mechanical' ) ;
#30 = CC_DESIGN_PERSON_AND_ORGANIZATION_ASSIGNMENT ( #288, #229, ( #261 ) ) ;
#31 = VERTEX_POINT ( 'NONE', #147 ) ;
#32 = CIRCLE ( 'NONE', #58, 1.499999999999993117 ) ;
#33 = ORGANIZATION ( 'UNSPECIFIED', 'UNSPECIFIED', '' ) ;
#34 = APPROVAL_ROLE ( '' ) ;
#35 = DATE_AND_TIME ( #104, #67 ) ;
#36 = APPROVAL ( #40, 'UNSPECIFIED' ) ;
#37 = CARTESIAN_POINT ( 'NONE',  ( 3.521718454205911554E-14, 1.499999999999991784, 10.08660254037845583 ) ) ;
#38 = CIRCLE ( 'NONE', #145, 1.299999999999999156 ) ;
#39 = PERSON_AND_ORGANIZATION_ROLE ( 'design_supplier' ) ;
#40 = APPROVAL_STATUS ( 'not_yet_approved' ) ;
#41 = FACE_OUTER_BOUND ( 'NONE', #212, .T. ) ;
#42 = DATE_TIME_ROLE ( 'creation_date' ) ;
#43 = EDGE_LOOP ( 'NONE', ( #24 ) ) ;
#44 = COORDINATED_UNIVERSAL_TIME_OFFSET ( 1, 0, .AHEAD. ) ;
#45 = ORIENTED_EDGE ( 'NONE', *, *, #227, .F. ) ;
#46 = FACE_OUTER_BOUND ( 'NONE', #214, .T. ) ;
#47 = AXIS2_PLACEMENT_3D ( 'NONE', #90, #184, #25 ) ;
#48 = DIRECTION ( 'NONE',  ( -3.491481338843133355E-15, 1.224646799147353207E-16, -1.000000000000000000 ) ) ;
#49 = ADVANCED_FACE ( 'NONE', ( #267, #250 ), #196, .T. ) ;
#50 = DIRECTION ( 'NONE',  ( 0.0000000000000000000, 1.000000000000000000, 0.0000000000000000000 ) ) ;
#51 = DIRECTION ( 'NONE',  ( 4.275831445896958607E-31, 1.000000000000000000, 1.224646799147353207E-16 ) ) ;
#52 = UNCERTAINTY_MEASURE_WITH_UNIT (LENGTH_MEASURE( 1.000000000000000082E-05 ), #129, 'distance_accuracy_value', 'NONE');
#53 = FACE_OUTER_BOUND ( 'NONE', #20, .T. ) ;
#54 = CARTESIAN_POINT ( 'NONE',  ( -5.558580879666042335E-31, 1.949687717460413522E-32, -1.592040838891558109E-16 ) ) ;
#55 = ADVANCED_FACE ( 'NONE', ( #41, #133 ), #293, .T. ) ;
#56 = APPLICATION_PROTOCOL_DEFINITION ( 'international standard', 'config_control_design', 1994, #134 ) ;
#57 = CARTESIAN_POINT ( 'NONE',  ( 2.433562493173664138E-13, 1.499999999999992673, 69.70000000000001705 ) ) ;
#58 = AXIS2_PLACEMENT_3D ( 'NONE', #263, #95, #194 ) ;
#59 = ADVANCED_FACE ( 'NONE', ( #255, #157 ), #180, .T. ) ;
#60 = COORDINATED_UNIVERSAL_TIME_OFFSET ( 1, 0, .AHEAD. ) ;
#61 = PERSON_AND_ORGANIZATION_ROLE ( 'creator' ) ;
#62 = DATE_AND_TIME ( #207, #92 ) ;
#63 = CARTESIAN_POINT ( 'NONE',  ( 0.0000000000000000000, 0.0000000000000000000, 0.0000000000000000000 ) ) ;
#64 = DIRECTION ( 'NONE',  ( 4.275831445896958607E-31, 1.000000000000000000, 1.224646799147353207E-16 ) ) ;
#65 = AXIS2_PLACEMENT_3D ( 'NONE', #236, #13, #64 ) ;
#66 = CIRCLE ( 'NONE', #87, 1.550000000000000044 ) ;
#67 = LOCAL_TIME ( 10, 35, 16.00000000000000000, #248 ) ;
#68 = DIRECTION ( 'NONE',  ( -3.491481338843133355E-15, 1.224646799147353207E-16, -1.000000000000000000 ) ) ;
#69 = FACE_OUTER_BOUND ( 'NONE', #234, .T. ) ;
#70 = ADVANCED_FACE ( 'NONE', ( #69 ), #280, .F. ) ;
#71 = AXIS2_PLACEMENT_3D ( 'NONE', #75, #195, #243 ) ;
#72 = DIRECTION ( 'NONE',  ( 0.0000000000000000000, 1.000000000000000000, 0.0000000000000000000 ) ) ;
#73 = LOCAL_TIME ( 10, 35, 16.00000000000000000, #44 ) ;
#74 = CARTESIAN_POINT ( 'NONE',  ( 2.444036937190193601E-13, 8.998558695971026591E-33, 70.00000000000000000 ) ) ;
#75 = CARTESIAN_POINT ( 'NONE',  ( 3.521718454205911554E-14, -1.235252551534603699E-15, 10.08660254037845583 ) ) ;
#76 = DIRECTION ( 'NONE',  ( 0.0000000000000000000, 1.000000000000000000, 0.0000000000000000000 ) ) ;
#77 = ORIENTED_EDGE ( 'NONE', *, *, #204, .F. ) ;
#78 = VERTEX_POINT ( 'NONE', #57 ) ;
#79 = CARTESIAN_POINT ( 'NONE',  ( 2.444036937190193601E-13, 1.199999999999992628, 70.00000000000000000 ) ) ;
#80 = CARTESIAN_POINT ( 'NONE',  ( 2.444036937190193601E-13, 1.199999999999992628, 70.00000000000000000 ) ) ;
#81 = DIRECTION ( 'NONE',  ( 0.0000000000000000000, 1.000000000000000000, 0.0000000000000000000 ) ) ;
#82 = PRODUCT_DEFINITION_SHAPE ( 'NONE', 'NONE',  #261 ) ;
#83 = VERTEX_POINT ( 'NONE', #6 ) ;
#84 = COORDINATED_UNIVERSAL_TIME_OFFSET ( 1, 0, .AHEAD. ) ;
#85 = EDGE_CURVE ( 'NONE', #9, #9, #257, .T. ) ;
#86 = AXIS2_PLACEMENT_3D ( 'NONE', #74, #222, #216 ) ;
#87 = AXIS2_PLACEMENT_3D ( 'NONE', #148, #124, #81 ) ;
#88 = COORDINATED_UNIVERSAL_TIME_OFFSET ( 1, 0, .AHEAD. ) ;
#89 = ORIENTED_EDGE ( 'NONE', *, *, #244, .F. ) ;
#90 = CARTESIAN_POINT ( 'NONE',  ( 3.491481338843133355E-14, -1.224646799147353256E-15, 10.00000000000000000 ) ) ;
#91 = CC_DESIGN_DATE_AND_TIME_ASSIGNMENT ( #132, #291, ( #140 ) ) ;
#92 = LOCAL_TIME ( 10, 35, 16.00000000000000000, #84 ) ;
#93 = DIRECTION ( 'NONE',  ( -3.491481338843133355E-15, 1.224646799147353207E-16, -1.000000000000000000 ) ) ;
#94 = FACE_OUTER_BOUND ( 'NONE', #97, .T. ) ;
#95 = DIRECTION ( 'NONE',  ( -3.491481338843133355E-15, 1.224646799147353207E-16, -1.000000000000000000 ) ) ;
#96 = DIRECTION ( 'NONE',  ( 4.275831445896958607E-31, 1.000000000000000000, 1.224646799147353454E-16 ) ) ;
#97 = EDGE_LOOP ( 'NONE', ( #165 ) ) ;
#98 = CARTESIAN_POINT ( 'NONE',  ( 8.728703347107825500E-16, -3.061616997868380553E-17, 0.2499999999999997780 ) ) ;
#99 = FACE_OUTER_BOUND ( 'NONE', #177, .T. ) ;
#100 =( NAMED_UNIT ( * ) PLANE_ANGLE_UNIT ( ) SI_UNIT ( $, .RADIAN. ) );
#101 = AXIS2_PLACEMENT_3D ( 'NONE', #143, #277, #72 ) ;
#102 = ADVANCED_FACE ( 'NONE', ( #283 ), #303, .F. ) ;
#103 = VERTEX_POINT ( 'NONE', #106 ) ;
#104 = CALENDAR_DATE ( 2021, 2, 12 ) ;
#105 = APPROVAL_PERSON_ORGANIZATION ( #225, #3, #34 ) ;
#106 = CARTESIAN_POINT ( 'NONE',  ( 3.491481338843133355E-14, 1.549999999999998712, 10.00000000000000000 ) ) ;
#107 = EDGE_LOOP ( 'NONE', ( #1 ) ) ;
#108 = DATE_AND_TIME ( #12, #23 ) ;
#109 = DIRECTION ( 'NONE',  ( 0.0000000000000000000, 1.000000000000000000, 0.0000000000000000000 ) ) ;
#110 = AXIS2_PLACEMENT_3D ( 'NONE', #215, #166, #260 ) ;
#111 = AXIS2_PLACEMENT_3D ( 'NONE', #54, #22, #302 ) ;
#112 = APPROVAL_DATE_TIME ( #297, #36 ) ;
#113 = ORIENTED_EDGE ( 'NONE', *, *, #114, .F. ) ;
#114 = EDGE_CURVE ( 'NONE', #153, #153, #192, .T. ) ;
#115 = APPROVAL_ROLE ( '' ) ;
#116 = ORIENTED_EDGE ( 'NONE', *, *, #301, .F. ) ;
#117 =( GEOMETRIC_REPRESENTATION_CONTEXT ( 3 ) GLOBAL_UNCERTAINTY_ASSIGNED_CONTEXT ( ( #52 ) ) GLOBAL_UNIT_ASSIGNED_CONTEXT ( ( #129, #100, #170 ) ) REPRESENTATION_CONTEXT ( 'NONE', 'WORKASPACE' ) );
#118 = DIRECTION ( 'NONE',  ( 3.491481338843133355E-15, -1.224646799147353207E-16, 1.000000000000000000 ) ) ;
#119 = FACE_OUTER_BOUND ( 'NONE', #158, .T. ) ;
#120 = FACE_OUTER_BOUND ( 'NONE', #19, .T. ) ;
#121 = CARTESIAN_POINT ( 'NONE',  ( 0.0000000000000000000, 0.0000000000000000000, 0.0000000000000000000 ) ) ;
#122 = CC_DESIGN_DATE_AND_TIME_ASSIGNMENT ( #108, #42, ( #261 ) ) ;
#123 = CARTESIAN_POINT ( 'NONE',  ( 3.491481338843133355E-14, 1.162313831562937730E-32, 10.00000000000000000 ) ) ;
#124 = DIRECTION ( 'NONE',  ( -3.491481338843133355E-15, 1.224646799147353207E-16, -1.000000000000000000 ) ) ;
#125 = ADVANCED_FACE ( 'NONE', ( #2, #99 ), #209, .T. ) ;
#126 = DIRECTION ( 'NONE',  ( 1.000000000000000000, 0.0000000000000000000, 0.0000000000000000000 ) ) ;
#127 = AXIS2_PLACEMENT_3D ( 'NONE', #281, #5, #164 ) ;
#128 = CIRCLE ( 'NONE', #242, 1.500000000000001110 ) ;
#129 =( LENGTH_UNIT ( ) NAMED_UNIT ( * ) SI_UNIT ( .MILLI., .METRE. ) );
#130 = EDGE_LOOP ( 'NONE', ( #230 ) ) ;
#131 = APPLICATION_PROTOCOL_DEFINITION ( 'international standard', 'config_control_design', 1994, #199 ) ;
#132 = DATE_AND_TIME ( #299, #73 ) ;
#133 = FACE_OUTER_BOUND ( 'NONE', #188, .T. ) ;
#134 = APPLICATION_CONTEXT ( 'configuration controlled 3d designs of mechanical parts and assemblies' ) ;
#135 = SECURITY_CLASSIFICATION_LEVEL ( 'unclassified' ) ;
#136 = DIRECTION ( 'NONE',  ( 0.0000000000000000000, 1.000000000000000000, 0.0000000000000000000 ) ) ;
#137 = EDGE_LOOP ( 'NONE', ( #152 ) ) ;
#138 = PERSON_AND_ORGANIZATION ( #279, #33 ) ;
#139 = DIRECTION ( 'NONE',  ( -3.491481338843133355E-15, 1.224646799147353207E-16, -1.000000000000000000 ) ) ;
#140 = SECURITY_CLASSIFICATION ( '', '', #135 ) ;
#141 = CARTESIAN_POINT ( 'NONE',  ( 0.0000000000000000000, 0.0000000000000000000, 0.0000000000000000000 ) ) ;
#142 = CARTESIAN_POINT ( 'NONE',  ( -5.558580879666042335E-31, 1.949687717460413522E-32, -1.592040838891558109E-16 ) ) ;
#143 = CARTESIAN_POINT ( 'NONE',  ( 2.433562493173664138E-13, -8.535788190057053710E-15, 69.70000000000001705 ) ) ;
#144 = CC_DESIGN_PERSON_AND_ORGANIZATION_ASSIGNMENT ( #160, #295, ( #140 ) ) ;
#145 = AXIS2_PLACEMENT_3D ( 'NONE', #142, #240, #26 ) ;
#146 = DIRECTION ( 'NONE',  ( -3.491481338843133355E-15, 1.224646799147353207E-16, -1.000000000000000000 ) ) ;
#147 = CARTESIAN_POINT ( 'NONE',  ( 0.0000000000000000000, 1.299999999999999156, 0.0000000000000000000 ) ) ;
#148 = CARTESIAN_POINT ( 'NONE',  ( 3.491481338843133355E-14, -1.224646799147353256E-15, 10.00000000000000000 ) ) ;
#149 = CIRCLE ( 'NONE', #241, 1.200000000000001510 ) ;
#150 = AXIS2_PLACEMENT_3D ( 'NONE', #187, #68, #161 ) ;
#151 = PRODUCT_DEFINITION_FORMATION_WITH_SPECIFIED_SOURCE ( 'ANY', '', #269, .NOT_KNOWN. ) ;
#152 = ORIENTED_EDGE ( 'NONE', *, *, #14, .T. ) ;
#153 = VERTEX_POINT ( 'NONE', #37 ) ;
#154 = EDGE_CURVE ( 'NONE', #226, #226, #32, .T. ) ;
#155 = CIRCLE ( 'NONE', #101, 1.500000000000001110 ) ;
#156 = APPROVAL_ROLE ( '' ) ;
#157 = FACE_OUTER_BOUND ( 'NONE', #289, .T. ) ;
#158 = EDGE_LOOP ( 'NONE', ( #290 ) ) ;
#159 = CLOSED_SHELL ( 'NONE', ( #102, #125, #191, #49, #70 ) ) ;
#160 = PERSON_AND_ORGANIZATION ( #279, #33 ) ;
#161 = DIRECTION ( 'NONE',  ( 0.0000000000000000000, 1.000000000000000000, 0.0000000000000000000 ) ) ;
#162 = DIRECTION ( 'NONE',  ( -4.275831445896958607E-31, -1.000000000000000000, -1.224646799147353207E-16 ) ) ;
#163 = CARTESIAN_POINT ( 'NONE',  ( 2.433562493173664138E-13, -8.535788190057053710E-15, 69.70000000000001705 ) ) ;
#164 = DIRECTION ( 'NONE',  ( 0.0000000000000000000, 1.000000000000000000, 0.0000000000000000000 ) ) ;
#165 = ORIENTED_EDGE ( 'NONE', *, *, #154, .F. ) ;
#166 = DIRECTION ( 'NONE',  ( -3.491481338843133355E-15, 1.224646799147353207E-16, -1.000000000000000000 ) ) ;
#167 = AXIS2_PLACEMENT_3D ( 'NONE', #208, #139, #109 ) ;
#168 = AXIS2_PLACEMENT_3D ( 'NONE', #141, #238, #96 ) ;
#169 = FACE_BOUND ( 'NONE', #15, .T. ) ;
#170 =( NAMED_UNIT ( * ) SI_UNIT ( $, .STERADIAN. ) SOLID_ANGLE_UNIT ( ) );
#171 = CC_DESIGN_PERSON_AND_ORGANIZATION_ASSIGNMENT ( #251, #61, ( #151 ) ) ;
#172 = PERSON_AND_ORGANIZATION_ROLE ( 'design_owner' ) ;
#173 = ORIENTED_EDGE ( 'NONE', *, *, #21, .F. ) ;
#174 = EDGE_LOOP ( 'NONE', ( #231 ) ) ;
#175 = ADVANCED_FACE ( 'NONE', ( #53, #259 ), #249, .T. ) ;
#176 = CARTESIAN_POINT ( 'NONE',  ( 8.728703347107831416E-16, 1.550000000000000044, 0.2500000000000000000 ) ) ;
#177 = EDGE_LOOP ( 'NONE', ( #116 ) ) ;
#178 = CARTESIAN_POINT ( 'NONE',  ( 3.491481338843133355E-14, 1.549999999999998712, 10.00000000000000000 ) ) ;
#179 = ORIENTED_EDGE ( 'NONE', *, *, #246, .T. ) ;
#180 = CONICAL_SURFACE ( 'NONE', #47, 1.550000000000000044, 0.5235987755983005920 ) ;
#181 = ADVANCED_FACE ( 'NONE', ( #119, #169 ), #8, .T. ) ;
#182 = CIRCLE ( 'NONE', #273, 1.550000000000000044 ) ;
#183 = APPROVAL_STATUS ( 'not_yet_approved' ) ;
#184 = DIRECTION ( 'NONE',  ( -3.491481338843133355E-15, 1.224646799147353207E-16, -1.000000000000000000 ) ) ;
#185 = ORIENTED_EDGE ( 'NONE', *, *, #85, .F. ) ;
#186 = ADVANCED_FACE ( 'NONE', ( #256 ), #218, .F. ) ;
#187 = CARTESIAN_POINT ( 'NONE',  ( 2.444036937190193601E-13, -8.572527594031472993E-15, 70.00000000000000000 ) ) ;
#188 = EDGE_LOOP ( 'NONE', ( #268 ) ) ;
#189 = FACE_OUTER_BOUND ( 'NONE', #174, .T. ) ;
#190 = CYLINDRICAL_SURFACE ( 'NONE', #168, 1.499999999999996891 ) ;
#191 = ADVANCED_FACE ( 'NONE', ( #94, #189 ), #190, .T. ) ;
#192 = CIRCLE ( 'NONE', #71, 1.499999999999993117 ) ;
#193 = CYLINDRICAL_SURFACE ( 'NONE', #224, 1.550000000000000044 ) ;
#194 = DIRECTION ( 'NONE',  ( 0.0000000000000000000, 1.000000000000000000, 0.0000000000000000000 ) ) ;
#195 = DIRECTION ( 'NONE',  ( -3.491481338843133355E-15, 1.224646799147353207E-16, -1.000000000000000000 ) ) ;
#196 = CONICAL_SURFACE ( 'NONE', #150, 1.200000000000001510, 0.7853981633974566057 ) ;
#197 = MANIFOLD_SOLID_BREP ( 'Corps-Déplacer/Copier1[1]', #159 ) ;
#198 = APPROVAL_PERSON_ORGANIZATION ( #138, #36, #156 ) ;
#199 = APPLICATION_CONTEXT ( 'configuration controlled 3d designs of mechanical parts and assemblies' ) ;
#200 = APPROVAL_STATUS ( 'not_yet_approved' ) ;
#201 = EDGE_LOOP ( 'NONE', ( #202 ) ) ;
#202 = ORIENTED_EDGE ( 'NONE', *, *, #114, .T. ) ;
#203 = ORIENTED_EDGE ( 'NONE', *, *, #21, .T. ) ;
#204 = EDGE_CURVE ( 'NONE', #245, #245, #182, .T. ) ;
#205 = APPROVAL_DATE_TIME ( #35, #3 ) ;
#206 = CARTESIAN_POINT ( 'NONE',  ( 3.521718454205911554E-14, 1.499999999999991784, 10.08660254037845583 ) ) ;
#207 = CALENDAR_DATE ( 2021, 2, 12 ) ;
#208 = CARTESIAN_POINT ( 'NONE',  ( 2.444036937190193601E-13, -8.572527594031472993E-15, 70.00000000000000000 ) ) ;
#209 = CONICAL_SURFACE ( 'NONE', #110, 1.550000000000000044, 0.5235987755983005920 ) ;
#210 = DIRECTION ( 'NONE',  ( -3.491481338843133355E-15, 1.224646799147353207E-16, -1.000000000000000000 ) ) ;
#211 = PERSON_AND_ORGANIZATION ( #279, #33 ) ;
#212 = EDGE_LOOP ( 'NONE', ( #113 ) ) ;
#213 = PRODUCT_RELATED_PRODUCT_CATEGORY ( 'detail', '', ( #269 ) ) ;
#214 = EDGE_LOOP ( 'NONE', ( #179 ) ) ;
#215 = CARTESIAN_POINT ( 'NONE',  ( 3.491481338843133355E-14, -1.224646799147353256E-15, 10.00000000000000000 ) ) ;
#216 = DIRECTION ( 'NONE',  ( 4.275831445896958607E-31, 1.000000000000000000, 1.224646799147353207E-16 ) ) ;
#217 = EDGE_LOOP ( 'NONE', ( #271 ) ) ;
#218 = PLANE ( 'NONE',  #235 ) ;
#219 = DESIGN_CONTEXT ( 'detailed design', #199, 'design' ) ;
#220 = CLOSED_SHELL ( 'NONE', ( #59, #294, #181, #10, #186, #175, #55 ) ) ;
#221 = DIRECTION ( 'NONE',  ( -3.491481338843133355E-15, 1.224646799147353207E-16, -1.000000000000000000 ) ) ;
#222 = DIRECTION ( 'NONE',  ( -3.491481338843133355E-15, 1.224646799147353207E-16, -1.000000000000000000 ) ) ;
#223 = VERTEX_POINT ( 'NONE', #79 ) ;
#224 = AXIS2_PLACEMENT_3D ( 'NONE', #121, #221, #4 ) ;
#225 = PERSON_AND_ORGANIZATION ( #279, #33 ) ;
#226 = VERTEX_POINT ( 'NONE', #206 ) ;
#227 = EDGE_CURVE ( 'NONE', #78, #78, #155, .T. ) ;
#228 = DIRECTION ( 'NONE',  ( 0.0000000000000000000, 0.0000000000000000000, 1.000000000000000000 ) ) ;
#229 = PERSON_AND_ORGANIZATION_ROLE ( 'creator' ) ;
#230 = ORIENTED_EDGE ( 'NONE', *, *, #154, .T. ) ;
#231 = ORIENTED_EDGE ( 'NONE', *, *, #227, .T. ) ;
#232 = SHAPE_DEFINITION_REPRESENTATION ( #82, #233 ) ;
#233 = ADVANCED_BREP_SHAPE_REPRESENTATION ( '321536', ( #197, #282, #284 ), #117 ) ;
#234 = EDGE_LOOP ( 'NONE', ( #173 ) ) ;
#235 = AXIS2_PLACEMENT_3D ( 'NONE', #28, #48, #51 ) ;
#236 = CARTESIAN_POINT ( 'NONE',  ( -2.779290439833021167E-31, 9.748438587302067609E-33, -7.960204194457790546E-17 ) ) ;
#237 = CARTESIAN_POINT ( 'NONE',  ( 2.444036937190193601E-13, -8.572527594031472993E-15, 70.00000000000000000 ) ) ;
#238 = DIRECTION ( 'NONE',  ( -3.491481338843133355E-15, 1.224646799147353207E-16, -1.000000000000000000 ) ) ;
#239 = DIRECTION ( 'NONE',  ( -3.491481338843133355E-15, 1.224646799147353207E-16, -1.000000000000000000 ) ) ;
#240 = DIRECTION ( 'NONE',  ( -3.491481338843133355E-15, 1.224646799147353207E-16, -1.000000000000000000 ) ) ;
#241 = AXIS2_PLACEMENT_3D ( 'NONE', #252, #93, #136 ) ;
#242 = AXIS2_PLACEMENT_3D ( 'NONE', #163, #258, #50 ) ;
#243 = DIRECTION ( 'NONE',  ( 0.0000000000000000000, 1.000000000000000000, 0.0000000000000000000 ) ) ;
#244 = EDGE_CURVE ( 'NONE', #83, #83, #128, .T. ) ;
#245 = VERTEX_POINT ( 'NONE', #176 ) ;
#246 = EDGE_CURVE ( 'NONE', #31, #31, #38, .T. ) ;
#247 = CC_DESIGN_SECURITY_CLASSIFICATION ( #140, ( #151 ) ) ;
#248 = COORDINATED_UNIVERSAL_TIME_OFFSET ( 1, 0, .AHEAD. ) ;
#249 = CONICAL_SURFACE ( 'NONE', #266, 1.200000000000001510, 0.7853981633974566057 ) ;
#250 = FACE_BOUND ( 'NONE', #286, .T. ) ;
#251 = PERSON_AND_ORGANIZATION ( #279, #33 ) ;
#252 = CARTESIAN_POINT ( 'NONE',  ( 2.444036937190193601E-13, -8.572527594031472993E-15, 70.00000000000000000 ) ) ;
#253 = CALENDAR_DATE ( 2021, 2, 12 ) ;
#254 = CC_DESIGN_PERSON_AND_ORGANIZATION_ASSIGNMENT ( #16, #39, ( #151 ) ) ;
#255 = FACE_BOUND ( 'NONE', #201, .T. ) ;
#256 = FACE_OUTER_BOUND ( 'NONE', #107, .T. ) ;
#257 = CIRCLE ( 'NONE', #127, 1.550000000000000044 ) ;
#258 = DIRECTION ( 'NONE',  ( -3.491481338843133355E-15, 1.224646799147353207E-16, -1.000000000000000000 ) ) ;
#259 = FACE_BOUND ( 'NONE', #137, .T. ) ;
#260 = DIRECTION ( 'NONE',  ( 0.0000000000000000000, 1.000000000000000000, 0.0000000000000000000 ) ) ;
#261 = PRODUCT_DEFINITION ( 'UNKNOWN', '', #151, #219 ) ;
#262 = CIRCLE ( 'NONE', #167, 1.200000000000001510 ) ;
#263 = CARTESIAN_POINT ( 'NONE',  ( 3.521718454205911554E-14, -1.235252551534603699E-15, 10.08660254037845583 ) ) ;
#264 = CC_DESIGN_PERSON_AND_ORGANIZATION_ASSIGNMENT ( #285, #172, ( #269 ) ) ;
#265 = VERTEX_POINT ( 'NONE', #80 ) ;
#266 = AXIS2_PLACEMENT_3D ( 'NONE', #237, #146, #76 ) ;
#267 = FACE_OUTER_BOUND ( 'NONE', #298, .T. ) ;
#268 = ORIENTED_EDGE ( 'NONE', *, *, #244, .T. ) ;
#269 = PRODUCT ( '321536', '321536', '', ( #29 ) ) ;
#270 = APPROVAL_DATE_TIME ( #62, #276 ) ;
#271 = ORIENTED_EDGE ( 'NONE', *, *, #85, .T. ) ;
#272 = ORIENTED_EDGE ( 'NONE', *, *, #246, .F. ) ;
#273 = AXIS2_PLACEMENT_3D ( 'NONE', #98, #239, #275 ) ;
#274 = PLANE ( 'NONE',  #65 ) ;
#275 = DIRECTION ( 'NONE',  ( 3.727606343975295228E-31, 1.000000000000000000, 1.398970545142586295E-16 ) ) ;
#276 = APPROVAL ( #183, 'UNSPECIFIED' ) ;
#277 = DIRECTION ( 'NONE',  ( -3.491481338843133355E-15, 1.224646799147353207E-16, -1.000000000000000000 ) ) ;
#278 = CC_DESIGN_APPROVAL ( #3, ( #261 ) ) ;
#279 = PERSON ( 'UNSPECIFIED', 'UNSPECIFIED', 'UNSPECIFIED', ('UNSPECIFIED'), ('UNSPECIFIED'), ('UNSPECIFIED') ) ;
#280 = PLANE ( 'NONE',  #86 ) ;
#281 = CARTESIAN_POINT ( 'NONE',  ( 3.491481338843133355E-14, -1.224646799147353256E-15, 10.00000000000000000 ) ) ;
#282 = MANIFOLD_SOLID_BREP ( 'Corps-Déplacer/Copier1[2]', #220 ) ;
#283 = FACE_OUTER_BOUND ( 'NONE', #43, .T. ) ;
#284 = AXIS2_PLACEMENT_3D ( 'NONE', #11, #228, #126 ) ;
#285 = PERSON_AND_ORGANIZATION ( #279, #33 ) ;
#286 = EDGE_LOOP ( 'NONE', ( #203 ) ) ;
#287 = CC_DESIGN_APPROVAL ( #36, ( #140 ) ) ;
#288 = PERSON_AND_ORGANIZATION ( #279, #33 ) ;
#289 = EDGE_LOOP ( 'NONE', ( #185 ) ) ;
#290 = ORIENTED_EDGE ( 'NONE', *, *, #204, .T. ) ;
#291 = DATE_TIME_ROLE ( 'classification_date' ) ;
#292 = CC_DESIGN_APPROVAL ( #276, ( #151 ) ) ;
#293 = CYLINDRICAL_SURFACE ( 'NONE', #7, 1.499999999999996891 ) ;
#294 = ADVANCED_FACE ( 'NONE', ( #27, #120 ), #193, .T. ) ;
#295 = PERSON_AND_ORGANIZATION_ROLE ( 'classification_officer' ) ;
#296 = DIRECTION ( 'NONE',  ( 4.275831445896958607E-31, 1.000000000000000000, 1.224646799147353454E-16 ) ) ;
#297 = DATE_AND_TIME ( #253, #18 ) ;
#298 = EDGE_LOOP ( 'NONE', ( #45 ) ) ;
#299 = CALENDAR_DATE ( 2021, 2, 12 ) ;
#300 = APPROVAL_PERSON_ORGANIZATION ( #211, #276, #115 ) ;
#301 = EDGE_CURVE ( 'NONE', #103, #103, #66, .T. ) ;
#302 = DIRECTION ( 'NONE',  ( -4.275831445896958607E-31, -1.000000000000000000, -1.224646799147353207E-16 ) ) ;
#303 = PLANE ( 'NONE',  #17 ) ;
ENDSEC;
END-ISO-10303-21;
